0
SECTION
2
HEADER
9
$INSUNITS
70
4
9
$ACADVER
1
AC1014
9
$HANDSEED
5
FFFF
0
ENDSEC
0
SECTION
2
TABLES
0
TABLE
2
VPORT
5
8
100
AcDbSymbolTable
0
ENDTAB
0
TABLE
2
LTYPE
5
5
100
AcDbSymbolTable
0
LTYPE
5
14
100
AcDbSymbolTableRecord
100
AcDbLinetypeTableRecord
2
BYBLOCK
70
0
0
LTYPE
5
15
100
AcDbSymbolTableRecord
100
AcDbLinetypeTableRecord
2
BYLAYER
70
0
0
ENDTAB
0
TABLE
2
LAYER
5
2
100
AcDbSymbolTable
70
2
0
LAYER
5
50
100
AcDbSymbolTableRecord
100
AcDbLayerTableRecord
2
0
70
0
6
CONTINUOUS
0
ENDTAB
0
TABLE
2
STYLE
5
3
100
AcDbSymbolTable
70
1
0
STYLE
5
11
100
AcDbSymbolTableRecord
100
AcDbTextStyleTableRecord
2
STANDARD
70
0
0
ENDTAB
0
TABLE
2
VIEW
5
6
100
AcDbSymbolTable
70
0
0
ENDTAB
0
TABLE
2
UCS
5
7
100
AcDbSymbolTable
70
0
0
ENDTAB
0
TABLE
2
APPID
5
9
100
AcDbSymbolTable
70
2
0
APPID
5
12
100
AcDbSymbolTableRecord
100
AcDbRegAppTableRecord
2
ACAD
70
0
0
ENDTAB
0
TABLE
2
DIMSTYLE
5
A
100
AcDbSymbolTable
70
1
0
ENDTAB
0
TABLE
2
BLOCK_RECORD
5
1
100
AcDbSymbolTable
70
1
0
BLOCK_RECORD
5
1F
100
AcDbSymbolTableRecord
100
AcDbBlockTableRecord
2
*MODEL_SPACE
0
BLOCK_RECORD
5
1B
100
AcDbSymbolTableRecord
100
AcDbBlockTableRecord
2
*PAPER_SPACE
0
ENDTAB
0
ENDSEC
0
SECTION
2
BLOCKS
0
BLOCK
5
20
100
AcDbEntity
100
AcDbBlockBegin
2
*MODEL_SPACE
0
ENDBLK
5
21
100
AcDbEntity
100
AcDbBlockEnd
0
BLOCK
5
1C
100
AcDbEntity
100
AcDbBlockBegin
2
*PAPER_SPACE
0
ENDBLK
5
1D
100
AcDbEntity
100
AcDbBlockEnd
0
ENDSEC
0
SECTION
2
ENTITIES
0
LWPOLYLINE
5
100
100
AcDbEntity
8
0
100
AcDbPolyline
90
90
70
1
43
0.0
10
227.41382063769873
20
-12.479587837166811
42
-0.41421356237310231
10
224.91382063769873
20
-9.9795878371668181
10
224.91382063769873
20
-2.9999999329447746
10
226.91382063769873
20
-2.9999999329447746
10
226.91382063769873
20
-2.7999999999999998
10
224.91382063769873
20
-2.7999999999999998
10
214.64382063769872
20
-2.7999999999999998
10
212.64382063769872
20
-2.7999999999999998
10
212.64382063769872
20
-2.9999999329447746
10
214.64382063769872
20
-2.9999999329447746
10
214.64382063769872
20
-9.9346951395043046
42
-0.41421356237310203
10
212.14382063769872
20
-12.434695139504303
10
207.14382063769872
20
-12.434695139504298
42
-0.41421356237310231
10
204.64382063769872
20
-9.9346951395043064
10
204.64382063769872
20
-2.9999999329447746
10
206.6438206376987
20
-2.9999999329447746
10
206.6438206376987
20
-2.7999999999999998
10
204.64382063769872
20
-2.7999999999999998
10
194.37382063769877
20
-2.7999999999999998
10
192.37382063769877
20
-2.7999999999999998
10
192.37382063769877
20
-3.0000000447034836
10
194.37382063769877
20
-3.0000000447034836
10
194.37382063769877
20
-9.9346951395043082
42
-0.41421356237310203
10
191.87382063769877
20
-12.43469513950431
10
186.87382063769877
20
-12.434695139504303
42
-0.41421356237310231
10
184.37382063769877
20
-9.9346951395043135
10
184.37382063769877
20
-3.0000000447034836
10
186.37382063769877
20
-3.0000000447034836
10
186.37382063769877
20
-2.7999999999999998
10
184.37382063769877
20
-2.7999999999999998
10
174.10382063769876
20
-2.7999999999999998
10
172.10382063769879
20
-2.7999999999999998
10
172.10382063769879
20
-2.9999999329447746
10
174.10382063769876
20
-2.9999999329447746
10
174.10382063769876
20
-9.9346951395043135
42
-0.41421356237310181
10
171.60382063769876
20
-12.434695139504315
10
166.60382063769876
20
-12.434695139504308
42
-0.41421356237310231
10
164.10382063769876
20
-9.934695139504317
10
164.10382063769876
20
-2.9999999329447746
10
166.10382063769876
20
-2.9999999329447746
10
166.10382063769876
20
-2.7999999999999998
10
164.10382063769876
20
-2.7999999999999998
10
134.92185617634195
20
-2.7999999999999998
10
132.92185617634195
20
-2.7999999999999998
10
132.92185617634195
20
-2.9999999329447795
10
134.92185617634195
20
-2.9999999329447791
10
134.92185617634195
20
-10.300000000000001
42
-0.41421356237309215
10
132.42185617634195
20
-12.800000000000011
10
127.42185617634193
20
-12.799999999999994
42
-0.41421356237309215
10
124.92185617634195
20
-10.300000000000001
10
124.92185617634193
20
-2.9999999329447795
10
126.92185617634193
20
-2.9999999329447746
10
126.92185617634193
20
-2.7999999999999998
10
124.92185617634193
20
-2.7999999999999998
10
70.075872048871815
20
-2.7999999999999998
10
68.075872048871815
20
-2.7999999999999998
10
68.075872048871815
20
-2.9999999329447746
10
70.075872048871815
20
-2.9999999329447746
10
70.075872048871815
20
-10.300000000000001
42
-0.4142135623730932
10
67.575872048871815
20
-12.800000000000002
10
62.575872048871815
20
-12.800000000000002
42
-0.4142135623730932
10
60.075872048871815
20
-10.300000000000001
10
60.075872048871815
20
-2.9999999329447746
10
62.075872048871823
20
-2.9999999329447746
10
62.075872048871823
20
-2.7999999999999998
10
60.075872048871815
20
-2.7999999999999998
10
9.8072515068701627
20
-2.7999999999999998
10
7.8072515068701627
20
-2.7999999999999998
10
7.8072515068701627
20
-2.9999999329447746
10
9.8072515068701627
20
-2.9999999329447746
10
9.8072515068701627
20
-10.300000000000001
42
-0.41421356237309453
10
7.3072515068701627
20
-12.800000000000001
10
2.3072515068701631
20
-12.800000000000001
42
-0.41421356237309553
10
-0.19274849312983705
20
-10.300000000000001
10
-0.19274849312983733
20
-2.9999999329447746
10
1.8072515068701624
20
-2.9999999329447746
10
1.8072515068701624
20
-2.7999999999999998
10
-0.19274849312983733
20
-2.7999999999999998
10
-10.160841082900411
20
-2.8000000000000025
10
-10.160841082900408
20
72.624346882008865
42
-0.41421356237309348
10
-7.6608410829004114
20
75.124346882008865
10
237.7085600190531
20
75.124346882008894
42
-0.41421356237308982
10
240.20856001905312
20
72.624346882008822
10
240.20856001905312
20
-2.7999999999999998
10
234.91382063769873
20
-2.7999999999999998
10
232.91382063769873
20
-2.7999999999999998
10
232.91382063769873
20
-2.9999999329447746
10
234.91382063769873
20
-2.9999999329447746
10
234.91382063769873
20
-9.9795878371668181
42
-0.41421356237310231
10
232.41382063769873
20
-12.479587837166818
0
LWPOLYLINE
5
101
100
AcDbEntity
8
0
100
AcDbPolyline
90
20
70
1
43
0.0
10
166.14201124231673
20
22.019309075030364
10
167.16382077966512
20
22.01930907506997
42
-0.41421356238442941
10
167.66382077968439
20
21.519309075070012
10
167.66382077968419
20
17.518405613120585
42
0.99999999999999989
10
170.54382049571333
20
17.51840561310155
10
170.543820495766
20
21.519309075226857
42
-0.41421356235789236
10
171.04382049574664
20
22.019309075220281
10
172.06563003309495
20
22.019309075259873
42
0.41421356236175289
10
173.06563003305604
20
23.01930907525972
10
173.06563003305604
20
61.019309075030364
42
0.41421356237309503
10
172.06563003305601
20
62.019309075030414
10
171.04382049630664
20
62.019309075030421
42
-0.41421356237699714
10
170.54382049630703
20
62.519309075036524
10
170.54382049635976
20
66.520212537161839
42
0.99968634704474324
10
167.66382077968188
20
66.51930907503035
10
167.66382077968476
20
62.519309075030314
42
-0.4142135623730534
10
167.16382077968473
20
62.01930907503035
10
166.14201124227802
20
62.019309075030343
42
0.41421356237309503
10
165.14201124227799
20
61.019309075030336
10
165.14201124227799
20
23.019309075030414
42
0.4142135623844268
0
LWPOLYLINE
5
102
100
AcDbEntity
8
0
100
AcDbPolyline
90
20
70
1
43
0.0
10
233.87563003305604
20
23.01930907525972
10
233.87563003305604
20
61.019309075030364
42
0.41421356237309503
10
232.87563003305598
20
62.019309075030414
10
231.85382049630661
20
62.019309075030392
42
-0.41421356237697632
10
231.35382049630704
20
62.519309075036524
10
231.35382049635976
20
66.520212537161839
42
0.99968634704474324
10
228.47382077968189
20
66.51930907503035
10
228.47382077968473
20
62.519309075030314
42
-0.41421356237307422
10
227.97382077968473
20
62.01930907503035
10
226.95201124227799
20
62.019309075030343
42
0.41421356237309503
10
225.95201124227799
20
61.019309075030336
10
225.95201124227799
20
23.019309075030414
42
0.4142135623844268
10
226.95201124231673
20
22.019309075030364
10
227.97382077966512
20
22.019309075069934
42
-0.41421356238445023
10
228.47382077968436
20
21.519309075070012
10
228.47382077968419
20
17.518405613120585
42
0.99999999999999989
10
231.35382049571334
20
17.51840561310155
10
231.353820495766
20
21.519309075226857
42
-0.41421356235789236
10
231.85382049574662
20
22.019309075220281
10
232.87563003309492
20
22.019309075259873
42
0.41421356236175289
0
LWPOLYLINE
5
103
100
AcDbEntity
8
0
100
AcDbPolyline
90
20
70
1
43
0.0
10
205.68201124227798
20
61.019309075030336
10
205.68201124227798
20
23.019309075030414
42
0.4142135623844268
10
206.68201124231672
20
22.019309075030364
10
207.70382077966508
20
22.019309075069934
42
-0.41421356238445023
10
208.20382077968435
20
21.519309075070012
10
208.20382077968418
20
17.518405613120585
42
0.99999999999999989
10
211.08382049571333
20
17.51840561310155
10
211.08382049576596
20
21.519309075226857
42
-0.41421356235789236
10
211.58382049574664
20
22.019309075220281
10
212.60563003309494
20
22.019309075259873
42
0.41421356236175289
10
213.60563003305603
20
23.01930907525972
10
213.60563003305603
20
61.019309075030364
42
0.41421356237309503
10
212.605630033056
20
62.019309075030414
10
211.5838204963066
20
62.019309075030392
42
-0.41421356237697632
10
211.08382049630703
20
62.519309075036524
10
211.08382049635975
20
66.520212537161839
42
0.99968634704474324
10
208.20382077968188
20
66.51930907503035
10
208.20382077968472
20
62.519309075030314
42
-0.41421356237307422
10
207.70382077968469
20
62.01930907503035
10
206.68201124227801
20
62.019309075030343
42
0.41421356237309503
0
LWPOLYLINE
5
104
100
AcDbEntity
8
0
100
AcDbPolyline
90
20
70
1
43
0.0
10
190.81382049571334
20
17.518405613120507
42
-0.99999999999999989
10
187.9338207796842
20
17.518405613120585
10
187.93382077968437
20
21.519309075070012
42
0.41421356238442941
10
187.43382077966513
20
22.019309075069952
10
186.41201124231674
20
22.019309075030364
42
-0.4142135623844268
10
185.412011242278
20
23.019309075030414
10
185.412011242278
20
61.019309075030336
42
-0.41421356237309503
10
186.41201124227803
20
62.019309075030343
10
187.43382077968474
20
62.01930907503035
42
0.4142135623730534
10
187.93382077968474
20
62.519309075030314
10
187.93382077968189
20
66.519309075030264
42
-0.99968634704474324
10
190.81382049635977
20
66.520212537161839
10
190.81382049630705
20
62.519309075036524
42
0.41421356237699714
10
191.31382049630662
20
62.019309075030407
10
192.33563003305602
20
62.019309075030414
42
-0.41421356237309503
10
193.33563003305608
20
61.019309075030364
10
193.33563003305608
20
23.01930907525972
42
-0.41421356236175289
10
192.33563003309496
20
22.019309075259873
10
191.31382049574665
20
22.019309075220281
42
0.41421356235789236
10
190.81382049576601
20
21.519309075226857
0
LINE
5
105
100
AcDbEntity
8
0
100
AcDbLine
10
211.08331679054001
20
66.120086595434159
30
0
11
211.08331679054001
21
66.120086595434159
31
0
0
LINE
5
106
100
AcDbEntity
8
0
100
AcDbLine
10
190.81331679054003
20
18.328131579628405
30
0
11
190.81331679054003
21
18.328131579628405
31
0
0
LINE
5
107
100
AcDbEntity
8
0
100
AcDbLine
10
170.54331679054002
20
18.328131579628405
30
0
11
170.54331679054002
21
18.328131579628405
31
0
0
LINE
5
108
100
AcDbEntity
8
0
100
AcDbLine
10
170.54331679054002
20
66.120086595434159
30
0
11
170.54331679054002
21
66.120086595434159
31
0
0
LWPOLYLINE
5
109
100
AcDbEntity
8
0
100
AcDbPolyline
90
4
70
1
43
0.0
10
0
20
0
10
0
20
50
10
155
20
50
10
155
20
0
0
LINE
5
110
100
AcDbEntity
8
0
100
AcDbLine
10
190.81331679054003
20
66.120086595434159
30
0
11
190.81331679054003
21
66.120086595434159
31
0
0
LINE
5
111
100
AcDbEntity
8
0
100
AcDbLine
10
211.08331679054001
20
18.328131579628405
30
0
11
211.08331679054001
21
18.328131579628405
31
0
0
LINE
5
112
100
AcDbEntity
8
0
100
AcDbLine
10
231.35331679054002
20
18.328131579628405
30
0
11
231.35331679054002
21
18.328131579628405
31
0
0
LINE
5
113
100
AcDbEntity
8
0
100
AcDbLine
10
231.35331679054002
20
66.120086595434159
30
0
11
231.35331679054002
21
66.120086595434159
31
0
0
CIRCLE
5
114
100
AcDbEntity
8
0
100
AcDbCircle
10
4.8072515068701627
20
-7.9888865850253392
30
0
40
1.2500000000000002
0
CIRCLE
5
115
100
AcDbEntity
8
0
100
AcDbCircle
10
65.075872048871815
20
-7.9888865850253392
30
0
40
1.25
0
CIRCLE
5
116
100
AcDbEntity
8
0
100
AcDbCircle
10
129.92185617634195
20
-7.9888865850253392
30
0
40
1.25
0
CIRCLE
5
117
100
AcDbEntity
8
0
100
AcDbCircle
10
169.10382063769876
20
-7.9888865850253392
30
0
40
1.2500000000000004
0
CIRCLE
5
118
100
AcDbEntity
8
0
100
AcDbCircle
10
189.37382063769877
20
-7.9888865850253392
30
0
40
1.25
0
CIRCLE
5
119
100
AcDbEntity
8
0
100
AcDbCircle
10
209.64382063769872
20
-7.9888865850253392
30
0
40
1.25
0
CIRCLE
5
120
100
AcDbEntity
8
0
100
AcDbCircle
10
229.91382063769873
20
-7.9888865850253392
30
0
40
1.25
0
ENDSEC
0
SECTION
2
OBJECTS
0
DICTIONARY
5
C
100
AcDbDictionary
3
ACAD_GROUP
350
D
3
ACAD_MLINESTYLE
350
17
0
DICTIONARY
5
D
100
AcDbDictionary
0
DICTIONARY
5
1A
330
C
100
AcDbDictionary
0
DICTIONARY
5
17
100
AcDbDictionary
0
ENDSEC
0
EOF
