  0
SECTION
  2
HEADER
  9
$ACADVER
  1
AC1006
  0
ENDSEC
  0
SECTION
  2
TABLES
  0
TABLE
  2
LTYPE
 70
    25
  0
LTYPE
  2
CONTINUOUS
 70
    64
  3
Solid line
 72
    64
 73
     0
 40
0.000000
  0
LTYPE
  2
DASHDOT
 70
    64
  3
__ . __ . __ . __ . __ . __ . __ . __ . __ . __
 72
    65
 73
     4
 40
1.000000
 49
0.500000
 49
-0.250000
 49
0.000000
 49
-0.250000
  0
LTYPE
  2
DASHED
 70
    64
  3
__ __ __ __ __ __ __ __ __ __ __ __ __ __ __ __
 72
    65
 73
     2
 40
0.750000
 49
0.500000
 49
-0.250000
  0
LTYPE
  2
DIVIDE
 70
    64
  3
____ . . ____ . . ____ . . ____ . . ____ . . __
 72
    65
 73
     6
 40
1.250000
 49
0.500000
 49
-0.250000
 49
0.000000
 49
-0.250000
 49
0.000000
 49
-0.250000
  0
LTYPE
  2
DOT
 70
    64
  3
. . . . . . . . . . . . . . . . . . . . . . . . 
 72
    65
 73
     2
 40
0.250000
 49
0.000000
 49
-0.250000
  0
ENDTAB
  0
ENDSEC
  0
SECTION
  2
ENTITIES
  0
LINE
  8
1
 62
     7
  6
DOT
 10
0.000000
 20
0.000000
 30
1.000000
 11
5.346300
 21
30.500000
 31
1.000000
  0
LINE
  8
1
 62
     7
  6
CONTINUOUS
 10
5.346300
 20
30.500000
 30
1.000000
 11
5.323900
 21
30.432800
 31
1.000000
  0
ARC
  8
1
 62
     7
  6
CONTINUOUS
 10
5.323819
 20
30.495300
 30
1.000000
 40
0.062500
 50
270.073811
 51
315.765299
  0
LINE
  8
1
 62
     7
  6
CONTINUOUS
 10
5.368600
 20
30.451700
 30
1.000000
 11
6.214300
 21
31.317900
 31
1.000000
  0
ARC
  8
1
 62
     7
  6
CONTINUOUS
 10
6.259080
 20
31.274300
 30
1.000000
 40
0.062500
 50
89.982094
 51
135.765236
  0
LINE
  8
1
 62
     7
  6
CONTINUOUS
 10
6.259100
 20
31.336800
 30
1.000000
 11
6.273100
 21
31.336800
 31
1.000000
  0
ARC
  8
1
 62
     7
  6
CONTINUOUS
 10
6.273020
 20
31.274300
 30
1.000000
 40
0.062500
 50
315.765166
 51
449.926282
  0
LINE
  8
1
 62
     7
  6
CONTINUOUS
 10
6.317800
 20
31.230700
 30
1.000000
 11
6.194000
 21
31.106900
 31
1.000000
  0
LINE
  8
1
 62
     7
  6
CONTINUOUS
 10
6.194000
 20
31.106900
 30
1.000000
 11
6.244900
 21
31.055900
 31
1.000000
  0
LINE
  8
1
 62
     7
  6
CONTINUOUS
 10
6.244900
 20
31.055900
 30
1.000000
 11
6.323500
 21
31.134600
 31
1.000000
  0
ARC
  8
1
 62
     7
  6
CONTINUOUS
 10
6.367700
 20
31.090412
 30
1.000000
 40
0.062500
 50
359.989316
 51
495.007555
  0
LINE
  8
1
 62
     7
  6
CONTINUOUS
 10
6.430200
 20
31.090400
 30
1.000000
 11
6.430200
 21
30.877700
 31
1.000000
  0
ARC
  8
1
 62
     7
  6
CONTINUOUS
 10
6.367700
 20
30.877700
 30
1.000000
 40
0.062500
 50
270.000000
 51
360.000000
  0
LINE
  8
1
 62
     7
  6
CONTINUOUS
 10
6.367700
 20
30.815200
 30
1.000000
 11
6.000200
 21
30.815300
 31
1.000000
  0
LINE
  8
1
 62
     7
  6
CONTINUOUS
 10
6.000200
 20
30.815300
 30
1.000000
 11
5.889700
 21
30.815300
 31
1.000000
  0
ARC
  8
1
 62
     7
  6
CONTINUOUS
 10
5.889683
 20
30.752800
 30
1.000000
 40
0.062500
 50
89.984310
 51
135.637148
  0
LINE
  8
1
 62
     7
  6
CONTINUOUS
 10
5.845000
 20
30.796500
 30
1.000000
 11
5.593600
 21
30.539000
 31
1.000000
  0
ARC
  8
1
 62
     7
  6
CONTINUOUS
 10
5.638283
 20
30.495300
 30
1.000000
 40
0.062500
 50
135.637004
 51
270.107464
  0
LINE
  8
1
 62
     7
  6
CONTINUOUS
 10
5.638400
 20
30.432800
 30
1.000000
 11
6.000200
 21
30.432800
 31
1.000000
  0
LINE
  8
1
 62
     7
  6
CONTINUOUS
 10
6.000200
 20
30.432800
 30
1.000000
 11
6.000200
 21
30.347600
 31
1.000000
  0
LINE
  8
1
 62
     7
  6
CONTINUOUS
 10
6.000200
 20
30.347600
 30
1.000000
 11
5.445700
 21
30.347600
 31
1.000000
  0
LINE
  8
1
 62
     7
  6
CONTINUOUS
 10
5.445700
 20
30.347600
 30
1.000000
 11
5.445700
 21
30.275600
 31
1.000000
  0
LINE
  8
1
 62
     7
  6
CONTINUOUS
 10
5.445700
 20
30.275600
 30
1.000000
 11
6.000200
 21
30.275600
 31
1.000000
  0
LINE
  8
1
 62
     7
  6
CONTINUOUS
 10
6.000200
 20
30.275600
 30
1.000000
 11
6.000200
 21
30.190300
 31
1.000000
  0
LINE
  8
1
 62
     7
  6
CONTINUOUS
 10
6.000200
 20
30.190300
 30
1.000000
 11
4.858000
 21
30.190300
 31
1.000000
  0
LINE
  8
1
 62
     7
  6
CONTINUOUS
 10
4.858000
 20
30.190300
 30
1.000000
 11
4.691900
 21
30.246900
 31
1.000000
  0
ARC
  8
1
 62
     7
  6
CONTINUOUS
 10
4.703319
 20
30.311600
 30
1.000000
 40
0.065700
 50
100.009384
 51
259.990616
  0
LINE
  8
1
 62
     7
  6
CONTINUOUS
 10
4.691900
 20
30.376300
 30
1.000000
 11
4.858200
 21
30.432800
 31
1.000000
  0
LINE
  8
1
 62
     7
  6
CONTINUOUS
 10
4.858200
 20
30.432800
 30
1.000000
 11
5.290300
 21
30.432800
 31
1.000000
  0
LINE
  8
1
 62
     7
  6
CONTINUOUS
 10
5.290300
 20
30.432800
 30
1.000000
 11
5.212000
 21
30.477600
 31
1.000000
  0
LINE
  8
1
 62
     7
  6
DOT
 10
5.212000
 20
30.477600
 30
1.000000
 11
8.056000
 21
30.049300
 31
1.000000
  0
LINE
  8
1
 62
     7
  6
CONTINUOUS
 10
8.056000
 20
30.049300
 30
1.000000
 11
8.087700
 21
30.010700
 31
1.000000
  0
ARC
  8
1
 62
     7
  6
CONTINUOUS
 10
8.057300
 20
30.047846
 30
1.000000
 40
0.048000
 50
309.296446
 51
359.944834
  0
LINE
  8
1
 62
     7
  6
CONTINUOUS
 10
8.105300
 20
30.047800
 30
1.000000
 11
8.105300
 21
30.201000
 31
1.000000
  0
ARC
  8
1
 62
     7
  6
CONTINUOUS
 10
8.057300
 20
30.201079
 30
1.000000
 40
0.048000
 50
359.905249
 51
433.913876
  0
ARC
  8
1
 62
     7
  6
CONTINUOUS
 10
8.160257
 20
30.559484
 30
1.000000
 40
0.324900
 50
207.512388
 51
253.981140
  0
ARC
  8
1
 62
     7
  6
CONTINUOUS
 10
7.829595
 20
30.387100
 30
1.000000
 40
0.048000
 50
27.683103
 51
89.874102
  0
LINE
  8
1
 62
     7
  6
CONTINUOUS
 10
7.829700
 20
30.435100
 30
1.000000
 11
7.667200
 21
30.435300
 31
1.000000
  0
ARC
  8
1
 62
     7
  6
CONTINUOUS
 10
7.667525
 20
30.387301
 30
1.000000
 40
0.048000
 50
90.387544
 51
199.219591
  0
ARC
  8
1
 62
     7
  6
CONTINUOUS
 10
8.160309
 20
30.559486
 30
1.000000
 40
0.570000
 50
199.256630
 51
258.615965
  0
ARC
  8
1
 62
     7
  6
CONTINUOUS
 10
8.057206
 20
30.047769
 30
1.000000
 40
0.048000
 50
258.698911
 51
309.441142
  0
LINE
  8
1
 62
     7
  6
DOT
 10
8.087700
 20
30.010700
 30
1.000000
 11
8.264600
 21
30.049300
 31
1.000000
  0
LINE
  8
1
 62
     7
  6
CONTINUOUS
 10
8.264600
 20
30.049300
 30
1.000000
 11
8.232900
 21
30.010700
 31
1.000000
  0
ARC
  8
1
 62
     7
  6
CONTINUOUS
 10
8.263356
 20
30.047801
 30
1.000000
 40
0.048000
 50
230.617513
 51
281.712780
  0
ARC
  8
1
 62
     7
  6
CONTINUOUS
 10
8.160306
 20
30.559528
 30
1.000000
 40
0.570000
 50
281.413275
 51
340.738843
  0
ARC
  8
1
 62
     7
  6
CONTINUOUS
 10
8.653075
 20
30.387301
 30
1.000000
 40
0.048000
 50
340.779940
 51
450.448181
  0
LINE
  8
1
 62
     7
  6
CONTINUOUS
 10
8.652700
 20
30.435300
 30
1.000000
 11
8.491000
 21
30.435100
 31
1.000000
  0
ARC
  8
1
 62
     7
  6
CONTINUOUS
 10
8.491058
 20
30.387100
 30
1.000000
 40
0.048000
 50
90.068926
 51
152.451501
  0
ARC
  8
1
 62
     7
  6
CONTINUOUS
 10
8.160317
 20
30.559553
 30
1.000000
 40
0.325000
 50
286.036758
 51
332.463381
  0
ARC
  8
1
 62
     7
  6
CONTINUOUS
 10
8.263299
 20
30.201050
 30
1.000000
 40
0.048000
 50
105.961203
 51
180.299002
  0
LINE
  8
1
 62
     7
  6
CONTINUOUS
 10
8.215300
 20
30.200800
 30
1.000000
 11
8.215300
 21
30.047800
 31
1.000000
  0
ARC
  8
1
 62
     7
  6
CONTINUOUS
 10
8.263300
 20
30.047846
 30
1.000000
 40
0.048000
 50
180.055166
 51
230.703554
  0
LINE
  8
1
 62
     7
  6
DOT
 10
8.232900
 20
30.010700
 30
1.000000
 11
6.410300
 21
29.864500
 31
1.000000
  0
LINE
  8
1
 62
     7
  6
DOT
 10
6.410300
 20
29.864500
 30
1.000000
 11
6.180300
 21
29.864500
 31
1.000000
  0
LINE
  8
1
 62
     7
  6
CONTINUOUS
 10
6.180300
 20
29.864500
 30
1.000000
 11
6.230300
 21
29.864500
 31
1.000000
  0
LINE
  8
1
 62
     7
  6
CONTINUOUS
 10
6.230300
 20
29.864500
 30
1.000000
 11
6.230300
 21
30.213800
 31
1.000000
  0
ARC
  8
1
 62
     7
  6
CONTINUOUS
 10
6.246297
 20
30.213500
 30
1.000000
 40
0.016000
 50
89.989928
 51
178.925642
  0
LINE
  8
1
 62
     7
  6
CONTINUOUS
 10
6.246300
 20
30.229500
 30
1.000000
 11
6.449300
 21
30.229500
 31
1.000000
  0
ARC
  8
1
 62
     7
  6
CONTINUOUS
 10
6.449303
 20
30.245500
 30
1.000000
 40
0.016000
 50
269.989928
 51
361.074360
  0
LINE
  8
1
 62
     7
  6
CONTINUOUS
 10
6.465300
 20
30.245800
 30
1.000000
 11
6.465300
 21
30.543500
 31
1.000000
  0
ARC
  8
1
 62
     7
  6
CONTINUOUS
 10
6.481300
 20
30.543500
 30
1.000000
 40
0.016000
 50
90.000000
 51
180.000000
  0
LINE
  8
1
 62
     7
  6
CONTINUOUS
 10
6.481300
 20
30.559500
 30
1.000000
 11
8.794700
 21
30.559500
 31
1.000000
  0
ARC
  8
1
 62
     7
  6
CONTINUOUS
 10
8.794698
 20
30.497000
 30
1.000000
 40
0.062500
 50
354.399016
 51
449.998526
  0
ARC
  8
1
 62
     7
  6
CONTINUOUS
 10
8.160297
 20
30.559783
 30
1.000000
 40
0.700000
 50
190.310106
 51
354.352708
  0
LINE
  8
1
 62
     7
  6
CONTINUOUS
 10
7.471600
 20
30.434500
 30
1.000000
 11
6.760800
 21
30.434500
 31
1.000000
  0
ARC
  8
1
 62
     7
  6
CONTINUOUS
 10
6.760800
 20
30.418500
 30
1.000000
 40
0.016000
 50
90.000000
 51
180.000000
  0
LINE
  8
1
 62
     7
  6
CONTINUOUS
 10
6.744800
 20
30.418500
 30
1.000000
 11
6.744800
 21
29.515500
 31
1.000000
  0
ARC
  8
1
 62
     7
  6
CONTINUOUS
 10
6.728800
 20
29.515500
 30
1.000000
 40
0.016000
 50
270.000000
 51
360.000000
  0
LINE
  8
1
 62
     7
  6
CONTINUOUS
 10
6.728800
 20
29.499500
 30
1.000000
 11
6.652300
 21
29.499500
 31
1.000000
  0
LINE
  8
1
 62
     7
  6
CONTINUOUS
 10
6.652300
 20
29.499500
 30
1.000000
 11
6.652300
 21
29.883500
 31
1.000000
  0
ARC
  8
1
 62
     7
  6
CONTINUOUS
 10
6.636300
 20
29.883503
 30
1.000000
 40
0.016000
 50
359.989928
 51
448.925642
  0
LINE
  8
1
 62
     7
  6
CONTINUOUS
 10
6.636600
 20
29.899500
 30
1.000000
 11
6.596000
 21
29.899500
 31
1.000000
  0
ARC
  8
1
 62
     7
  6
CONTINUOUS
 10
6.596300
 20
29.883503
 30
1.000000
 40
0.016000
 50
91.074358
 51
180.010072
  0
LINE
  8
1
 62
     7
  6
CONTINUOUS
 10
6.580300
 20
29.883500
 30
1.000000
 11
6.580300
 21
29.515300
 31
1.000000
  0
ARC
  8
1
 62
     7
  6
CONTINUOUS
 10
6.564301
 20
29.515500
 30
1.000000
 40
0.016000
 50
269.995524
 51
359.283784
  0
LINE
  8
1
 62
     7
  6
CONTINUOUS
 10
6.564300
 20
29.499500
 30
1.000000
 11
6.246300
 21
29.499500
 31
1.000000
  0
ARC
  8
1
 62
     7
  6
CONTINUOUS
 10
6.246299
 20
29.515500
 30
1.000000
 40
0.016000
 50
180.716216
 51
270.004476
  0
LINE
  8
1
 62
     7
  6
CONTINUOUS
 10
6.230300
 20
29.515300
 30
1.000000
 11
6.230300
 21
29.834500
 31
1.000000
  0
LINE
  8
1
 62
     7
  6
DOT
 10
6.230300
 20
29.834500
 30
1.000000
 11
7.705100
 21
29.775100
 31
1.000000
  0
LINE
  8
1
 62
     7
  6
CONTINUOUS
 10
7.705100
 20
29.775100
 30
1.000000
 11
7.649200
 21
29.708000
 31
1.000000
  0
LINE
  8
1
 62
     7
  6
CONTINUOUS
 10
7.649200
 20
29.708000
 30
1.000000
 11
8.685600
 21
29.708000
 31
1.000000
  0
LINE
  8
1
 62
     7
  6
CONTINUOUS
 10
8.685600
 20
29.708000
 30
1.000000
 11
8.685600
 21
29.933000
 31
1.000000
  0
LINE
  8
1
 62
     7
  6
CONTINUOUS
 10
8.685600
 20
29.933000
 30
1.000000
 11
8.778600
 21
29.933000
 31
1.000000
  0
LINE
  8
1
 62
     7
  6
CONTINUOUS
 10
8.778600
 20
29.933000
 30
1.000000
 11
8.778600
 21
29.748000
 31
1.000000
  0
LINE
  8
1
 62
     7
  6
CONTINUOUS
 10
8.778600
 20
29.748000
 30
1.000000
 11
8.922600
 21
29.748000
 31
1.000000
  0
LINE
  8
1
 62
     7
  6
CONTINUOUS
 10
8.922600
 20
29.748000
 30
1.000000
 11
8.922600
 21
29.933000
 31
1.000000
  0
LINE
  8
1
 62
     7
  6
CONTINUOUS
 10
8.922600
 20
29.933000
 30
1.000000
 11
9.025600
 21
29.933000
 31
1.000000
  0
LINE
  8
1
 62
     7
  6
CONTINUOUS
 10
9.025600
 20
29.933000
 30
1.000000
 11
9.025600
 21
29.547000
 31
1.000000
  0
LINE
  8
1
 62
     7
  6
CONTINUOUS
 10
9.025600
 20
29.547000
 30
1.000000
 11
8.790600
 21
29.547000
 31
1.000000
  0
LINE
  8
1
 62
     7
  6
CONTINUOUS
 10
8.790600
 20
29.547000
 30
1.000000
 11
8.790600
 21
29.217000
 31
1.000000
  0
LINE
  8
1
 62
     7
  6
CONTINUOUS
 10
8.790600
 20
29.217000
 30
1.000000
 11
8.677600
 21
29.217000
 31
1.000000
  0
LINE
  8
1
 62
     7
  6
CONTINUOUS
 10
8.677600
 20
29.217000
 30
1.000000
 11
8.677600
 21
29.412000
 31
1.000000
  0
LINE
  8
1
 62
     7
  6
CONTINUOUS
 10
8.677600
 20
29.412000
 30
1.000000
 11
8.605600
 21
29.412000
 31
1.000000
  0
LINE
  8
1
 62
     7
  6
CONTINUOUS
 10
8.605600
 20
29.412000
 30
1.000000
 11
8.605600
 21
29.217000
 31
1.000000
  0
LINE
  8
1
 62
     7
  6
CONTINUOUS
 10
8.605600
 20
29.217000
 30
1.000000
 11
8.485600
 21
29.217000
 31
1.000000
  0
LINE
  8
1
 62
     7
  6
CONTINUOUS
 10
8.485600
 20
29.217000
 30
1.000000
 11
8.485600
 21
29.454500
 31
1.000000
  0
LINE
  8
1
 62
     7
  6
CONTINUOUS
 10
8.485600
 20
29.454500
 30
1.000000
 11
7.815600
 21
29.454500
 31
1.000000
  0
LINE
  8
1
 62
     7
  6
CONTINUOUS
 10
7.815600
 20
29.454500
 30
1.000000
 11
7.815600
 21
29.217000
 31
1.000000
  0
LINE
  8
1
 62
     7
  6
CONTINUOUS
 10
7.815600
 20
29.217000
 30
1.000000
 11
7.695600
 21
29.217000
 31
1.000000
  0
LINE
  8
1
 62
     7
  6
CONTINUOUS
 10
7.695600
 20
29.217000
 30
1.000000
 11
7.695600
 21
29.412000
 31
1.000000
  0
LINE
  8
1
 62
     7
  6
CONTINUOUS
 10
7.695600
 20
29.412000
 30
1.000000
 11
7.623600
 21
29.412000
 31
1.000000
  0
LINE
  8
1
 62
     7
  6
CONTINUOUS
 10
7.623600
 20
29.412000
 30
1.000000
 11
7.623600
 21
29.217000
 31
1.000000
  0
LINE
  8
1
 62
     7
  6
CONTINUOUS
 10
7.623600
 20
29.217000
 30
1.000000
 11
7.510600
 21
29.217000
 31
1.000000
  0
LINE
  8
1
 62
     7
  6
CONTINUOUS
 10
7.510600
 20
29.217000
 30
1.000000
 11
7.510600
 21
29.547000
 31
1.000000
  0
LINE
  8
1
 62
     7
  6
CONTINUOUS
 10
7.510600
 20
29.547000
 30
1.000000
 11
7.275600
 21
29.547000
 31
1.000000
  0
LINE
  8
1
 62
     7
  6
CONTINUOUS
 10
7.275600
 20
29.547000
 30
1.000000
 11
7.275600
 21
29.933000
 31
1.000000
  0
LINE
  8
1
 62
     7
  6
CONTINUOUS
 10
7.275600
 20
29.933000
 30
1.000000
 11
7.378600
 21
29.933000
 31
1.000000
  0
LINE
  8
1
 62
     7
  6
CONTINUOUS
 10
7.378600
 20
29.933000
 30
1.000000
 11
7.378600
 21
29.748000
 31
1.000000
  0
LINE
  8
1
 62
     7
  6
CONTINUOUS
 10
7.378600
 20
29.748000
 30
1.000000
 11
7.522600
 21
29.748000
 31
1.000000
  0
LINE
  8
1
 62
     7
  6
CONTINUOUS
 10
7.522600
 20
29.748000
 30
1.000000
 11
7.522600
 21
29.933000
 31
1.000000
  0
LINE
  8
1
 62
     7
  6
CONTINUOUS
 10
7.522600
 20
29.933000
 30
1.000000
 11
7.615600
 21
29.933000
 31
1.000000
  0
LINE
  8
1
 62
     7
  6
CONTINUOUS
 10
7.615600
 20
29.933000
 30
1.000000
 11
7.615600
 21
29.708000
 31
1.000000
  0
LINE
  8
1
 62
     7
  6
DOT
 10
7.615600
 20
29.708000
 30
1.000000
 11
9.704300
 21
28.973300
 31
1.000000
  0
LINE
  8
1
 62
     7
  6
CONTINUOUS
 10
9.704300
 20
28.973300
 30
1.000000
 11
9.680300
 21
28.934000
 31
1.000000
  0
ARC
  8
1
 62
     7
  6
CONTINUOUS
 10
9.680301
 20
28.903000
 30
1.000000
 40
0.031000
 50
359.445516
 51
450.002683
  0
LINE
  8
1
 62
     7
  6
CONTINUOUS
 10
9.711300
 20
28.902700
 30
1.000000
 11
9.711300
 21
28.865000
 31
1.000000
  0
ARC
  8
1
 62
     7
  6
CONTINUOUS
 10
9.680300
 20
28.865000
 30
1.000000
 40
0.031000
 50
270.000000
 51
360.000000
  0
LINE
  8
1
 62
     7
  6
CONTINUOUS
 10
9.680300
 20
28.834000
 30
1.000000
 11
9.578800
 21
28.834000
 31
1.000000
  0
LINE
  8
1
 62
     7
  6
CONTINUOUS
 10
9.578800
 20
28.834000
 30
1.000000
 11
9.578800
 21
28.433600
 31
1.000000
  0
ARC
  8
1
 62
     7
  6
CONTINUOUS
 10
9.331081
 20
28.467292
 30
1.000000
 40
0.250000
 50
278.283857
 51
352.254887
  0
LINE
  8
1
 62
     7
  6
CONTINUOUS
 10
9.367100
 20
28.219900
 30
1.000000
 11
9.367100
 21
28.592300
 31
1.000000
  0
LINE
  8
1
 62
     7
  6
CONTINUOUS
 10
9.367100
 20
28.592300
 30
1.000000
 11
9.295100
 21
28.592300
 31
1.000000
  0
LINE
  8
1
 62
     7
  6
CONTINUOUS
 10
9.295100
 20
28.592300
 30
1.000000
 11
9.295100
 21
28.219900
 31
1.000000
  0
ARC
  8
1
 62
     7
  6
CONTINUOUS
 10
9.331100
 20
28.467294
 30
1.000000
 40
0.250000
 50
179.998722
 51
261.720624
  0
LINE
  8
1
 62
     7
  6
CONTINUOUS
 10
9.081100
 20
28.467300
 30
1.000000
 11
9.078800
 21
28.834000
 31
1.000000
  0
LINE
  8
1
 62
     7
  6
CONTINUOUS
 10
9.078800
 20
28.834000
 30
1.000000
 11
8.977300
 21
28.834000
 31
1.000000
  0
ARC
  8
1
 62
     7
  6
CONTINUOUS
 10
8.977300
 20
28.865000
 30
1.000000
 40
0.031000
 50
180.000000
 51
270.000000
  0
LINE
  8
1
 62
     7
  6
CONTINUOUS
 10
8.946300
 20
28.865000
 30
1.000000
 11
8.946300
 21
28.903000
 31
1.000000
  0
ARC
  8
1
 62
     7
  6
CONTINUOUS
 10
8.977300
 20
28.903000
 30
1.000000
 40
0.031000
 50
90.000000
 51
180.000000
  0
LINE
  8
1
 62
     7
  6
CONTINUOUS
 10
8.977300
 20
28.934000
 30
1.000000
 11
9.645100
 21
28.934000
 31
1.000000
  0
LINE
  8
1
 62
     7
  6
DOT
 10
9.645100
 20
28.934000
 30
1.000000
 11
9.890000
 21
29.203700
 31
1.000000
  0
LINE
  8
1
 62
     7
  6
CONTINUOUS
 10
9.890000
 20
29.203700
 30
1.000000
 11
9.861600
 21
29.149300
 31
1.000000
  0
LINE
  8
1
 62
     7
  6
CONTINUOUS
 10
9.861600
 20
29.149300
 30
1.000000
 11
10.941500
 21
29.149300
 31
1.000000
  0
LINE
  8
1
 62
     7
  6
CONTINUOUS
 10
10.941500
 20
29.149300
 30
1.000000
 11
10.941500
 21
28.979300
 31
1.000000
  0
LINE
  8
1
 62
     7
  6
CONTINUOUS
 10
10.941500
 20
28.979300
 30
1.000000
 11
11.013500
 21
28.979300
 31
1.000000
  0
LINE
  8
1
 62
     7
  6
CONTINUOUS
 10
11.013500
 20
28.979300
 30
1.000000
 11
11.013500
 21
29.149300
 31
1.000000
  0
LINE
  8
1
 62
     7
  6
CONTINUOUS
 10
11.013500
 20
29.149300
 30
1.000000
 11
11.378500
 21
29.149300
 31
1.000000
  0
LINE
  8
1
 62
     7
  6
CONTINUOUS
 10
11.378500
 20
29.149300
 30
1.000000
 11
11.378500
 21
28.924300
 31
1.000000
  0
LINE
  8
1
 62
     7
  6
CONTINUOUS
 10
11.378500
 20
28.924300
 30
1.000000
 11
11.814700
 21
28.924300
 31
1.000000
  0
ARC
  8
1
 62
     7
  6
CONTINUOUS
 10
11.754338
 20
28.833900
 30
1.000000
 40
0.108700
 50
269.927011
 51
416.268355
  0
LINE
  8
1
 62
     7
  6
CONTINUOUS
 10
11.754200
 20
28.725200
 30
1.000000
 11
11.683900
 21
28.772200
 31
1.000000
  0
ARC
  8
1
 62
     7
  6
CONTINUOUS
 10
11.744262
 20
28.681800
 30
1.000000
 40
0.108700
 50
123.731729
 51
236.268271
  0
LINE
  8
1
 62
     7
  6
CONTINUOUS
 10
11.683900
 20
28.591400
 30
1.000000
 11
11.754300
 21
28.638500
 31
1.000000
  0
ARC
  8
1
 62
     7
  6
CONTINUOUS
 10
11.754258
 20
28.529700
 30
1.000000
 40
0.108800
 50
303.810509
 51
449.978122
  0
LINE
  8
1
 62
     7
  6
CONTINUOUS
 10
11.814800
 20
28.439300
 30
1.000000
 11
11.378500
 21
28.439300
 31
1.000000
  0
LINE
  8
1
 62
     7
  6
CONTINUOUS
 10
11.378500
 20
28.439300
 30
1.000000
 11
11.378500
 21
28.234400
 31
1.000000
  0
LINE
  8
1
 62
     7
  6
DOT
 10
11.378500
 20
28.234400
 30
1.000000
 11
11.360900
 21
28.163100
 31
1.000000
  0
LINE
  8
1
 62
     7
  6
CONTINUOUS
 10
11.360900
 20
28.163100
 30
1.000000
 11
11.378500
 21
28.214300
 31
1.000000
  0
LINE
  8
1
 62
     7
  6
CONTINUOUS
 10
11.378500
 20
28.214300
 30
1.000000
 11
11.013500
 21
28.214300
 31
1.000000
  0
LINE
  8
1
 62
     7
  6
CONTINUOUS
 10
11.013500
 20
28.214300
 30
1.000000
 11
11.013500
 21
28.384300
 31
1.000000
  0
LINE
  8
1
 62
     7
  6
CONTINUOUS
 10
11.013500
 20
28.384300
 30
1.000000
 11
10.941500
 21
28.384300
 31
1.000000
  0
LINE
  8
1
 62
     7
  6
CONTINUOUS
 10
10.941500
 20
28.384300
 30
1.000000
 11
10.941500
 21
28.214300
 31
1.000000
  0
LINE
  8
1
 62
     7
  6
CONTINUOUS
 10
10.941500
 20
28.214300
 30
1.000000
 11
9.826500
 21
28.214300
 31
1.000000
  0
LINE
  8
1
 62
     7
  6
CONTINUOUS
 10
9.826500
 20
28.214300
 30
1.000000
 11
9.826500
 21
29.149300
 31
1.000000
  0
LINE
  8
1
 62
     7
  6
DOT
 10
9.826500
 20
29.149300
 30
1.000000
 11
5.338800
 21
29.422800
 31
1.000000
  0
LINE
  8
1
 62
     7
  6
DOT
 10
5.338800
 20
29.422800
 30
1.000000
 11
8.917100
 21
28.037600
 31
1.000000
  0
LINE
  8
1
 62
     7
  6
CONTINUOUS
 10
8.917100
 20
28.037600
 30
1.000000
 11
8.838800
 21
28.093600
 31
1.000000
  0
LINE
  8
1
 62
     7
  6
CONTINUOUS
 10
8.838800
 20
28.093600
 30
1.000000
 11
8.581800
 21
28.093600
 31
1.000000
  0
LINE
  8
1
 62
     7
  6
CONTINUOUS
 10
8.581800
 20
28.093600
 30
1.000000
 11
8.581800
 21
28.308600
 31
1.000000
  0
LINE
  8
1
 62
     7
  6
CONTINUOUS
 10
8.581800
 20
28.308600
 30
1.000000
 11
8.509800
 21
28.308600
 31
1.000000
  0
LINE
  8
1
 62
     7
  6
CONTINUOUS
 10
8.509800
 20
28.308600
 30
1.000000
 11
8.509800
 21
28.093600
 31
1.000000
  0
LINE
  8
1
 62
     7
  6
CONTINUOUS
 10
8.509800
 20
28.093600
 30
1.000000
 11
7.497800
 21
28.093600
 31
1.000000
  0
LINE
  8
1
 62
     7
  6
CONTINUOUS
 10
7.497800
 20
28.093600
 30
1.000000
 11
7.497800
 21
28.308600
 31
1.000000
  0
LINE
  8
1
 62
     7
  6
CONTINUOUS
 10
7.497800
 20
28.308600
 30
1.000000
 11
7.425800
 21
28.308600
 31
1.000000
  0
LINE
  8
1
 62
     7
  6
CONTINUOUS
 10
7.425800
 20
28.308600
 30
1.000000
 11
7.425800
 21
28.093600
 31
1.000000
  0
LINE
  8
1
 62
     7
  6
CONTINUOUS
 10
7.425800
 20
28.093600
 30
1.000000
 11
6.358800
 21
28.093600
 31
1.000000
  0
LINE
  8
1
 62
     7
  6
CONTINUOUS
 10
6.358800
 20
28.093600
 30
1.000000
 11
6.358800
 21
28.308600
 31
1.000000
  0
LINE
  8
1
 62
     7
  6
CONTINUOUS
 10
6.358800
 20
28.308600
 30
1.000000
 11
6.286800
 21
28.308600
 31
1.000000
  0
LINE
  8
1
 62
     7
  6
CONTINUOUS
 10
6.286800
 20
28.308600
 30
1.000000
 11
6.286800
 21
28.093600
 31
1.000000
  0
LINE
  8
1
 62
     7
  6
CONTINUOUS
 10
6.286800
 20
28.093600
 30
1.000000
 11
5.156800
 21
28.093600
 31
1.000000
  0
LINE
  8
1
 62
     7
  6
CONTINUOUS
 10
5.156800
 20
28.093600
 30
1.000000
 11
5.156800
 21
28.308600
 31
1.000000
  0
LINE
  8
1
 62
     7
  6
CONTINUOUS
 10
5.156800
 20
28.308600
 30
1.000000
 11
5.084800
 21
28.308600
 31
1.000000
  0
LINE
  8
1
 62
     7
  6
CONTINUOUS
 10
5.084800
 20
28.308600
 30
1.000000
 11
5.084800
 21
28.093600
 31
1.000000
  0
LINE
  8
1
 62
     7
  6
CONTINUOUS
 10
5.084800
 20
28.093600
 30
1.000000
 11
4.714800
 21
28.093600
 31
1.000000
  0
LINE
  8
1
 62
     7
  6
CONTINUOUS
 10
4.714800
 20
28.093600
 30
1.000000
 11
4.714800
 21
28.813600
 31
1.000000
  0
LINE
  8
1
 62
     7
  6
CONTINUOUS
 10
4.714800
 20
28.813600
 30
1.000000
 11
4.642800
 21
28.813600
 31
1.000000
  0
LINE
  8
1
 62
     7
  6
CONTINUOUS
 10
4.642800
 20
28.813600
 30
1.000000
 11
4.642800
 21
28.093600
 31
1.000000
  0
LINE
  8
1
 62
     7
  6
CONTINUOUS
 10
4.642800
 20
28.093600
 30
1.000000
 11
4.519800
 21
28.093600
 31
1.000000
  0
LINE
  8
1
 62
     7
  6
CONTINUOUS
 10
4.519800
 20
28.093600
 30
1.000000
 11
4.519800
 21
29.385000
 31
1.000000
  0
LINE
  8
1
 62
     7
  6
DOT
 10
4.519800
 20
29.385000
 30
1.000000
 11
4.469800
 21
29.418600
 31
1.000000
  0
LINE
  8
1
 62
     7
  6
CONTINUOUS
 10
4.469800
 20
29.418600
 30
1.000000
 11
4.519800
 21
29.418600
 31
1.000000
  0
LINE
  8
1
 62
     7
  6
CONTINUOUS
 10
4.519800
 20
29.418600
 30
1.000000
 11
4.894800
 21
29.418600
 31
1.000000
  0
LINE
  8
1
 62
     7
  6
CONTINUOUS
 10
4.894800
 20
29.418600
 30
1.000000
 11
4.894800
 21
29.733600
 31
1.000000
  0
LINE
  8
1
 62
     7
  6
CONTINUOUS
 10
4.894800
 20
29.733600
 30
1.000000
 11
4.519800
 21
29.733600
 31
1.000000
  0
LINE
  8
1
 62
     7
  6
CONTINUOUS
 10
4.519800
 20
29.733600
 30
1.000000
 11
4.519800
 21
29.840100
 31
1.000000
  0
LINE
  8
1
 62
     7
  6
CONTINUOUS
 10
4.519800
 20
29.840100
 30
1.000000
 11
5.344800
 21
29.840100
 31
1.000000
  0
LINE
  8
1
 62
     7
  6
CONTINUOUS
 10
5.344800
 20
29.840100
 30
1.000000
 11
5.344800
 21
29.912100
 31
1.000000
  0
LINE
  8
1
 62
     7
  6
CONTINUOUS
 10
5.344800
 20
29.912100
 30
1.000000
 11
4.519800
 21
29.912100
 31
1.000000
  0
LINE
  8
1
 62
     7
  6
CONTINUOUS
 10
4.519800
 20
29.912100
 30
1.000000
 11
4.519800
 21
30.018600
 31
1.000000
  0
LINE
  8
1
 62
     7
  6
CONTINUOUS
 10
4.519800
 20
30.018600
 30
1.000000
 11
6.094800
 21
30.018600
 31
1.000000
  0
LINE
  8
1
 62
     7
  6
CONTINUOUS
 10
6.094800
 20
30.018600
 30
1.000000
 11
6.094800
 21
29.733600
 31
1.000000
  0
LINE
  8
1
 62
     7
  6
CONTINUOUS
 10
6.094800
 20
29.733600
 30
1.000000
 11
5.944800
 21
29.733600
 31
1.000000
  0
LINE
  8
1
 62
     7
  6
CONTINUOUS
 10
5.944800
 20
29.733600
 30
1.000000
 11
5.944800
 21
29.104600
 31
1.000000
  0
LINE
  8
1
 62
     7
  6
CONTINUOUS
 10
5.944800
 20
29.104600
 30
1.000000
 11
8.649800
 21
29.104600
 31
1.000000
  0
ARC
  8
1
 62
     7
  6
CONTINUOUS
 10
8.649800
 20
29.079600
 30
1.000000
 40
0.025000
 50
360.000000
 51
450.000000
  0
LINE
  8
1
 62
     7
  6
CONTINUOUS
 10
8.674800
 20
29.079600
 30
1.000000
 11
8.674800
 21
29.012600
 31
1.000000
  0
LINE
  8
1
 62
     7
  6
CONTINUOUS
 10
8.674800
 20
29.012600
 30
1.000000
 11
8.194800
 21
29.012600
 31
1.000000
  0
LINE
  8
1
 62
     7
  6
CONTINUOUS
 10
8.194800
 20
29.012600
 30
1.000000
 11
8.194800
 21
28.940600
 31
1.000000
  0
LINE
  8
1
 62
     7
  6
CONTINUOUS
 10
8.194800
 20
28.940600
 30
1.000000
 11
8.674800
 21
28.940600
 31
1.000000
  0
LINE
  8
1
 62
     7
  6
CONTINUOUS
 10
8.674800
 20
28.940600
 30
1.000000
 11
8.674800
 21
28.740600
 31
1.000000
  0
LINE
  8
1
 62
     7
  6
CONTINUOUS
 10
8.674800
 20
28.740600
 30
1.000000
 11
8.746800
 21
28.740600
 31
1.000000
  0
LINE
  8
1
 62
     7
  6
CONTINUOUS
 10
8.746800
 20
28.740600
 30
1.000000
 11
8.746800
 21
28.940600
 31
1.000000
  0
LINE
  8
1
 62
     7
  6
CONTINUOUS
 10
8.746800
 20
28.940600
 30
1.000000
 11
8.813800
 21
28.940600
 31
1.000000
  0
ARC
  8
1
 62
     7
  6
CONTINUOUS
 10
8.813800
 20
28.915600
 30
1.000000
 40
0.025000
 50
360.000000
 51
450.000000
  0
LINE
  8
1
 62
     7
  6
CONTINUOUS
 10
8.838800
 20
28.915600
 30
1.000000
 11
8.838800
 21
28.127100
 31
1.000000
  0
LINE
  8
1
 62
     7
  6
DOT
 10
8.838800
 20
28.127100
 30
1.000000
 11
4.794900
 21
27.529200
 31
1.000000
  0
LINE
  8
1
 62
     7
  6
CONTINUOUS
 10
4.794900
 20
27.529200
 30
1.000000
 11
4.793500
 21
27.479300
 31
1.000000
  0
ARC
  8
1
 62
     7
  6
CONTINUOUS
 10
4.795206
 20
27.537075
 30
1.000000
 40
0.057800
 50
268.308302
 51
296.836588
  0
ARC
  8
1
 62
     7
  6
CONTINUOUS
 10
4.789800
 20
27.533843
 30
1.000000
 40
0.057700
 50
303.088015
 51
360.056640
  0
LINE
  8
1
 62
     7
  6
CONTINUOUS
 10
4.847500
 20
27.533900
 30
1.000000
 11
4.847500
 21
27.747100
 31
1.000000
  0
ARC
  8
1
 62
     7
  6
CONTINUOUS
 10
4.816300
 20
27.747128
 30
1.000000
 40
0.031200
 50
359.948793
 51
462.400508
  0
ARC
  8
1
 62
     7
  6
CONTINUOUS
 10
4.905061
 20
27.340400
 30
1.000000
 40
0.447500
 50
102.316998
 51
137.695414
  0
ARC
  8
1
 62
     7
  6
CONTINUOUS
 10
4.597136
 20
27.620557
 30
1.000000
 40
0.031200
 50
137.588402
 51
240.136578
  0
LINE
  8
1
 62
     7
  6
CONTINUOUS
 10
4.581600
 20
27.593500
 30
1.000000
 11
4.766200
 21
27.487000
 31
1.000000
  0
ARC
  8
1
 62
     7
  6
CONTINUOUS
 10
4.795033
 20
27.536980
 30
1.000000
 40
0.057700
 50
240.019813
 51
268.477840
  0
LINE
  8
1
 62
     7
  6
DOT
 10
4.793500
 20
27.479300
 30
1.000000
 11
4.804500
 21
26.948300
 31
1.000000
  0
LINE
  8
1
 62
     7
  6
CONTINUOUS
 10
4.804500
 20
26.948300
 30
1.000000
 11
4.835900
 21
26.909400
 31
1.000000
  0
ARC
  8
1
 62
     7
  6
CONTINUOUS
 10
4.816300
 20
26.933675
 30
1.000000
 40
0.031200
 50
308.917800
 51
360.045730
  0
LINE
  8
1
 62
     7
  6
CONTINUOUS
 10
4.847500
 20
26.933700
 30
1.000000
 11
4.847500
 21
27.146900
 31
1.000000
  0
ARC
  8
1
 62
     7
  6
CONTINUOUS
 10
4.789800
 20
27.146957
 30
1.000000
 40
0.057700
 50
359.943360
 51
416.911985
  0
ARC
  8
1
 62
     7
  6
CONTINUOUS
 10
4.795107
 20
27.143776
 30
1.000000
 40
0.057800
 50
63.052860
 51
119.665043
  0
LINE
  8
1
 62
     7
  6
CONTINUOUS
 10
4.766500
 20
27.194000
 30
1.000000
 11
4.581600
 21
27.087300
 31
1.000000
  0
ARC
  8
1
 62
     7
  6
CONTINUOUS
 10
4.597136
 20
27.060243
 30
1.000000
 40
0.031200
 50
119.863422
 51
222.411598
  0
ARC
  8
1
 62
     7
  6
CONTINUOUS
 10
4.905061
 20
27.340400
 30
1.000000
 40
0.447500
 50
222.304586
 51
257.683002
  0
ARC
  8
1
 62
     7
  6
CONTINUOUS
 10
4.816297
 20
26.933673
 30
1.000000
 40
0.031200
 50
257.604954
 51
308.924652
  0
LINE
  8
1
 62
     7
  6
DOT
 10
4.835900
 20
26.909400
 30
1.000000
 11
5.005600
 21
26.948300
 31
1.000000
  0
LINE
  8
1
 62
     7
  6
CONTINUOUS
 10
5.005600
 20
26.948300
 30
1.000000
 11
4.974200
 21
26.909400
 31
1.000000
  0
ARC
  8
1
 62
     7
  6
CONTINUOUS
 10
4.993772
 20
26.933698
 30
1.000000
 40
0.031200
 50
231.149311
 51
283.018818
  0
ARC
  8
1
 62
     7
  6
CONTINUOUS
 10
4.905078
 20
27.340443
 30
1.000000
 40
0.447500
 50
282.351192
 51
317.687978
  0
ARC
  8
1
 62
     7
  6
CONTINUOUS
 10
5.212964
 20
27.060243
 30
1.000000
 40
0.031200
 50
317.588402
 51
420.136578
  0
LINE
  8
1
 62
     7
  6
CONTINUOUS
 10
5.228500
 20
27.087300
 30
1.000000
 11
5.043900
 21
27.193800
 31
1.000000
  0
ARC
  8
1
 62
     7
  6
CONTINUOUS
 10
5.014967
 20
27.143763
 30
1.000000
 40
0.057800
 50
59.962680
 51
116.918537
  0
ARC
  8
1
 62
     7
  6
CONTINUOUS
 10
5.020300
 20
27.146838
 30
1.000000
 40
0.057800
 50
123.023442
 51
179.938268
  0
LINE
  8
1
 62
     7
  6
CONTINUOUS
 10
4.962500
 20
27.146900
 30
1.000000
 11
4.962500
 21
26.933700
 31
1.000000
  0
ARC
  8
1
 62
     7
  6
CONTINUOUS
 10
4.993800
 20
26.933804
 30
1.000000
 40
0.031300
 50
180.189683
 51
231.230225
  0
LINE
  8
1
 62
     7
  6
DOT
 10
4.974200
 20
26.909400
 30
1.000000
 11
4.921500
 21
27.377200
 31
1.000000
  0
LINE
  8
1
 62
     7
  6
CONTINUOUS
 10
4.921500
 20
27.377200
 30
1.000000
 11
4.934500
 21
27.328900
 31
1.000000
  0
ARC
  8
1
 62
     7
  6
CONTINUOUS
 10
4.930297
 20
27.344545
 30
1.000000
 40
0.016200
 50
285.038712
 51
329.815391
  0
LINE
  8
1
 62
     7
  6
CONTINUOUS
 10
4.944300
 20
27.336400
 30
1.000000
 11
5.022700
 21
27.472200
 31
1.000000
  0
ARC
  8
1
 62
     7
  6
CONTINUOUS
 10
5.036719
 20
27.464081
 30
1.000000
 40
0.016200
 50
120.076654
 51
149.923346
  0
LINE
  8
1
 62
     7
  6
CONTINUOUS
 10
5.028600
 20
27.478100
 30
1.000000
 11
5.228500
 21
27.593500
 31
1.000000
  0
ARC
  8
1
 62
     7
  6
CONTINUOUS
 10
5.212964
 20
27.620557
 30
1.000000
 40
0.031200
 50
299.863422
 51
402.411598
  0
ARC
  8
1
 62
     7
  6
CONTINUOUS
 10
4.905039
 20
27.340400
 30
1.000000
 40
0.447500
 50
42.304586
 51
77.683002
  0
ARC
  8
1
 62
     7
  6
CONTINUOUS
 10
4.993800
 20
27.747026
 30
1.000000
 40
0.031300
 50
77.639595
 51
179.863662
  0
LINE
  8
1
 62
     7
  6
CONTINUOUS
 10
4.962500
 20
27.747100
 30
1.000000
 11
4.962500
 21
27.533900
 31
1.000000
  0
ARC
  8
1
 62
     7
  6
CONTINUOUS
 10
5.020300
 20
27.534017
 30
1.000000
 40
0.057800
 50
180.116207
 51
191.696076
  0
ARC
  8
1
 62
     7
  6
CONTINUOUS
 10
4.947842
 20
27.518990
 30
1.000000
 40
0.016200
 50
328.808979
 51
371.790237
  0
LINE
  8
1
 62
     7
  6
CONTINUOUS
 10
4.961700
 20
27.510600
 30
1.000000
 11
4.882000
 21
27.372500
 31
1.000000
  0
ARC
  8
1
 62
     7
  6
CONTINUOUS
 10
4.896110
 20
27.364339
 30
1.000000
 40
0.016300
 50
149.956301
 51
240.162246
  0
LINE
  8
1
 62
     7
  6
CONTINUOUS
 10
4.888000
 20
27.350200
 30
1.000000
 11
4.922100
 21
27.330500
 31
1.000000
  0
ARC
  8
1
 62
     7
  6
CONTINUOUS
 10
4.930226
 20
27.344630
 30
1.000000
 40
0.016300
 50
240.095639
 51
285.199602
  0
LINE
  8
1
 62
     7
  6
DOT
 10
4.934500
 20
27.328900
 30
1.000000
 11
4.515200
 21
27.231400
 31
1.000000
  0
LINE
  8
1
 62
     7
  6
CONTINUOUS
 10
4.515200
 20
27.231400
 30
1.000000
 11
4.497200
 21
27.184800
 31
1.000000
  0
ARC
  8
1
 62
     7
  6
CONTINUOUS
 10
4.508460
 20
27.213897
 30
1.000000
 40
0.031200
 50
248.843797
 51
300.083905
  0
LINE
  8
1
 62
     7
  6
CONTINUOUS
 10
4.524100
 20
27.186900
 30
1.000000
 11
4.708700
 21
27.293400
 31
1.000000
  0
ARC
  8
1
 62
     7
  6
CONTINUOUS
 10
4.679780
 20
27.343445
 30
1.000000
 40
0.057800
 50
300.022602
 51
356.980300
  0
ARC
  8
1
 62
     7
  6
CONTINUOUS
 10
4.679780
 20
27.337355
 30
1.000000
 40
0.057800
 50
3.019700
 51
59.977398
  0
LINE
  8
1
 62
     7
  6
CONTINUOUS
 10
4.708700
 20
27.387400
 30
1.000000
 11
4.524100
 21
27.493900
 31
1.000000
  0
ARC
  8
1
 62
     7
  6
CONTINUOUS
 10
4.508421
 20
27.466926
 30
1.000000
 40
0.031200
 50
59.831780
 51
162.899968
  0
ARC
  8
1
 62
     7
  6
CONTINUOUS
 10
4.905033
 20
27.340413
 30
1.000000
 40
0.447500
 50
162.349488
 51
197.734770
  0
ARC
  8
1
 62
     7
  6
CONTINUOUS
 10
4.508416
 20
27.213914
 30
1.000000
 40
0.031200
 50
198.334091
 51
248.930821
  0
LINE
  8
1
 62
     7
  6
DOT
 10
4.497200
 20
27.184800
 30
1.000000
 11
5.294800
 21
27.231400
 31
1.000000
  0
LINE
  8
1
 62
     7
  6
CONTINUOUS
 10
5.294800
 20
27.231400
 30
1.000000
 11
5.312900
 21
27.184800
 31
1.000000
  0
ARC
  8
1
 62
     7
  6
CONTINUOUS
 10
5.301658
 20
27.213904
 30
1.000000
 40
0.031200
 50
291.120167
 51
343.034183
  0
ARC
  8
1
 62
     7
  6
CONTINUOUS
 10
4.905051
 20
27.340436
 30
1.000000
 40
0.447500
 50
342.356223
 51
377.728066
  0
ARC
  8
1
 62
     7
  6
CONTINUOUS
 10
5.301672
 20
27.466922
 30
1.000000
 40
0.031200
 50
18.264771
 51
120.152596
  0
LINE
  8
1
 62
     7
  6
CONTINUOUS
 10
5.286000
 20
27.493900
 30
1.000000
 11
5.101400
 21
27.387400
 31
1.000000
  0
ARC
  8
1
 62
     7
  6
CONTINUOUS
 10
5.130320
 20
27.337355
 30
1.000000
 40
0.057800
 50
120.022602
 51
176.980300
  0
ARC
  8
1
 62
     7
  6
CONTINUOUS
 10
5.130320
 20
27.343445
 30
1.000000
 40
0.057800
 50
183.019700
 51
239.977398
  0
LINE
  8
1
 62
     7
  6
CONTINUOUS
 10
5.101400
 20
27.293400
 30
1.000000
 11
5.286000
 21
27.186900
 31
1.000000
  0
ARC
  8
1
 62
     7
  6
CONTINUOUS
 10
5.301640
 20
27.213897
 30
1.000000
 40
0.031200
 50
239.916095
 51
291.156203
  0
LINE
  8
1
 62
     7
  6
DOT
 10
5.312900
 20
27.184800
 30
1.000000
 11
6.213700
 21
27.377200
 31
1.000000
  0
LINE
  8
1
 62
     7
  6
CONTINUOUS
 10
6.213700
 20
27.377200
 30
1.000000
 11
6.226700
 21
27.328900
 31
1.000000
  0
ARC
  8
1
 62
     7
  6
CONTINUOUS
 10
6.222497
 20
27.344545
 30
1.000000
 40
0.016200
 50
285.038712
 51
329.815391
  0
LINE
  8
1
 62
     7
  6
CONTINUOUS
 10
6.236500
 20
27.336400
 30
1.000000
 11
6.314900
 21
27.472200
 31
1.000000
  0
ARC
  8
1
 62
     7
  6
CONTINUOUS
 10
6.329029
 20
27.464071
 30
1.000000
 40
0.016300
 50
119.913044
 51
150.086956
  0
LINE
  8
1
 62
     7
  6
CONTINUOUS
 10
6.320900
 20
27.478200
 30
1.000000
 11
6.520700
 21
27.593500
 31
1.000000
  0
ARC
  8
1
 62
     7
  6
CONTINUOUS
 10
6.505164
 20
27.620557
 30
1.000000
 40
0.031200
 50
299.863422
 51
402.411598
  0
ARC
  8
1
 62
     7
  6
CONTINUOUS
 10
6.197239
 20
27.340400
 30
1.000000
 40
0.447500
 50
42.304586
 51
77.683002
  0
ARC
  8
1
 62
     7
  6
CONTINUOUS
 10
6.286000
 20
27.747128
 30
1.000000
 40
0.031200
 50
77.599492
 51
180.051207
  0
LINE
  8
1
 62
     7
  6
CONTINUOUS
 10
6.254800
 20
27.747100
 30
1.000000
 11
6.254800
 21
27.533900
 31
1.000000
  0
ARC
  8
1
 62
     7
  6
CONTINUOUS
 10
6.312499
 20
27.533519
 30
1.000000
 40
0.057700
 50
179.621942
 51
191.212102
  0
ARC
  8
1
 62
     7
  6
CONTINUOUS
 10
6.240042
 20
27.518990
 30
1.000000
 40
0.016200
 50
328.808979
 51
371.790237
  0
LINE
  8
1
 62
     7
  6
CONTINUOUS
 10
6.253900
 20
27.510600
 30
1.000000
 11
6.174200
 21
27.372500
 31
1.000000
  0
ARC
  8
1
 62
     7
  6
CONTINUOUS
 10
6.188310
 20
27.364339
 30
1.000000
 40
0.016300
 50
149.956301
 51
240.162246
  0
LINE
  8
1
 62
     7
  6
CONTINUOUS
 10
6.180200
 20
27.350200
 30
1.000000
 11
6.214400
 21
27.330500
 31
1.000000
  0
ARC
  8
1
 62
     7
  6
CONTINUOUS
 10
6.222494
 20
27.344648
 30
1.000000
 40
0.016300
 50
240.225126
 51
284.951888
  0
LINE
  8
1
 62
     7
  6
DOT
 10
6.226700
 20
27.328900
 30
1.000000
 11
6.297800
 21
26.948300
 31
1.000000
  0
LINE
  8
1
 62
     7
  6
CONTINUOUS
 10
6.297800
 20
26.948300
 30
1.000000
 11
6.266400
 21
26.909400
 31
1.000000
  0
ARC
  8
1
 62
     7
  6
CONTINUOUS
 10
6.285972
 20
26.933698
 30
1.000000
 40
0.031200
 50
231.149311
 51
283.018818
  0
ARC
  8
1
 62
     7
  6
CONTINUOUS
 10
6.197278
 20
27.340443
 30
1.000000
 40
0.447500
 50
282.351192
 51
317.687978
  0
ARC
  8
1
 62
     7
  6
CONTINUOUS
 10
6.505164
 20
27.060243
 30
1.000000
 40
0.031200
 50
317.588402
 51
420.136578
  0
LINE
  8
1
 62
     7
  6
CONTINUOUS
 10
6.520700
 20
27.087300
 30
1.000000
 11
6.336100
 21
27.193800
 31
1.000000
  0
ARC
  8
1
 62
     7
  6
CONTINUOUS
 10
6.307167
 20
27.143763
 30
1.000000
 40
0.057800
 50
59.962680
 51
116.918537
  0
ARC
  8
1
 62
     7
  6
CONTINUOUS
 10
6.312500
 20
27.146957
 30
1.000000
 40
0.057700
 50
123.088015
 51
180.056640
  0
LINE
  8
1
 62
     7
  6
CONTINUOUS
 10
6.254800
 20
27.146900
 30
1.000000
 11
6.254800
 21
26.933700
 31
1.000000
  0
ARC
  8
1
 62
     7
  6
CONTINUOUS
 10
6.286000
 20
26.933675
 30
1.000000
 40
0.031200
 50
179.954270
 51
231.082200
  0
LINE
  8
1
 62
     7
  6
DOT
 10
6.266400
 20
26.909400
 30
1.000000
 11
6.096700
 21
26.948300
 31
1.000000
  0
LINE
  8
1
 62
     7
  6
CONTINUOUS
 10
6.096700
 20
26.948300
 30
1.000000
 11
6.128100
 21
26.909400
 31
1.000000
  0
ARC
  8
1
 62
     7
  6
CONTINUOUS
 10
6.108500
 20
26.933804
 30
1.000000
 40
0.031300
 50
308.769775
 51
359.810317
  0
LINE
  8
1
 62
     7
  6
CONTINUOUS
 10
6.139800
 20
26.933700
 30
1.000000
 11
6.139800
 21
27.146900
 31
1.000000
  0
ARC
  8
1
 62
     7
  6
CONTINUOUS
 10
6.082000
 20
27.146838
 30
1.000000
 40
0.057800
 50
0.061732
 51
56.976558
  0
ARC
  8
1
 62
     7
  6
CONTINUOUS
 10
6.087307
 20
27.143776
 30
1.000000
 40
0.057800
 50
63.052860
 51
119.665043
  0
LINE
  8
1
 62
     7
  6
CONTINUOUS
 10
6.058700
 20
27.194000
 30
1.000000
 11
5.873800
 21
27.087300
 31
1.000000
  0
ARC
  8
1
 62
     7
  6
CONTINUOUS
 10
5.889336
 20
27.060243
 30
1.000000
 40
0.031200
 50
119.863422
 51
222.411598
  0
ARC
  8
1
 62
     7
  6
CONTINUOUS
 10
6.197261
 20
27.340400
 30
1.000000
 40
0.447500
 50
222.304586
 51
257.683002
  0
ARC
  8
1
 62
     7
  6
CONTINUOUS
 10
6.108497
 20
26.933673
 30
1.000000
 40
0.031200
 50
257.604954
 51
308.924652
  0
LINE
  8
1
 62
     7
  6
DOT
 10
6.128100
 20
26.909400
 30
1.000000
 11
6.087100
 21
27.529200
 31
1.000000
  0
LINE
  8
1
 62
     7
  6
CONTINUOUS
 10
6.087100
 20
27.529200
 30
1.000000
 11
6.085800
 21
27.479300
 31
1.000000
  0
ARC
  8
1
 62
     7
  6
CONTINUOUS
 10
6.087412
 20
27.537078
 30
1.000000
 40
0.057800
 50
268.402143
 51
296.830621
  0
ARC
  8
1
 62
     7
  6
CONTINUOUS
 10
6.082000
 20
27.533962
 30
1.000000
 40
0.057800
 50
303.023442
 51
359.938268
  0
LINE
  8
1
 62
     7
  6
CONTINUOUS
 10
6.139800
 20
27.533900
 30
1.000000
 11
6.139800
 21
27.747100
 31
1.000000
  0
ARC
  8
1
 62
     7
  6
CONTINUOUS
 10
6.108500
 20
27.747026
 30
1.000000
 40
0.031300
 50
0.136338
 51
102.360405
  0
ARC
  8
1
 62
     7
  6
CONTINUOUS
 10
6.197261
 20
27.340400
 30
1.000000
 40
0.447500
 50
102.316998
 51
137.695414
  0
ARC
  8
1
 62
     7
  6
CONTINUOUS
 10
5.889336
 20
27.620557
 30
1.000000
 40
0.031200
 50
137.588402
 51
240.136578
  0
LINE
  8
1
 62
     7
  6
CONTINUOUS
 10
5.873800
 20
27.593500
 30
1.000000
 11
6.058400
 21
27.487000
 31
1.000000
  0
ARC
  8
1
 62
     7
  6
CONTINUOUS
 10
6.087228
 20
27.536982
 30
1.000000
 40
0.057700
 50
240.025151
 51
268.581797
  0
LINE
  8
1
 62
     7
  6
DOT
 10
6.085800
 20
27.479300
 30
1.000000
 11
5.807400
 21
27.231400
 31
1.000000
  0
LINE
  8
1
 62
     7
  6
CONTINUOUS
 10
5.807400
 20
27.231400
 30
1.000000
 11
5.789400
 21
27.184800
 31
1.000000
  0
ARC
  8
1
 62
     7
  6
CONTINUOUS
 10
5.800660
 20
27.213897
 30
1.000000
 40
0.031200
 50
248.843797
 51
300.083905
  0
LINE
  8
1
 62
     7
  6
CONTINUOUS
 10
5.816300
 20
27.186900
 30
1.000000
 11
6.000900
 21
27.293400
 31
1.000000
  0
ARC
  8
1
 62
     7
  6
CONTINUOUS
 10
5.971980
 20
27.343445
 30
1.000000
 40
0.057800
 50
300.022602
 51
356.980300
  0
ARC
  8
1
 62
     7
  6
CONTINUOUS
 10
5.971980
 20
27.337355
 30
1.000000
 40
0.057800
 50
3.019700
 51
59.977398
  0
LINE
  8
1
 62
     7
  6
CONTINUOUS
 10
6.000900
 20
27.387400
 30
1.000000
 11
5.816300
 21
27.493900
 31
1.000000
  0
ARC
  8
1
 62
     7
  6
CONTINUOUS
 10
5.800621
 20
27.466926
 30
1.000000
 40
0.031200
 50
59.831780
 51
162.899968
  0
ARC
  8
1
 62
     7
  6
CONTINUOUS
 10
6.197338
 20
27.340414
 30
1.000000
 40
0.447600
 50
162.353572
 51
197.730687
  0
ARC
  8
1
 62
     7
  6
CONTINUOUS
 10
5.800616
 20
27.213914
 30
1.000000
 40
0.031200
 50
198.334091
 51
248.930821
  0
LINE
  8
1
 62
     7
  6
DOT
 10
5.789400
 20
27.184800
 30
1.000000
 11
6.587100
 21
27.231400
 31
1.000000
  0
LINE
  8
1
 62
     7
  6
CONTINUOUS
 10
6.587100
 20
27.231400
 30
1.000000
 11
6.605100
 21
27.184800
 31
1.000000
  0
ARC
  8
1
 62
     7
  6
CONTINUOUS
 10
6.593858
 20
27.213904
 30
1.000000
 40
0.031200
 50
291.120167
 51
343.034183
  0
ARC
  8
1
 62
     7
  6
CONTINUOUS
 10
6.197251
 20
27.340436
 30
1.000000
 40
0.447500
 50
342.356223
 51
377.728066
  0
ARC
  8
1
 62
     7
  6
CONTINUOUS
 10
6.593872
 20
27.466922
 30
1.000000
 40
0.031200
 50
18.264771
 51
120.152596
  0
LINE
  8
1
 62
     7
  6
CONTINUOUS
 10
6.578200
 20
27.493900
 30
1.000000
 11
6.393600
 21
27.387400
 31
1.000000
  0
ARC
  8
1
 62
     7
  6
CONTINUOUS
 10
6.422520
 20
27.337355
 30
1.000000
 40
0.057800
 50
120.022602
 51
176.980300
  0
ARC
  8
1
 62
     7
  6
CONTINUOUS
 10
6.422520
 20
27.343445
 30
1.000000
 40
0.057800
 50
183.019700
 51
239.977398
  0
LINE
  8
1
 62
     7
  6
CONTINUOUS
 10
6.393600
 20
27.293400
 30
1.000000
 11
6.578200
 21
27.186900
 31
1.000000
  0
ARC
  8
1
 62
     7
  6
CONTINUOUS
 10
6.593840
 20
27.213897
 30
1.000000
 40
0.031200
 50
239.916095
 51
291.156203
  0
LINE
  8
1
 62
     7
  6
DOT
 10
6.605100
 20
27.184800
 30
1.000000
 11
5.608300
 21
27.340400
 31
1.000000
  0
LINE
  8
1
 62
     7
  6
CONTINUOUS
 10
5.608300
 20
27.340400
 30
1.000000
 11
5.558300
 21
27.340400
 31
1.000000
  0
LINE
  8
1
 62
     7
  6
CONTINUOUS
 10
5.558300
 20
27.340400
 30
1.000000
 11
5.468800
 21
27.340400
 31
1.000000
  0
ARC
  8
1
 62
     7
  6
CONTINUOUS
 10
6.031900
 20
27.312314
 30
1.000000
 40
0.563800
 50
177.144586
 51
180.001410
  0
LINE
  8
1
 62
     7
  6
DOT
 10
5.468100
 20
27.312300
 30
1.000000
 11
6.900500
 21
27.340400
 31
1.000000
  0
LINE
  8
1
 62
     7
  6
CONTINUOUS
 10
6.900500
 20
27.340400
 30
1.000000
 11
6.850500
 21
27.340400
 31
1.000000
  0
LINE
  8
1
 62
     7
  6
CONTINUOUS
 10
6.850500
 20
27.340400
 30
1.000000
 11
6.761000
 21
27.340400
 31
1.000000
  0
ARC
  8
1
 62
     7
  6
CONTINUOUS
 10
7.324000
 20
27.312316
 30
1.000000
 40
0.563700
 50
177.144332
 51
180.001664
  0
LINE
  8
1
 62
     7
  6
DOT
 10
6.760300
 20
27.312300
 30
1.000000
 11
7.612400
 21
27.012800
 31
1.000000
  0
LINE
  8
1
 62
     7
  6
CONTINUOUS
 10
7.612400
 20
27.012800
 30
1.000000
 11
7.582700
 21
26.972600
 31
1.000000
  0
ARC
  8
1
 62
     7
  6
CONTINUOUS
 10
7.612383
 20
27.012836
 30
1.000000
 40
0.050000
 50
233.583353
 51
286.519836
  0
ARC
  8
1
 62
     7
  6
CONTINUOUS
 10
7.512375
 20
27.340411
 30
1.000000
 40
0.392500
 50
286.919015
 51
312.988201
  0
ARC
  8
1
 62
     7
  6
CONTINUOUS
 10
7.746092
 20
27.090046
 30
1.000000
 40
0.050000
 50
312.699995
 51
420.121685
  0
LINE
  8
1
 62
     7
  6
CONTINUOUS
 10
7.771000
 20
27.133400
 30
1.000000
 11
7.680200
 21
27.185800
 31
1.000000
  0
ARC
  8
1
 62
     7
  6
CONTINUOUS
 10
7.640900
 20
27.117846
 30
1.000000
 40
0.078500
 50
59.957840
 51
180.033506
  0
LINE
  8
1
 62
     7
  6
CONTINUOUS
 10
7.562400
 20
27.117800
 30
1.000000
 11
7.562400
 21
27.012800
 31
1.000000
  0
ARC
  8
1
 62
     7
  6
CONTINUOUS
 10
7.612400
 20
27.012823
 30
1.000000
 40
0.050000
 50
180.026649
 51
233.558631
  0
LINE
  8
1
 62
     7
  6
DOT
 10
7.582700
 20
26.972600
 30
1.000000
 11
7.178700
 21
27.263200
 31
1.000000
  0
LINE
  8
1
 62
     7
  6
CONTINUOUS
 10
7.178700
 20
27.263200
 30
1.000000
 11
7.158800
 21
27.217400
 31
1.000000
  0
ARC
  8
1
 62
     7
  6
CONTINUOUS
 10
7.178796
 20
27.263228
 30
1.000000
 40
0.050000
 50
246.426818
 51
299.477382
  0
LINE
  8
1
 62
     7
  6
CONTINUOUS
 10
7.203400
 20
27.219700
 30
1.000000
 11
7.294600
 21
27.272400
 31
1.000000
  0
ARC
  8
1
 62
     7
  6
CONTINUOUS
 10
7.255422
 20
27.340425
 30
1.000000
 40
0.078500
 50
299.939279
 51
419.554056
  0
LINE
  8
1
 62
     7
  6
CONTINUOUS
 10
7.295200
 20
27.408100
 30
1.000000
 11
7.203400
 21
27.461100
 31
1.000000
  0
ARC
  8
1
 62
     7
  6
CONTINUOUS
 10
7.178711
 20
27.417621
 30
1.000000
 40
0.050000
 50
60.410844
 51
166.962520
  0
ARC
  8
1
 62
     7
  6
CONTINUOUS
 10
7.512404
 20
27.340450
 30
1.000000
 40
0.392500
 50
166.976521
 51
193.023479
  0
ARC
  8
1
 62
     7
  6
CONTINUOUS
 10
7.178715
 20
27.263263
 30
1.000000
 40
0.050000
 50
193.017891
 51
246.528068
  0
LINE
  8
1
 62
     7
  6
DOT
 10
7.158800
 20
27.217400
 30
1.000000
 11
7.412400
 21
27.012800
 31
1.000000
  0
LINE
  8
1
 62
     7
  6
CONTINUOUS
 10
7.412400
 20
27.012800
 30
1.000000
 11
7.442200
 21
26.972600
 31
1.000000
  0
ARC
  8
1
 62
     7
  6
CONTINUOUS
 10
7.412400
 20
27.012749
 30
1.000000
 40
0.050000
 50
306.583916
 51
360.058166
  0
LINE
  8
1
 62
     7
  6
CONTINUOUS
 10
7.462400
 20
27.012800
 30
1.000000
 11
7.462400
 21
27.117800
 31
1.000000
  0
ARC
  8
1
 62
     7
  6
CONTINUOUS
 10
7.383900
 20
27.117762
 30
1.000000
 40
0.078500
 50
0.027763
 51
120.210931
  0
LINE
  8
1
 62
     7
  6
CONTINUOUS
 10
7.344400
 20
27.185600
 30
1.000000
 11
7.254300
 21
27.133600
 31
1.000000
  0
ARC
  8
1
 62
     7
  6
CONTINUOUS
 10
7.278764
 20
27.089994
 30
1.000000
 40
0.050000
 50
119.293532
 51
227.212282
  0
ARC
  8
1
 62
     7
  6
CONTINUOUS
 10
7.512425
 20
27.340411
 30
1.000000
 40
0.392500
 50
227.011799
 51
253.080985
  0
ARC
  8
1
 62
     7
  6
CONTINUOUS
 10
7.412489
 20
27.012815
 30
1.000000
 40
0.050000
 50
253.394942
 51
306.457549
  0
LINE
  8
1
 62
     7
  6
DOT
 10
7.442200
 20
26.972600
 30
1.000000
 11
7.846100
 21
27.263200
 31
1.000000
  0
LINE
  8
1
 62
     7
  6
CONTINUOUS
 10
7.846100
 20
27.263200
 30
1.000000
 11
7.866100
 21
27.217400
 31
1.000000
  0
ARC
  8
1
 62
     7
  6
CONTINUOUS
 10
7.846085
 20
27.263219
 30
1.000000
 40
0.050000
 50
293.597509
 51
347.503491
  0
ARC
  8
1
 62
     7
  6
CONTINUOUS
 10
7.512434
 20
27.340584
 30
1.000000
 40
0.392500
 50
347.016417
 51
373.048397
  0
ARC
  8
1
 62
     7
  6
CONTINUOUS
 10
7.846160
 20
27.417618
 30
1.000000
 40
0.050000
 50
13.393482
 51
119.814778
  0
LINE
  8
1
 62
     7
  6
CONTINUOUS
 10
7.821300
 20
27.461000
 30
1.000000
 11
7.730700
 21
27.408700
 31
1.000000
  0
ARC
  8
1
 62
     7
  6
CONTINUOUS
 10
7.769459
 20
27.340436
 30
1.000000
 40
0.078500
 50
119.586728
 51
240.076981
  0
LINE
  8
1
 62
     7
  6
CONTINUOUS
 10
7.730300
 20
27.272400
 30
1.000000
 11
7.821300
 21
27.219800
 31
1.000000
  0
ARC
  8
1
 62
     7
  6
CONTINUOUS
 10
7.846090
 20
27.263222
 30
1.000000
 40
0.050000
 50
240.276900
 51
293.590129
  0
LINE
  8
1
 62
     7
  6
DOT
 10
7.866100
 20
27.217400
 30
1.000000
 11
7.528900
 21
27.377200
 31
1.000000
  0
LINE
  8
1
 62
     7
  6
CONTINUOUS
 10
7.528900
 20
27.377200
 30
1.000000
 11
7.541900
 21
27.328900
 31
1.000000
  0
ARC
  8
1
 62
     7
  6
CONTINUOUS
 10
7.537628
 20
27.344527
 30
1.000000
 40
0.016200
 50
285.288833
 51
330.299053
  0
LINE
  8
1
 62
     7
  6
CONTINUOUS
 10
7.551700
 20
27.336500
 30
1.000000
 11
7.632600
 21
27.476500
 31
1.000000
  0
ARC
  8
1
 62
     7
  6
CONTINUOUS
 10
7.646646
 20
27.468428
 30
1.000000
 40
0.016200
 50
93.345993
 51
150.112719
  0
ARC
  8
1
 62
     7
  6
CONTINUOUS
 10
7.640882
 20
27.562952
 30
1.000000
 40
0.078500
 50
273.518611
 51
300.479671
  0
LINE
  8
1
 62
     7
  6
CONTINUOUS
 10
7.680700
 20
27.495300
 30
1.000000
 11
7.771000
 21
27.547400
 31
1.000000
  0
ARC
  8
1
 62
     7
  6
CONTINUOUS
 10
7.746092
 20
27.590754
 30
1.000000
 40
0.050000
 50
299.878315
 51
407.300005
  0
ARC
  8
1
 62
     7
  6
CONTINUOUS
 10
7.512340
 20
27.340421
 30
1.000000
 40
0.392500
 50
47.004824
 51
73.014609
  0
ARC
  8
1
 62
     7
  6
CONTINUOUS
 10
7.612399
 20
27.667979
 30
1.000000
 40
0.050000
 50
73.021334
 51
180.320081
  0
LINE
  8
1
 62
     7
  6
CONTINUOUS
 10
7.562400
 20
27.667700
 30
1.000000
 11
7.562400
 21
27.563000
 31
1.000000
  0
ARC
  8
1
 62
     7
  6
CONTINUOUS
 10
7.640900
 20
27.563031
 30
1.000000
 40
0.078500
 50
180.022873
 51
206.585511
  0
ARC
  8
1
 62
     7
  6
CONTINUOUS
 10
7.556215
 20
27.520646
 30
1.000000
 40
0.016200
 50
328.991923
 51
386.602881
  0
LINE
  8
1
 62
     7
  6
CONTINUOUS
 10
7.570100
 20
27.512300
 30
1.000000
 11
7.489400
 21
27.372500
 31
1.000000
  0
ARC
  8
1
 62
     7
  6
CONTINUOUS
 10
7.503510
 20
27.364339
 30
1.000000
 40
0.016300
 50
149.956301
 51
240.162246
  0
LINE
  8
1
 62
     7
  6
CONTINUOUS
 10
7.495400
 20
27.350200
 30
1.000000
 11
7.529500
 21
27.330500
 31
1.000000
  0
ARC
  8
1
 62
     7
  6
CONTINUOUS
 10
7.537626
 20
27.344630
 30
1.000000
 40
0.016300
 50
240.095639
 51
285.199602
  0
LINE
  8
1
 62
     7
  6
DOT
 10
7.541900
 20
27.328900
 30
1.000000
 11
7.324200
 21
27.564500
 31
1.000000
  0
LINE
  8
1
 62
     7
  6
CONTINUOUS
 10
7.324200
 20
27.564500
 30
1.000000
 11
7.299200
 21
27.521200
 31
1.000000
  0
LINE
  8
1
 62
     7
  6
CONTINUOUS
 10
7.299200
 20
27.521200
 30
1.000000
 11
7.344700
 21
27.495000
 31
1.000000
  0
ARC
  8
1
 62
     7
  6
CONTINUOUS
 10
7.383900
 20
27.563012
 30
1.000000
 40
0.078500
 50
240.042130
 51
359.991361
  0
LINE
  8
1
 62
     7
  6
CONTINUOUS
 10
7.462400
 20
27.563000
 30
1.000000
 11
7.462400
 21
27.668000
 31
1.000000
  0
ARC
  8
1
 62
     7
  6
CONTINUOUS
 10
7.412400
 20
27.667979
 30
1.000000
 40
0.050000
 50
0.023966
 51
106.977736
  0
ARC
  8
1
 62
     7
  6
CONTINUOUS
 10
7.512482
 20
27.340428
 30
1.000000
 40
0.392500
 50
106.988646
 51
133.039365
  0
ARC
  8
1
 62
     7
  6
CONTINUOUS
 10
7.278773
 20
27.590801
 30
1.000000
 40
0.050000
 50
133.114951
 51
239.770539
  0
LINE
  8
1
 62
     7
  6
CONTINUOUS
 10
7.253600
 20
27.547600
 30
1.000000
 11
7.299200
 21
27.521200
 31
1.000000
  0
LINE
  8
1
 62
     7
  6
DOT
 10
7.299200
 20
27.521200
 30
1.000000
 11
8.353500
 21
27.263200
 31
1.000000
  0
LINE
  8
1
 62
     7
  6
CONTINUOUS
 10
8.353500
 20
27.263200
 30
1.000000
 11
8.333500
 21
27.217400
 31
1.000000
  0
ARC
  8
1
 62
     7
  6
CONTINUOUS
 10
8.353496
 20
27.263228
 30
1.000000
 40
0.050000
 50
246.426818
 51
299.477382
  0
LINE
  8
1
 62
     7
  6
CONTINUOUS
 10
8.378100
 20
27.219700
 30
1.000000
 11
8.469300
 21
27.272400
 31
1.000000
  0
ARC
  8
1
 62
     7
  6
CONTINUOUS
 10
8.430122
 20
27.340425
 30
1.000000
 40
0.078500
 50
299.939279
 51
419.554056
  0
LINE
  8
1
 62
     7
  6
CONTINUOUS
 10
8.469900
 20
27.408100
 30
1.000000
 11
8.378100
 21
27.461100
 31
1.000000
  0
ARC
  8
1
 62
     7
  6
CONTINUOUS
 10
8.353500
 20
27.417571
 30
1.000000
 40
0.050000
 50
60.527241
 51
166.903623
  0
ARC
  8
1
 62
     7
  6
CONTINUOUS
 10
8.687154
 20
27.340234
 30
1.000000
 40
0.392500
 50
166.944130
 51
192.991092
  0
ARC
  8
1
 62
     7
  6
CONTINUOUS
 10
8.353415
 20
27.263263
 30
1.000000
 40
0.050000
 50
193.017891
 51
246.528068
  0
LINE
  8
1
 62
     7
  6
DOT
 10
8.333500
 20
27.217400
 30
1.000000
 11
9.020800
 21
27.263200
 31
1.000000
  0
LINE
  8
1
 62
     7
  6
CONTINUOUS
 10
9.020800
 20
27.263200
 30
1.000000
 11
9.040800
 21
27.217400
 31
1.000000
  0
ARC
  8
1
 62
     7
  6
CONTINUOUS
 10
9.020885
 20
27.263263
 30
1.000000
 40
0.050000
 50
293.471932
 51
346.982109
  0
ARC
  8
1
 62
     7
  6
CONTINUOUS
 10
8.687196
 20
27.340450
 30
1.000000
 40
0.392500
 50
346.976521
 51
373.023479
  0
ARC
  8
1
 62
     7
  6
CONTINUOUS
 10
9.020889
 20
27.417621
 30
1.000000
 40
0.050000
 50
13.037480
 51
119.589156
  0
LINE
  8
1
 62
     7
  6
CONTINUOUS
 10
8.996200
 20
27.461100
 30
1.000000
 11
8.905000
 21
27.408500
 31
1.000000
  0
ARC
  8
1
 62
     7
  6
CONTINUOUS
 10
8.944291
 20
27.340425
 30
1.000000
 40
0.078600
 50
119.992235
 51
239.501473
  0
LINE
  8
1
 62
     7
  6
CONTINUOUS
 10
8.904400
 20
27.272700
 30
1.000000
 11
8.996200
 21
27.219700
 31
1.000000
  0
ARC
  8
1
 62
     7
  6
CONTINUOUS
 10
9.020804
 20
27.263228
 30
1.000000
 40
0.050000
 50
240.522618
 51
293.573182
  0
LINE
  8
1
 62
     7
  6
DOT
 10
9.040800
 20
27.217400
 30
1.000000
 11
8.787200
 21
27.012800
 31
1.000000
  0
LINE
  8
1
 62
     7
  6
CONTINUOUS
 10
8.787200
 20
27.012800
 30
1.000000
 11
8.757400
 21
26.972600
 31
1.000000
  0
ARC
  8
1
 62
     7
  6
CONTINUOUS
 10
8.787083
 20
27.012836
 30
1.000000
 40
0.050000
 50
233.583353
 51
286.519836
  0
ARC
  8
1
 62
     7
  6
CONTINUOUS
 10
8.687126
 20
27.340323
 30
1.000000
 40
0.392400
 50
286.915635
 51
312.991582
  0
ARC
  8
1
 62
     7
  6
CONTINUOUS
 10
8.920792
 20
27.090046
 30
1.000000
 40
0.050000
 50
312.699995
 51
420.121685
  0
LINE
  8
1
 62
     7
  6
CONTINUOUS
 10
8.945700
 20
27.133400
 30
1.000000
 11
8.854900
 21
27.185800
 31
1.000000
  0
ARC
  8
1
 62
     7
  6
CONTINUOUS
 10
8.815700
 20
27.117788
 30
1.000000
 40
0.078500
 50
60.042130
 51
179.991361
  0
LINE
  8
1
 62
     7
  6
CONTINUOUS
 10
8.737200
 20
27.117800
 30
1.000000
 11
8.737200
 21
27.012800
 31
1.000000
  0
ARC
  8
1
 62
     7
  6
CONTINUOUS
 10
8.787200
 20
27.012749
 30
1.000000
 40
0.050000
 50
179.941834
 51
233.416084
  0
LINE
  8
1
 62
     7
  6
DOT
 10
8.757400
 20
26.972600
 30
1.000000
 11
8.703600
 21
27.377200
 31
1.000000
  0
LINE
  8
1
 62
     7
  6
CONTINUOUS
 10
8.703600
 20
27.377200
 30
1.000000
 11
8.716600
 21
27.328900
 31
1.000000
  0
ARC
  8
1
 62
     7
  6
CONTINUOUS
 10
8.712381
 20
27.344644
 30
1.000000
 40
0.016300
 50
285.002519
 51
330.022705
  0
LINE
  8
1
 62
     7
  6
CONTINUOUS
 10
8.726500
 20
27.336500
 30
1.000000
 11
8.807300
 21
27.476500
 31
1.000000
  0
ARC
  8
1
 62
     7
  6
CONTINUOUS
 10
8.821346
 20
27.468428
 30
1.000000
 40
0.016200
 50
93.345993
 51
150.112719
  0
ARC
  8
1
 62
     7
  6
CONTINUOUS
 10
8.815582
 20
27.562952
 30
1.000000
 40
0.078500
 50
273.518611
 51
300.479671
  0
LINE
  8
1
 62
     7
  6
CONTINUOUS
 10
8.855400
 20
27.495300
 30
1.000000
 11
8.945700
 21
27.547400
 31
1.000000
  0
ARC
  8
1
 62
     7
  6
CONTINUOUS
 10
8.920792
 20
27.590754
 30
1.000000
 40
0.050000
 50
299.878315
 51
407.300005
  0
ARC
  8
1
 62
     7
  6
CONTINUOUS
 10
8.686991
 20
27.340467
 30
1.000000
 40
0.392500
 50
46.995091
 51
72.991901
  0
ARC
  8
1
 62
     7
  6
CONTINUOUS
 10
8.787199
 20
27.667979
 30
1.000000
 40
0.050000
 50
73.021334
 51
180.320081
  0
LINE
  8
1
 62
     7
  6
CONTINUOUS
 10
8.737200
 20
27.667700
 30
1.000000
 11
8.737200
 21
27.563000
 31
1.000000
  0
ARC
  8
1
 62
     7
  6
CONTINUOUS
 10
8.815700
 20
27.562831
 30
1.000000
 40
0.078500
 50
179.876762
 51
206.422242
  0
ARC
  8
1
 62
     7
  6
CONTINUOUS
 10
8.730915
 20
27.520646
 30
1.000000
 40
0.016200
 50
328.991923
 51
386.602881
  0
LINE
  8
1
 62
     7
  6
CONTINUOUS
 10
8.744800
 20
27.512300
 30
1.000000
 11
8.664100
 21
27.372500
 31
1.000000
  0
ARC
  8
1
 62
     7
  6
CONTINUOUS
 10
8.678210
 20
27.364339
 30
1.000000
 40
0.016300
 50
149.956301
 51
240.162246
  0
LINE
  8
1
 62
     7
  6
CONTINUOUS
 10
8.670100
 20
27.350200
 30
1.000000
 11
8.704300
 21
27.330500
 31
1.000000
  0
ARC
  8
1
 62
     7
  6
CONTINUOUS
 10
8.712394
 20
27.344648
 30
1.000000
 40
0.016300
 50
240.225126
 51
284.951888
  0
LINE
  8
1
 62
     7
  6
DOT
 10
8.716600
 20
27.328900
 30
1.000000
 11
8.498900
 21
27.564500
 31
1.000000
  0
LINE
  8
1
 62
     7
  6
CONTINUOUS
 10
8.498900
 20
27.564500
 30
1.000000
 11
8.473900
 21
27.521200
 31
1.000000
  0
LINE
  8
1
 62
     7
  6
CONTINUOUS
 10
8.473900
 20
27.521200
 30
1.000000
 11
8.519400
 21
27.495000
 31
1.000000
  0
ARC
  8
1
 62
     7
  6
CONTINUOUS
 10
8.558703
 20
27.562953
 30
1.000000
 40
0.078500
 50
239.955600
 51
360.472562
  0
LINE
  8
1
 62
     7
  6
CONTINUOUS
 10
8.637200
 20
27.563600
 30
1.000000
 11
8.637200
 21
27.668000
 31
1.000000
  0
ARC
  8
1
 62
     7
  6
CONTINUOUS
 10
8.587200
 20
27.667979
 30
1.000000
 40
0.050000
 50
0.023966
 51
106.977736
  0
ARC
  8
1
 62
     7
  6
CONTINUOUS
 10
8.687133
 20
27.340382
 30
1.000000
 40
0.392500
 50
106.965968
 51
133.029661
  0
ARC
  8
1
 62
     7
  6
CONTINUOUS
 10
8.453473
 20
27.590801
 30
1.000000
 40
0.050000
 50
133.114951
 51
239.770539
  0
LINE
  8
1
 62
     7
  6
CONTINUOUS
 10
8.428300
 20
27.547600
 30
1.000000
 11
8.473900
 21
27.521200
 31
1.000000
  0
LINE
  8
1
 62
     7
  6
DOT
 10
8.473900
 20
27.521200
 30
1.000000
 11
8.587200
 21
27.012800
 31
1.000000
  0
LINE
  8
1
 62
     7
  6
CONTINUOUS
 10
8.587200
 20
27.012800
 30
1.000000
 11
8.616900
 21
26.972600
 31
1.000000
  0
ARC
  8
1
 62
     7
  6
CONTINUOUS
 10
8.587200
 20
27.012823
 30
1.000000
 40
0.050000
 50
306.441369
 51
359.973351
  0
LINE
  8
1
 62
     7
  6
CONTINUOUS
 10
8.637200
 20
27.012800
 30
1.000000
 11
8.637200
 21
27.118400
 31
1.000000
  0
ARC
  8
1
 62
     7
  6
CONTINUOUS
 10
8.558702
 20
27.117822
 30
1.000000
 40
0.078500
 50
0.422220
 51
120.297221
  0
LINE
  8
1
 62
     7
  6
CONTINUOUS
 10
8.519100
 20
27.185600
 30
1.000000
 11
8.429000
 21
27.133600
 31
1.000000
  0
ARC
  8
1
 62
     7
  6
CONTINUOUS
 10
8.453473
 20
27.089999
 30
1.000000
 40
0.050000
 50
119.305697
 51
226.884666
  0
ARC
  8
1
 62
     7
  6
CONTINUOUS
 10
8.687098
 20
27.340450
 30
1.000000
 40
0.392500
 50
226.977254
 51
253.100353
  0
ARC
  8
1
 62
     7
  6
CONTINUOUS
 10
8.587217
 20
27.012836
 30
1.000000
 40
0.050000
 50
253.480164
 51
306.416647
  0
LINE
  8
1
 62
     7
  6
DOT
 10
8.616900
 20
26.972600
 30
1.000000
 11
8.153500
 21
27.340400
 31
1.000000
  0
LINE
  8
1
 62
     7
  6
CONTINUOUS
 10
8.153500
 20
27.340400
 30
1.000000
 11
8.103500
 21
27.340400
 31
1.000000
  0
LINE
  8
1
 62
     7
  6
CONTINUOUS
 10
8.103500
 20
27.340400
 30
1.000000
 11
8.018700
 21
27.340400
 31
1.000000
  0
ARC
  8
1
 62
     7
  6
CONTINUOUS
 10
8.524000
 20
27.308594
 30
1.000000
 40
0.506300
 50
176.398244
 51
179.976651
  0
LINE
  8
1
 62
     7
  6
DOT
 10
8.017700
 20
27.308800
 30
1.000000
 11
9.328300
 21
27.340400
 31
1.000000
  0
LINE
  8
1
 62
     7
  6
CONTINUOUS
 10
9.328300
 20
27.340400
 30
1.000000
 11
9.278300
 21
27.340400
 31
1.000000
  0
LINE
  8
1
 62
     7
  6
CONTINUOUS
 10
9.278300
 20
27.340400
 30
1.000000
 11
9.193400
 21
27.340400
 31
1.000000
  0
ARC
  8
1
 62
     7
  6
CONTINUOUS
 10
9.698600
 20
27.308597
 30
1.000000
 40
0.506200
 50
176.397890
 51
179.977004
  0
LINE
  8
1
 62
     7
  6
DOT
 10
9.192400
 20
27.308800
 30
1.000000
 11
15.614300
 21
31.720300
 31
1.000000
  0
LINE
  8
1
 62
     7
  6
CONTINUOUS
 10
15.614300
 20
31.720300
 30
1.000000
 11
15.627300
 21
31.672000
 31
1.000000
  0
ARC
  8
1
 62
     7
  6
CONTINUOUS
 10
15.623081
 20
31.687744
 30
1.000000
 40
0.016300
 50
285.002519
 51
330.022705
  0
LINE
  8
1
 62
     7
  6
CONTINUOUS
 10
15.637200
 20
31.679600
 30
1.000000
 11
15.718000
 21
31.819600
 31
1.000000
  0
ARC
  8
1
 62
     7
  6
CONTINUOUS
 10
15.732046
 20
31.811528
 30
1.000000
 40
0.016200
 50
93.345993
 51
150.112719
  0
ARC
  8
1
 62
     7
  6
CONTINUOUS
 10
15.726282
 20
31.906052
 30
1.000000
 40
0.078500
 50
273.518611
 51
300.479671
  0
LINE
  8
1
 62
     7
  6
CONTINUOUS
 10
15.766100
 20
31.838400
 30
1.000000
 11
15.856400
 21
31.890500
 31
1.000000
  0
ARC
  8
1
 62
     7
  6
CONTINUOUS
 10
15.831492
 20
31.933854
 30
1.000000
 40
0.050000
 50
299.878315
 51
407.300005
  0
ARC
  8
1
 62
     7
  6
CONTINUOUS
 10
15.597691
 20
31.683567
 30
1.000000
 40
0.392500
 50
46.995091
 51
72.991901
  0
ARC
  8
1
 62
     7
  6
CONTINUOUS
 10
15.697899
 20
32.011079
 30
1.000000
 40
0.050000
 50
73.021334
 51
180.320081
  0
LINE
  8
1
 62
     7
  6
CONTINUOUS
 10
15.647900
 20
32.010800
 30
1.000000
 11
15.647900
 21
31.906100
 31
1.000000
  0
ARC
  8
1
 62
     7
  6
CONTINUOUS
 10
15.726400
 20
31.905931
 30
1.000000
 40
0.078500
 50
179.876762
 51
206.422242
  0
ARC
  8
1
 62
     7
  6
CONTINUOUS
 10
15.641615
 20
31.863746
 30
1.000000
 40
0.016200
 50
328.991923
 51
386.602881
  0
LINE
  8
1
 62
     7
  6
CONTINUOUS
 10
15.655500
 20
31.855400
 30
1.000000
 11
15.574800
 21
31.715600
 31
1.000000
  0
ARC
  8
1
 62
     7
  6
CONTINUOUS
 10
15.588910
 20
31.707439
 30
1.000000
 40
0.016300
 50
149.956301
 51
240.162246
  0
LINE
  8
1
 62
     7
  6
CONTINUOUS
 10
15.580800
 20
31.693300
 30
1.000000
 11
15.615000
 21
31.673600
 31
1.000000
  0
ARC
  8
1
 62
     7
  6
CONTINUOUS
 10
15.623094
 20
31.687748
 30
1.000000
 40
0.016300
 50
240.225126
 51
284.951888
  0
LINE
  8
1
 62
     7
  6
DOT
 10
15.627300
 20
31.672000
 30
1.000000
 11
15.264200
 21
31.606300
 31
1.000000
  0
LINE
  8
1
 62
     7
  6
CONTINUOUS
 10
15.264200
 20
31.606300
 30
1.000000
 11
15.244200
 21
31.560500
 31
1.000000
  0
ARC
  8
1
 62
     7
  6
CONTINUOUS
 10
15.264196
 20
31.606328
 30
1.000000
 40
0.050000
 50
246.426818
 51
299.477382
  0
LINE
  8
1
 62
     7
  6
CONTINUOUS
 10
15.288800
 20
31.562800
 30
1.000000
 11
15.380000
 21
31.615500
 31
1.000000
  0
ARC
  8
1
 62
     7
  6
CONTINUOUS
 10
15.340822
 20
31.683525
 30
1.000000
 40
0.078500
 50
299.939279
 51
419.554056
  0
LINE
  8
1
 62
     7
  6
CONTINUOUS
 10
15.380600
 20
31.751200
 30
1.000000
 11
15.288800
 21
31.804200
 31
1.000000
  0
ARC
  8
1
 62
     7
  6
CONTINUOUS
 10
15.264200
 20
31.760671
 30
1.000000
 40
0.050000
 50
60.527241
 51
166.903623
  0
ARC
  8
1
 62
     7
  6
CONTINUOUS
 10
15.597854
 20
31.683334
 30
1.000000
 40
0.392500
 50
166.944130
 51
192.991092
  0
ARC
  8
1
 62
     7
  6
CONTINUOUS
 10
15.264115
 20
31.606363
 30
1.000000
 40
0.050000
 50
193.017891
 51
246.528068
  0
LINE
  8
1
 62
     7
  6
DOT
 10
15.244200
 20
31.560500
 30
1.000000
 11
15.409600
 21
31.907600
 31
1.000000
  0
LINE
  8
1
 62
     7
  6
CONTINUOUS
 10
15.409600
 20
31.907600
 30
1.000000
 11
15.384600
 21
31.864300
 31
1.000000
  0
LINE
  8
1
 62
     7
  6
CONTINUOUS
 10
15.384600
 20
31.864300
 30
1.000000
 11
15.430100
 21
31.838100
 31
1.000000
  0
ARC
  8
1
 62
     7
  6
CONTINUOUS
 10
15.469403
 20
31.906053
 30
1.000000
 40
0.078500
 50
239.955600
 51
360.472562
  0
LINE
  8
1
 62
     7
  6
CONTINUOUS
 10
15.547900
 20
31.906700
 30
1.000000
 11
15.547900
 21
32.011100
 31
1.000000
  0
ARC
  8
1
 62
     7
  6
CONTINUOUS
 10
15.497900
 20
32.011079
 30
1.000000
 40
0.050000
 50
0.023966
 51
106.977736
  0
ARC
  8
1
 62
     7
  6
CONTINUOUS
 10
15.597833
 20
31.683482
 30
1.000000
 40
0.392500
 50
106.965968
 51
133.029661
  0
ARC
  8
1
 62
     7
  6
CONTINUOUS
 10
15.364173
 20
31.933901
 30
1.000000
 40
0.050000
 50
133.114951
 51
239.770539
  0
LINE
  8
1
 62
     7
  6
CONTINUOUS
 10
15.339000
 20
31.890700
 30
1.000000
 11
15.384600
 21
31.864300
 31
1.000000
  0
LINE
  8
1
 62
     7
  6
DOT
 10
15.384600
 20
31.864300
 30
1.000000
 11
15.697900
 21
31.355900
 31
1.000000
  0
LINE
  8
1
 62
     7
  6
CONTINUOUS
 10
15.697900
 20
31.355900
 30
1.000000
 11
15.668100
 21
31.315700
 31
1.000000
  0
ARC
  8
1
 62
     7
  6
CONTINUOUS
 10
15.697783
 20
31.355936
 30
1.000000
 40
0.050000
 50
233.583353
 51
286.519836
  0
ARC
  8
1
 62
     7
  6
CONTINUOUS
 10
15.597826
 20
31.683423
 30
1.000000
 40
0.392400
 50
286.915635
 51
312.991582
  0
ARC
  8
1
 62
     7
  6
CONTINUOUS
 10
15.831492
 20
31.433146
 30
1.000000
 40
0.050000
 50
312.699995
 51
420.121685
  0
LINE
  8
1
 62
     7
  6
CONTINUOUS
 10
15.856400
 20
31.476500
 30
1.000000
 11
15.765600
 21
31.528900
 31
1.000000
  0
ARC
  8
1
 62
     7
  6
CONTINUOUS
 10
15.726400
 20
31.460888
 30
1.000000
 40
0.078500
 50
60.042130
 51
179.991361
  0
LINE
  8
1
 62
     7
  6
CONTINUOUS
 10
15.647900
 20
31.460900
 30
1.000000
 11
15.647900
 21
31.355900
 31
1.000000
  0
ARC
  8
1
 62
     7
  6
CONTINUOUS
 10
15.697900
 20
31.355849
 30
1.000000
 40
0.050000
 50
179.941834
 51
233.416084
  0
LINE
  8
1
 62
     7
  6
DOT
 10
15.668100
 20
31.315700
 30
1.000000
 11
15.497900
 21
31.355900
 31
1.000000
  0
LINE
  8
1
 62
     7
  6
CONTINUOUS
 10
15.497900
 20
31.355900
 30
1.000000
 11
15.527600
 21
31.315700
 31
1.000000
  0
ARC
  8
1
 62
     7
  6
CONTINUOUS
 10
15.497900
 20
31.355923
 30
1.000000
 40
0.050000
 50
306.441369
 51
359.973351
  0
LINE
  8
1
 62
     7
  6
CONTINUOUS
 10
15.547900
 20
31.355900
 30
1.000000
 11
15.547900
 21
31.461500
 31
1.000000
  0
ARC
  8
1
 62
     7
  6
CONTINUOUS
 10
15.469402
 20
31.460922
 30
1.000000
 40
0.078500
 50
0.422220
 51
120.297221
  0
LINE
  8
1
 62
     7
  6
CONTINUOUS
 10
15.429800
 20
31.528700
 30
1.000000
 11
15.339700
 21
31.476700
 31
1.000000
  0
ARC
  8
1
 62
     7
  6
CONTINUOUS
 10
15.364173
 20
31.433099
 30
1.000000
 40
0.050000
 50
119.305697
 51
226.884666
  0
ARC
  8
1
 62
     7
  6
CONTINUOUS
 10
15.597798
 20
31.683550
 30
1.000000
 40
0.392500
 50
226.977254
 51
253.100353
  0
ARC
  8
1
 62
     7
  6
CONTINUOUS
 10
15.497917
 20
31.355936
 30
1.000000
 40
0.050000
 50
253.480164
 51
306.416647
  0
LINE
  8
1
 62
     7
  6
DOT
 10
15.527600
 20
31.315700
 30
1.000000
 11
15.931500
 21
31.606300
 31
1.000000
  0
LINE
  8
1
 62
     7
  6
CONTINUOUS
 10
15.931500
 20
31.606300
 30
1.000000
 11
15.951500
 21
31.560500
 31
1.000000
  0
ARC
  8
1
 62
     7
  6
CONTINUOUS
 10
15.931585
 20
31.606363
 30
1.000000
 40
0.050000
 50
293.471932
 51
346.982109
  0
ARC
  8
1
 62
     7
  6
CONTINUOUS
 10
15.597896
 20
31.683550
 30
1.000000
 40
0.392500
 50
346.976521
 51
373.023479
  0
ARC
  8
1
 62
     7
  6
CONTINUOUS
 10
15.931589
 20
31.760721
 30
1.000000
 40
0.050000
 50
13.037480
 51
119.589156
  0
LINE
  8
1
 62
     7
  6
CONTINUOUS
 10
15.906900
 20
31.804200
 30
1.000000
 11
15.815700
 21
31.751600
 31
1.000000
  0
ARC
  8
1
 62
     7
  6
CONTINUOUS
 10
15.854991
 20
31.683525
 30
1.000000
 40
0.078600
 50
119.992235
 51
239.501473
  0
LINE
  8
1
 62
     7
  6
CONTINUOUS
 10
15.815100
 20
31.615800
 30
1.000000
 11
15.906900
 21
31.562800
 31
1.000000
  0
ARC
  8
1
 62
     7
  6
CONTINUOUS
 10
15.931504
 20
31.606328
 30
1.000000
 40
0.050000
 50
240.522618
 51
293.573182
  0
LINE
  8
1
 62
     7
  6
DOT
 10
15.951500
 20
31.560500
 30
1.000000
 11
16.239000
 21
31.683500
 31
1.000000
  0
LINE
  8
1
 62
     7
  6
CONTINUOUS
 10
16.239000
 20
31.683500
 30
1.000000
 11
16.189000
 21
31.683500
 31
1.000000
  0
LINE
  8
1
 62
     7
  6
CONTINUOUS
 10
16.189000
 20
31.683500
 30
1.000000
 11
16.104100
 21
31.683500
 31
1.000000
  0
ARC
  8
1
 62
     7
  6
CONTINUOUS
 10
16.609300
 20
31.651697
 30
1.000000
 40
0.506200
 50
176.397890
 51
179.977004
  0
LINE
  8
1
 62
     7
  6
DOT
 10
16.103100
 20
31.651900
 30
1.000000
 11
14.440100
 21
32.592500
 31
1.000000
  0
LINE
  8
1
 62
     7
  6
CONTINUOUS
 10
14.440100
 20
32.592500
 30
1.000000
 11
14.412400
 21
32.504700
 31
1.000000
  0
LINE
  8
1
 62
     7
  6
CONTINUOUS
 10
14.412400
 20
32.504700
 30
1.000000
 11
14.786700
 21
32.582600
 31
1.000000
  0
ARC
  8
1
 62
     7
  6
CONTINUOUS
 10
14.783359
 20
32.598452
 30
1.000000
 40
0.016200
 50
281.901376
 51
329.378243
  0
ARC
  8
1
 62
     7
  6
CONTINUOUS
 10
14.967182
 20
32.491845
 30
1.000000
 40
0.196300
 50
100.591804
 51
149.930759
  0
LINE
  8
1
 62
     7
  6
CONTINUOUS
 10
14.931100
 20
32.684800
 30
1.000000
 11
14.931100
 21
32.508100
 31
1.000000
  0
ARC
  8
1
 62
     7
  6
CONTINUOUS
 10
14.947400
 20
32.508100
 30
1.000000
 40
0.016300
 50
180.000000
 51
270.000000
  0
LINE
  8
1
 62
     7
  6
CONTINUOUS
 10
14.947400
 20
32.491800
 30
1.000000
 11
14.986900
 21
32.491800
 31
1.000000
  0
ARC
  8
1
 62
     7
  6
CONTINUOUS
 10
14.986800
 20
32.508100
 30
1.000000
 40
0.016300
 50
270.351510
 51
360.001078
  0
LINE
  8
1
 62
     7
  6
CONTINUOUS
 10
15.003100
 20
32.508100
 30
1.000000
 11
15.003100
 21
32.684800
 31
1.000000
  0
ARC
  8
1
 62
     7
  6
CONTINUOUS
 10
14.967064
 20
32.491836
 30
1.000000
 40
0.196300
 50
347.485370
 51
439.421854
  0
ARC
  8
1
 62
     7
  6
CONTINUOUS
 10
15.174457
 20
32.445538
 30
1.000000
 40
0.016200
 50
166.570559
 51
283.722513
  0
LINE
  8
1
 62
     7
  6
CONTINUOUS
 10
15.178300
 20
32.429800
 30
1.000000
 11
15.871200
 21
32.583000
 31
1.000000
  0
ARC
  8
1
 62
     7
  6
CONTINUOUS
 10
15.867514
 20
32.598775
 30
1.000000
 40
0.016200
 50
283.151708
 51
329.692859
  0
ARC
  8
1
 62
     7
  6
CONTINUOUS
 10
16.051146
 20
32.491838
 30
1.000000
 40
0.196300
 50
100.581071
 51
149.793478
  0
LINE
  8
1
 62
     7
  6
CONTINUOUS
 10
16.015100
 20
32.684800
 30
1.000000
 11
16.015100
 21
32.508100
 31
1.000000
  0
ARC
  8
1
 62
     7
  6
CONTINUOUS
 10
16.031400
 20
32.508100
 30
1.000000
 40
0.016300
 50
180.000000
 51
270.000000
  0
LINE
  8
1
 62
     7
  6
CONTINUOUS
 10
16.031400
 20
32.491800
 30
1.000000
 11
16.070900
 21
32.491800
 31
1.000000
  0
ARC
  8
1
 62
     7
  6
CONTINUOUS
 10
16.070800
 20
32.508100
 30
1.000000
 40
0.016300
 50
270.351510
 51
360.001078
  0
LINE
  8
1
 62
     7
  6
CONTINUOUS
 10
16.087100
 20
32.508100
 30
1.000000
 11
16.087100
 21
32.684800
 31
1.000000
  0
ARC
  8
1
 62
     7
  6
CONTINUOUS
 10
15.891684
 20
32.666192
 30
1.000000
 40
0.196300
 50
259.467022
 51
365.439352
  0
ARC
  8
1
 62
     7
  6
CONTINUOUS
 10
15.839563
 20
32.471772
 30
1.000000
 40
0.016300
 50
5.025836
 51
102.265009
  0
LINE
  8
1
 62
     7
  6
CONTINUOUS
 10
15.836100
 20
32.487700
 30
1.000000
 11
14.969100
 21
32.296000
 31
1.000000
  0
ARC
  8
1
 62
     7
  6
CONTINUOUS
 10
14.965480
 20
32.311893
 30
1.000000
 40
0.016300
 50
268.312667
 51
282.831729
  0
ARC
  8
1
 62
     7
  6
CONTINUOUS
 10
14.967036
 20
32.491789
 30
1.000000
 40
0.196200
 50
185.378113
 51
269.405335
  0
ARC
  8
1
 62
     7
  6
CONTINUOUS
 10
14.755548
 20
32.472150
 30
1.000000
 40
0.016200
 50
4.426075
 51
101.928212
  0
LINE
  8
1
 62
     7
  6
CONTINUOUS
 10
14.752200
 20
32.488000
 30
1.000000
 11
13.829800
 21
32.295900
 31
1.000000
  0
ARC
  8
1
 62
     7
  6
CONTINUOUS
 10
13.826682
 20
32.311899
 30
1.000000
 40
0.016300
 50
269.360557
 51
281.028301
  0
ARC
  8
1
 62
     7
  6
CONTINUOUS
 10
13.828073
 20
32.491794
 30
1.000000
 40
0.196200
 50
185.262046
 51
269.540593
  0
ARC
  8
1
 62
     7
  6
CONTINUOUS
 10
13.616474
 20
32.472253
 30
1.000000
 40
0.016300
 50
5.446258
 51
101.944747
  0
LINE
  8
1
 62
     7
  6
CONTINUOUS
 10
13.613100
 20
32.488200
 30
1.000000
 11
12.627700
 21
32.295900
 31
1.000000
  0
ARC
  8
1
 62
     7
  6
CONTINUOUS
 10
12.624582
 20
32.311899
 30
1.000000
 40
0.016300
 50
269.360557
 51
281.028301
  0
ARC
  8
1
 62
     7
  6
CONTINUOUS
 10
12.626422
 20
32.491890
 30
1.000000
 40
0.196300
 50
100.662964
 51
269.409908
  0
LINE
  8
1
 62
     7
  6
CONTINUOUS
 10
12.590100
 20
32.684800
 30
1.000000
 11
12.590100
 21
32.508100
 31
1.000000
  0
ARC
  8
1
 62
     7
  6
CONTINUOUS
 10
12.606400
 20
32.508100
 30
1.000000
 40
0.016300
 50
180.000000
 51
270.000000
  0
LINE
  8
1
 62
     7
  6
CONTINUOUS
 10
12.606400
 20
32.491800
 30
1.000000
 11
12.646100
 21
32.491800
 31
1.000000
  0
ARC
  8
1
 62
     7
  6
CONTINUOUS
 10
12.645800
 20
32.508097
 30
1.000000
 40
0.016300
 50
271.054582
 51
360.009705
  0
LINE
  8
1
 62
     7
  6
CONTINUOUS
 10
12.662100
 20
32.508100
 30
1.000000
 11
12.662100
 21
32.684800
 31
1.000000
  0
ARC
  8
1
 62
     7
  6
CONTINUOUS
 10
12.626073
 20
32.491834
 30
1.000000
 40
0.196300
 50
338.094676
 51
439.424407
  0
LINE
  8
1
 62
     7
  6
CONTINUOUS
 10
12.808200
 20
32.418600
 30
1.000000
 11
13.647100
 21
32.582300
 31
1.000000
  0
ARC
  8
1
 62
     7
  6
CONTINUOUS
 10
13.644175
 20
32.598335
 30
1.000000
 40
0.016300
 50
280.336113
 51
330.058893
  0
ARC
  8
1
 62
     7
  6
CONTINUOUS
 10
13.828182
 20
32.491845
 30
1.000000
 40
0.196300
 50
100.591804
 51
149.930759
  0
LINE
  8
1
 62
     7
  6
CONTINUOUS
 10
13.792100
 20
32.684800
 30
1.000000
 11
13.792100
 21
32.508100
 31
1.000000
  0
ARC
  8
1
 62
     7
  6
CONTINUOUS
 10
13.808400
 20
32.508100
 30
1.000000
 40
0.016300
 50
180.000000
 51
270.000000
  0
LINE
  8
1
 62
     7
  6
CONTINUOUS
 10
13.808400
 20
32.491800
 30
1.000000
 11
13.847900
 21
32.491800
 31
1.000000
  0
ARC
  8
1
 62
     7
  6
CONTINUOUS
 10
13.847800
 20
32.508100
 30
1.000000
 40
0.016300
 50
270.351510
 51
360.001078
  0
LINE
  8
1
 62
     7
  6
CONTINUOUS
 10
13.864100
 20
32.508100
 30
1.000000
 11
13.864100
 21
32.684800
 31
1.000000
  0
ARC
  8
1
 62
     7
  6
CONTINUOUS
 10
13.828105
 20
32.491828
 30
1.000000
 40
0.196300
 50
346.649134
 51
439.434089
  0
ARC
  8
1
 62
     7
  6
CONTINUOUS
 10
14.034844
 20
32.442682
 30
1.000000
 40
0.016200
 50
166.368307
 51
283.044049
  0
LINE
  8
1
 62
     7
  6
CONTINUOUS
 10
14.038500
 20
32.426900
 30
1.000000
 11
14.382600
 21
32.498500
 31
1.000000
  0
LINE
  8
1
 62
     7
  6
DOT
 10
14.382600
 20
32.498500
 30
1.000000
 11
14.474800
 21
31.028900
 31
1.000000
  0
LINE
  8
1
 62
     7
  6
CONTINUOUS
 10
14.474800
 20
31.028900
 30
1.000000
 11
14.447100
 21
30.941100
 31
1.000000
  0
LINE
  8
1
 62
     7
  6
CONTINUOUS
 10
14.447100
 20
30.941100
 30
1.000000
 11
14.821400
 21
31.019000
 31
1.000000
  0
ARC
  8
1
 62
     7
  6
CONTINUOUS
 10
14.818059
 20
31.034852
 30
1.000000
 40
0.016200
 50
281.901376
 51
329.378243
  0
ARC
  8
1
 62
     7
  6
CONTINUOUS
 10
15.001882
 20
30.928245
 30
1.000000
 40
0.196300
 50
100.591804
 51
149.930759
  0
LINE
  8
1
 62
     7
  6
CONTINUOUS
 10
14.965800
 20
31.121200
 30
1.000000
 11
14.965800
 21
30.944500
 31
1.000000
  0
ARC
  8
1
 62
     7
  6
CONTINUOUS
 10
14.982100
 20
30.944500
 30
1.000000
 40
0.016300
 50
180.000000
 51
270.000000
  0
LINE
  8
1
 62
     7
  6
CONTINUOUS
 10
14.982100
 20
30.928200
 30
1.000000
 11
15.021600
 21
30.928200
 31
1.000000
  0
ARC
  8
1
 62
     7
  6
CONTINUOUS
 10
15.021500
 20
30.944500
 30
1.000000
 40
0.016300
 50
270.351510
 51
360.001078
  0
LINE
  8
1
 62
     7
  6
CONTINUOUS
 10
15.037800
 20
30.944500
 30
1.000000
 11
15.037800
 21
31.121200
 31
1.000000
  0
ARC
  8
1
 62
     7
  6
CONTINUOUS
 10
15.001764
 20
30.928236
 30
1.000000
 40
0.196300
 50
347.485370
 51
439.421854
  0
ARC
  8
1
 62
     7
  6
CONTINUOUS
 10
15.209157
 20
30.881938
 30
1.000000
 40
0.016200
 50
166.570559
 51
283.722513
  0
LINE
  8
1
 62
     7
  6
CONTINUOUS
 10
15.213000
 20
30.866200
 30
1.000000
 11
15.905900
 21
31.019400
 31
1.000000
  0
ARC
  8
1
 62
     7
  6
CONTINUOUS
 10
15.902214
 20
31.035175
 30
1.000000
 40
0.016200
 50
283.151708
 51
329.692859
  0
ARC
  8
1
 62
     7
  6
CONTINUOUS
 10
16.085846
 20
30.928238
 30
1.000000
 40
0.196300
 50
100.581071
 51
149.793478
  0
LINE
  8
1
 62
     7
  6
CONTINUOUS
 10
16.049800
 20
31.121200
 30
1.000000
 11
16.049800
 21
30.944500
 31
1.000000
  0
ARC
  8
1
 62
     7
  6
CONTINUOUS
 10
16.066100
 20
30.944500
 30
1.000000
 40
0.016300
 50
180.000000
 51
270.000000
  0
LINE
  8
1
 62
     7
  6
CONTINUOUS
 10
16.066100
 20
30.928200
 30
1.000000
 11
16.105600
 21
30.928200
 31
1.000000
  0
ARC
  8
1
 62
     7
  6
CONTINUOUS
 10
16.105500
 20
30.944500
 30
1.000000
 40
0.016300
 50
270.351510
 51
360.001078
  0
LINE
  8
1
 62
     7
  6
CONTINUOUS
 10
16.121800
 20
30.944500
 30
1.000000
 11
16.121800
 21
31.121200
 31
1.000000
  0
ARC
  8
1
 62
     7
  6
CONTINUOUS
 10
15.926384
 20
31.102592
 30
1.000000
 40
0.196300
 50
259.467022
 51
365.439352
  0
ARC
  8
1
 62
     7
  6
CONTINUOUS
 10
15.874263
 20
30.908172
 30
1.000000
 40
0.016300
 50
5.025836
 51
102.265009
  0
LINE
  8
1
 62
     7
  6
CONTINUOUS
 10
15.870800
 20
30.924100
 30
1.000000
 11
15.003800
 21
30.732400
 31
1.000000
  0
ARC
  8
1
 62
     7
  6
CONTINUOUS
 10
15.000180
 20
30.748293
 30
1.000000
 40
0.016300
 50
268.312667
 51
282.831729
  0
ARC
  8
1
 62
     7
  6
CONTINUOUS
 10
15.001736
 20
30.928189
 30
1.000000
 40
0.196200
 50
185.378113
 51
269.405335
  0
ARC
  8
1
 62
     7
  6
CONTINUOUS
 10
14.790248
 20
30.908550
 30
1.000000
 40
0.016200
 50
4.426075
 51
101.928212
  0
LINE
  8
1
 62
     7
  6
CONTINUOUS
 10
14.786900
 20
30.924400
 30
1.000000
 11
13.864500
 21
30.732300
 31
1.000000
  0
ARC
  8
1
 62
     7
  6
CONTINUOUS
 10
13.861382
 20
30.748299
 30
1.000000
 40
0.016300
 50
269.360557
 51
281.028301
  0
ARC
  8
1
 62
     7
  6
CONTINUOUS
 10
13.862773
 20
30.928194
 30
1.000000
 40
0.196200
 50
185.262046
 51
269.540593
  0
ARC
  8
1
 62
     7
  6
CONTINUOUS
 10
13.651174
 20
30.908653
 30
1.000000
 40
0.016300
 50
5.446258
 51
101.944747
  0
LINE
  8
1
 62
     7
  6
CONTINUOUS
 10
13.647800
 20
30.924600
 30
1.000000
 11
12.662400
 21
30.732300
 31
1.000000
  0
ARC
  8
1
 62
     7
  6
CONTINUOUS
 10
12.659282
 20
30.748299
 30
1.000000
 40
0.016300
 50
269.360557
 51
281.028301
  0
ARC
  8
1
 62
     7
  6
CONTINUOUS
 10
12.661122
 20
30.928290
 30
1.000000
 40
0.196300
 50
100.662964
 51
269.409908
  0
LINE
  8
1
 62
     7
  6
CONTINUOUS
 10
12.624800
 20
31.121200
 30
1.000000
 11
12.624800
 21
30.944500
 31
1.000000
  0
ARC
  8
1
 62
     7
  6
CONTINUOUS
 10
12.641100
 20
30.944500
 30
1.000000
 40
0.016300
 50
180.000000
 51
270.000000
  0
LINE
  8
1
 62
     7
  6
CONTINUOUS
 10
12.641100
 20
30.928200
 30
1.000000
 11
12.680800
 21
30.928200
 31
1.000000
  0
ARC
  8
1
 62
     7
  6
CONTINUOUS
 10
12.680500
 20
30.944497
 30
1.000000
 40
0.016300
 50
271.054582
 51
360.009705
  0
LINE
  8
1
 62
     7
  6
CONTINUOUS
 10
12.696800
 20
30.944500
 30
1.000000
 11
12.696800
 21
31.121200
 31
1.000000
  0
ARC
  8
1
 62
     7
  6
CONTINUOUS
 10
12.660773
 20
30.928234
 30
1.000000
 40
0.196300
 50
338.094676
 51
439.424407
  0
LINE
  8
1
 62
     7
  6
CONTINUOUS
 10
12.842900
 20
30.855000
 30
1.000000
 11
13.681800
 21
31.018700
 31
1.000000
  0
ARC
  8
1
 62
     7
  6
CONTINUOUS
 10
13.678875
 20
31.034735
 30
1.000000
 40
0.016300
 50
280.336113
 51
330.058893
  0
ARC
  8
1
 62
     7
  6
CONTINUOUS
 10
13.862882
 20
30.928245
 30
1.000000
 40
0.196300
 50
100.591804
 51
149.930759
  0
LINE
  8
1
 62
     7
  6
CONTINUOUS
 10
13.826800
 20
31.121200
 30
1.000000
 11
13.826800
 21
30.944500
 31
1.000000
  0
ARC
  8
1
 62
     7
  6
CONTINUOUS
 10
13.843100
 20
30.944500
 30
1.000000
 40
0.016300
 50
180.000000
 51
270.000000
  0
LINE
  8
1
 62
     7
  6
CONTINUOUS
 10
13.843100
 20
30.928200
 30
1.000000
 11
13.882600
 21
30.928200
 31
1.000000
  0
ARC
  8
1
 62
     7
  6
CONTINUOUS
 10
13.882500
 20
30.944500
 30
1.000000
 40
0.016300
 50
270.351510
 51
360.001078
  0
LINE
  8
1
 62
     7
  6
CONTINUOUS
 10
13.898800
 20
30.944500
 30
1.000000
 11
13.898800
 21
31.121200
 31
1.000000
  0
ARC
  8
1
 62
     7
  6
CONTINUOUS
 10
13.862805
 20
30.928228
 30
1.000000
 40
0.196300
 50
346.649134
 51
439.434089
  0
ARC
  8
1
 62
     7
  6
CONTINUOUS
 10
14.069544
 20
30.879082
 30
1.000000
 40
0.016200
 50
166.368307
 51
283.044049
  0
LINE
  8
1
 62
     7
  6
CONTINUOUS
 10
14.073200
 20
30.863300
 30
1.000000
 11
14.417300
 21
30.934900
 31
1.000000
  0
LINE
  8
1
 62
     7
  6
DOT
 10
14.417300
 20
30.934900
 30
1.000000
 11
9.980700
 21
30.252000
 31
1.000000
  0
LINE
  8
1
 62
     7
  6
CONTINUOUS
 10
9.980700
 20
30.252000
 30
1.000000
 11
9.899800
 21
30.252000
 31
1.000000
  0
ARC
  8
1
 62
     7
  6
CONTINUOUS
 10
9.904321
 20
30.304305
 30
1.000000
 40
0.052500
 50
90.787163
 51
265.059619
  0
LINE
  8
1
 62
     7
  6
CONTINUOUS
 10
9.903600
 20
30.356800
 30
1.000000
 11
9.980700
 21
30.357000
 31
1.000000
  0
LINE
  8
1
 62
     7
  6
CONTINUOUS
 10
9.980700
 20
30.357000
 30
1.000000
 11
9.980700
 21
30.399500
 31
1.000000
  0
ARC
  8
1
 62
     7
  6
CONTINUOUS
 10
10.043200
 20
30.399500
 30
1.000000
 40
0.062500
 50
90.000000
 51
180.000000
  0
LINE
  8
1
 62
     7
  6
CONTINUOUS
 10
10.043200
 20
30.462000
 30
1.000000
 11
10.423200
 21
30.462000
 31
1.000000
  0
ARC
  8
1
 62
     7
  6
CONTINUOUS
 10
10.423200
 20
30.399500
 30
1.000000
 40
0.062500
 50
0.000000
 51
90.000000
  0
LINE
  8
1
 62
     7
  6
CONTINUOUS
 10
10.485700
 20
30.399500
 30
1.000000
 11
10.485700
 21
30.357000
 31
1.000000
  0
LINE
  8
1
 62
     7
  6
CONTINUOUS
 10
10.485700
 20
30.357000
 30
1.000000
 11
10.557500
 21
30.356900
 31
1.000000
  0
ARC
  8
1
 62
     7
  6
CONTINUOUS
 10
10.554494
 20
30.304486
 30
1.000000
 40
0.052500
 50
271.316530
 51
446.717364
  0
LINE
  8
1
 62
     7
  6
CONTINUOUS
 10
10.555700
 20
30.252000
 30
1.000000
 11
10.485700
 21
30.252000
 31
1.000000
  0
LINE
  8
1
 62
     7
  6
CONTINUOUS
 10
10.485700
 20
30.252000
 30
1.000000
 11
10.485700
 21
29.504500
 31
1.000000
  0
ARC
  8
1
 62
     7
  6
CONTINUOUS
 10
10.548200
 20
29.504500
 30
1.000000
 40
0.062500
 50
180.000000
 51
270.000000
  0
LINE
  8
1
 62
     7
  6
CONTINUOUS
 10
10.548200
 20
29.442000
 30
1.000000
 11
10.576100
 21
29.442000
 31
1.000000
  0
ARC
  8
1
 62
     7
  6
CONTINUOUS
 10
10.576066
 20
29.410800
 30
1.000000
 40
0.031200
 50
20.448076
 51
89.937448
  0
ARC
  8
1
 62
     7
  6
CONTINUOUS
 10
10.546876
 20
29.399500
 30
1.000000
 40
0.062500
 50
270.022363
 51
380.805707
  0
LINE
  8
1
 62
     7
  6
CONTINUOUS
 10
10.546900
 20
29.337000
 30
1.000000
 11
10.269200
 21
29.337000
 31
1.000000
  0
LINE
  8
1
 62
     7
  6
CONTINUOUS
 10
10.269200
 20
29.337000
 30
1.000000
 11
10.269200
 21
29.922000
 31
1.000000
  0
LINE
  8
1
 62
     7
  6
CONTINUOUS
 10
10.269200
 20
29.922000
 30
1.000000
 11
10.197200
 21
29.922000
 31
1.000000
  0
LINE
  8
1
 62
     7
  6
CONTINUOUS
 10
10.197200
 20
29.922000
 30
1.000000
 11
10.197200
 21
29.337000
 31
1.000000
  0
LINE
  8
1
 62
     7
  6
CONTINUOUS
 10
10.197200
 20
29.337000
 30
1.000000
 11
9.919400
 21
29.337000
 31
1.000000
  0
ARC
  8
1
 62
     7
  6
CONTINUOUS
 10
9.919397
 20
29.399500
 30
1.000000
 40
0.062500
 50
179.449952
 51
270.002640
  0
LINE
  8
1
 62
     7
  6
CONTINUOUS
 10
9.856900
 20
29.400100
 30
1.000000
 11
9.856900
 21
29.410800
 31
1.000000
  0
ARC
  8
1
 62
     7
  6
CONTINUOUS
 10
9.888200
 20
29.410700
 30
1.000000
 40
0.031300
 50
89.999708
 51
179.816946
  0
LINE
  8
1
 62
     7
  6
CONTINUOUS
 10
9.888200
 20
29.442000
 30
1.000000
 11
9.918200
 21
29.442000
 31
1.000000
  0
ARC
  8
1
 62
     7
  6
CONTINUOUS
 10
9.918200
 20
29.504500
 30
1.000000
 40
0.062500
 50
270.000000
 51
360.000000
  0
LINE
  8
1
 62
     7
  6
CONTINUOUS
 10
9.980700
 20
29.504500
 30
1.000000
 11
9.980700
 21
30.211800
 31
1.000000
  0
LINE
  8
1
 62
     7
  6
DOT
 10
9.980700
 20
30.211800
 30
1.000000
 11
12.170100
 21
29.669000
 31
1.000000
  0
LINE
  8
1
 62
     7
  6
CONTINUOUS
 10
12.170100
 20
29.669000
 30
1.000000
 11
12.170100
 21
29.619000
 31
1.000000
  0
LINE
  8
1
 62
     7
  6
CONTINUOUS
 10
12.170100
 20
29.619000
 30
1.000000
 11
12.221400
 21
29.619000
 31
1.000000
  0
LINE
  8
1
 62
     7
  6
CONTINUOUS
 10
12.221400
 20
29.619000
 30
1.000000
 11
12.221400
 21
29.980800
 31
1.000000
  0
ARC
  8
1
 62
     7
  6
CONTINUOUS
 10
11.769724
 20
29.866150
 30
1.000000
 40
0.466000
 50
14.242770
 51
53.822267
  0
ARC
  8
1
 62
     7
  6
CONTINUOUS
 10
12.063215
 20
30.267610
 30
1.000000
 40
0.031300
 50
169.897783
 51
233.961392
  0
ARC
  8
1
 62
     7
  6
CONTINUOUS
 10
12.001535
 20
30.278300
 30
1.000000
 40
0.031300
 50
350.436747
 51
449.880983
  0
LINE
  8
1
 62
     7
  6
CONTINUOUS
 10
12.001600
 20
30.309600
 30
1.000000
 11
11.943900
 21
30.309600
 31
1.000000
  0
ARC
  8
1
 62
     7
  6
CONTINUOUS
 10
11.944000
 20
30.278300
 30
1.000000
 40
0.031300
 50
90.182762
 51
179.817238
  0
LINE
  8
1
 62
     7
  6
CONTINUOUS
 10
11.912700
 20
30.278400
 30
1.000000
 11
11.912600
 21
30.204000
 31
1.000000
  0
ARC
  8
1
 62
     7
  6
CONTINUOUS
 10
11.778829
 20
29.866009
 30
1.000000
 40
0.363500
 50
20.683570
 51
68.407211
  0
LINE
  8
1
 62
     7
  6
CONTINUOUS
 10
12.118900
 20
29.994400
 30
1.000000
 11
12.118900
 21
29.619000
 31
1.000000
  0
LINE
  8
1
 62
     7
  6
CONTINUOUS
 10
12.118900
 20
29.619000
 30
1.000000
 11
12.170100
 21
29.619000
 31
1.000000
  0
LINE
  8
1
 62
     7
  6
DOT
 10
12.170100
 20
29.619000
 30
1.000000
 11
11.304700
 21
29.287000
 31
1.000000
  0
LINE
  8
1
 62
     7
  6
CONTINUOUS
 10
11.304700
 20
29.287000
 30
1.000000
 11
11.304700
 21
29.337000
 31
1.000000
  0
LINE
  8
1
 62
     7
  6
CONTINUOUS
 10
11.304700
 20
29.337000
 30
1.000000
 11
10.767800
 21
29.337000
 31
1.000000
  0
ARC
  8
1
 62
     7
  6
CONTINUOUS
 10
10.767900
 20
29.368300
 30
1.000000
 40
0.031300
 50
179.999708
 51
269.816946
  0
LINE
  8
1
 62
     7
  6
CONTINUOUS
 10
10.736600
 20
29.368300
 30
1.000000
 11
10.736600
 21
29.524500
 31
1.000000
  0
LINE
  8
1
 62
     7
  6
CONTINUOUS
 10
10.736600
 20
29.524500
 30
1.000000
 11
10.736600
 21
29.535800
 31
1.000000
  0
ARC
  8
1
 62
     7
  6
CONTINUOUS
 10
10.767800
 20
29.535800
 30
1.000000
 40
0.031200
 50
90.000000
 51
180.000000
  0
LINE
  8
1
 62
     7
  6
CONTINUOUS
 10
10.767800
 20
29.567000
 30
1.000000
 11
10.797800
 21
29.567000
 31
1.000000
  0
ARC
  8
1
 62
     7
  6
CONTINUOUS
 10
10.797800
 20
29.629500
 30
1.000000
 40
0.062500
 50
270.000000
 51
360.000000
  0
LINE
  8
1
 62
     7
  6
CONTINUOUS
 10
10.860300
 20
29.629500
 30
1.000000
 11
10.860300
 21
30.345800
 31
1.000000
  0
ARC
  8
1
 62
     7
  6
CONTINUOUS
 10
10.829100
 20
30.345800
 30
1.000000
 40
0.031200
 50
360.000000
 51
450.000000
  0
LINE
  8
1
 62
     7
  6
CONTINUOUS
 10
10.829100
 20
30.377000
 30
1.000000
 11
10.779400
 21
30.377000
 31
1.000000
  0
ARC
  8
1
 62
     7
  6
CONTINUOUS
 10
10.783921
 20
30.429305
 30
1.000000
 40
0.052500
 50
90.787163
 51
265.059619
  0
LINE
  8
1
 62
     7
  6
CONTINUOUS
 10
10.783200
 20
30.481800
 30
1.000000
 11
10.829100
 21
30.482000
 31
1.000000
  0
ARC
  8
1
 62
     7
  6
CONTINUOUS
 10
10.829000
 20
30.513300
 30
1.000000
 40
0.031300
 50
270.183054
 51
360.000292
  0
LINE
  8
1
 62
     7
  6
CONTINUOUS
 10
10.860300
 20
30.513300
 30
1.000000
 11
10.860300
 21
30.524500
 31
1.000000
  0
ARC
  8
1
 62
     7
  6
CONTINUOUS
 10
10.922800
 20
30.524500
 30
1.000000
 40
0.062500
 50
90.000000
 51
180.000000
  0
LINE
  8
1
 62
     7
  6
CONTINUOUS
 10
10.922800
 20
30.587000
 30
1.000000
 11
11.076800
 21
30.587000
 31
1.000000
  0
LINE
  8
1
 62
     7
  6
CONTINUOUS
 10
11.076800
 20
30.587000
 30
1.000000
 11
11.076800
 21
30.054500
 31
1.000000
  0
LINE
  8
1
 62
     7
  6
CONTINUOUS
 10
11.076800
 20
30.054500
 30
1.000000
 11
11.148800
 21
30.054500
 31
1.000000
  0
LINE
  8
1
 62
     7
  6
CONTINUOUS
 10
11.148800
 20
30.054500
 30
1.000000
 11
11.148800
 21
30.587000
 31
1.000000
  0
LINE
  8
1
 62
     7
  6
CONTINUOUS
 10
11.148800
 20
30.587000
 30
1.000000
 11
11.302800
 21
30.587000
 31
1.000000
  0
ARC
  8
1
 62
     7
  6
CONTINUOUS
 10
11.302800
 20
30.524500
 30
1.000000
 40
0.062500
 50
360.000000
 51
450.000000
  0
LINE
  8
1
 62
     7
  6
CONTINUOUS
 10
11.365300
 20
30.524500
 30
1.000000
 11
11.365300
 21
30.513300
 31
1.000000
  0
ARC
  8
1
 62
     7
  6
CONTINUOUS
 10
11.396600
 20
30.513300
 30
1.000000
 40
0.031300
 50
180.000000
 51
270.000000
  0
LINE
  8
1
 62
     7
  6
CONTINUOUS
 10
11.396600
 20
30.482000
 30
1.000000
 11
11.437100
 21
30.481900
 31
1.000000
  0
ARC
  8
1
 62
     7
  6
CONTINUOUS
 10
11.434123
 20
30.429484
 30
1.000000
 40
0.052500
 50
271.393708
 51
446.749394
  0
LINE
  8
1
 62
     7
  6
CONTINUOUS
 10
11.435400
 20
30.377000
 30
1.000000
 11
11.396600
 21
30.377000
 31
1.000000
  0
ARC
  8
1
 62
     7
  6
CONTINUOUS
 10
11.396600
 20
30.345700
 30
1.000000
 40
0.031300
 50
89.999708
 51
179.816946
  0
LINE
  8
1
 62
     7
  6
CONTINUOUS
 10
11.365300
 20
30.345800
 30
1.000000
 11
11.365300
 21
29.650300
 31
1.000000
  0
ARC
  8
1
 62
     7
  6
CONTINUOUS
 10
11.396600
 20
29.650300
 30
1.000000
 40
0.031300
 50
180.000000
 51
270.000000
  0
LINE
  8
1
 62
     7
  6
CONTINUOUS
 10
11.396600
 20
29.619000
 30
1.000000
 11
11.594100
 21
29.619000
 31
1.000000
  0
ARC
  8
1
 62
     7
  6
CONTINUOUS
 10
11.594000
 20
29.650300
 30
1.000000
 40
0.031300
 50
270.183054
 51
360.000292
  0
LINE
  8
1
 62
     7
  6
CONTINUOUS
 10
11.625300
 20
29.650300
 30
1.000000
 11
11.625200
 21
29.966500
 31
1.000000
  0
ARC
  8
1
 62
     7
  6
CONTINUOUS
 10
11.974554
 20
29.866082
 30
1.000000
 40
0.363500
 50
111.623929
 51
163.963322
  0
LINE
  8
1
 62
     7
  6
CONTINUOUS
 10
11.840600
 20
30.204000
 30
1.000000
 11
11.840800
 21
30.432800
 31
1.000000
  0
ARC
  8
1
 62
     7
  6
CONTINUOUS
 10
11.872000
 20
30.432800
 30
1.000000
 40
0.031200
 50
90.000000
 51
180.000000
  0
LINE
  8
1
 62
     7
  6
CONTINUOUS
 10
11.872000
 20
30.464000
 30
1.000000
 11
11.883300
 21
30.464000
 31
1.000000
  0
ARC
  8
1
 62
     7
  6
CONTINUOUS
 10
11.883340
 20
30.432800
 30
1.000000
 40
0.031200
 50
14.098459
 51
90.073068
  0
ARC
  8
1
 62
     7
  6
CONTINUOUS
 10
11.943981
 20
30.447500
 30
1.000000
 40
0.031200
 50
193.153692
 51
270.034139
  0
LINE
  8
1
 62
     7
  6
CONTINUOUS
 10
11.944000
 20
30.416300
 30
1.000000
 11
12.079200
 21
30.416300
 31
1.000000
  0
ARC
  8
1
 62
     7
  6
CONTINUOUS
 10
12.079200
 20
30.385000
 30
1.000000
 40
0.031300
 50
0.000000
 51
90.000000
  0
LINE
  8
1
 62
     7
  6
CONTINUOUS
 10
12.110500
 20
30.385000
 30
1.000000
 11
12.110500
 21
30.336500
 31
1.000000
  0
ARC
  8
1
 62
     7
  6
CONTINUOUS
 10
12.141700
 20
30.336435
 30
1.000000
 40
0.031200
 50
179.881136
 51
231.552833
  0
ARC
  8
1
 62
     7
  6
CONTINUOUS
 10
11.769738
 20
29.866026
 30
1.000000
 40
0.568500
 50
12.895434
 51
51.672066
  0
LINE
  8
1
 62
     7
  6
CONTINUOUS
 10
12.323900
 20
29.992900
 30
1.000000
 11
12.323900
 21
29.514000
 31
1.000000
  0
LINE
  8
1
 62
     7
  6
CONTINUOUS
 10
12.323900
 20
29.514000
 30
1.000000
 11
11.912400
 21
29.514000
 31
1.000000
  0
LINE
  8
1
 62
     7
  6
CONTINUOUS
 10
11.912400
 20
29.514000
 30
1.000000
 11
11.912400
 21
29.896500
 31
1.000000
  0
LINE
  8
1
 62
     7
  6
CONTINUOUS
 10
11.912400
 20
29.896500
 30
1.000000
 11
11.840400
 21
29.896500
 31
1.000000
  0
LINE
  8
1
 62
     7
  6
CONTINUOUS
 10
11.840400
 20
29.896500
 30
1.000000
 11
11.840400
 21
29.514000
 31
1.000000
  0
LINE
  8
1
 62
     7
  6
CONTINUOUS
 10
11.840400
 20
29.514000
 30
1.000000
 11
11.246600
 21
29.514000
 31
1.000000
  0
LINE
  8
1
 62
     7
  6
CONTINUOUS
 10
11.246600
 20
29.514000
 30
1.000000
 11
11.246600
 21
29.442000
 31
1.000000
  0
LINE
  8
1
 62
     7
  6
CONTINUOUS
 10
11.246600
 20
29.442000
 30
1.000000
 11
11.841600
 21
29.442000
 31
1.000000
  0
LINE
  8
1
 62
     7
  6
CONTINUOUS
 10
11.841600
 20
29.442000
 30
1.000000
 11
11.841600
 21
29.337000
 31
1.000000
  0
LINE
  8
1
 62
     7
  6
CONTINUOUS
 10
11.841600
 20
29.337000
 30
1.000000
 11
11.334700
 21
29.337000
 31
1.000000
  0
LINE
  8
1
 62
     7
  6
DOT
 10
11.334700
 20
29.337000
 30
1.000000
 11
9.776500
 21
28.089100
 31
1.000000
  0
LINE
  8
1
 62
     7
  6
CONTINUOUS
 10
9.776500
 20
28.089100
 30
1.000000
 11
9.826500
 21
28.089100
 31
1.000000
  0
LINE
  8
1
 62
     7
  6
CONTINUOUS
 10
9.826500
 20
28.089100
 30
1.000000
 11
11.371500
 21
28.089100
 31
1.000000
  0
ARC
  8
1
 62
     7
  6
CONTINUOUS
 10
11.371500
 20
28.064100
 30
1.000000
 40
0.025000
 50
0.000000
 51
90.000000
  0
LINE
  8
1
 62
     7
  6
CONTINUOUS
 10
11.396500
 20
28.064100
 30
1.000000
 11
11.396500
 21
27.986100
 31
1.000000
  0
LINE
  8
1
 62
     7
  6
CONTINUOUS
 10
11.396500
 20
27.986100
 30
1.000000
 11
10.613500
 21
27.986100
 31
1.000000
  0
LINE
  8
1
 62
     7
  6
CONTINUOUS
 10
10.613500
 20
27.986100
 30
1.000000
 11
10.613500
 21
27.914100
 31
1.000000
  0
LINE
  8
1
 62
     7
  6
CONTINUOUS
 10
10.613500
 20
27.914100
 30
1.000000
 11
11.396500
 21
27.914100
 31
1.000000
  0
LINE
  8
1
 62
     7
  6
CONTINUOUS
 10
11.396500
 20
27.914100
 30
1.000000
 11
11.396500
 21
27.699100
 31
1.000000
  0
ARC
  8
1
 62
     7
  6
CONTINUOUS
 10
11.352847
 20
27.443602
 30
1.000000
 40
0.259200
 50
281.269393
 51
440.304259
  0
LINE
  8
1
 62
     7
  6
CONTINUOUS
 10
11.403500
 20
27.189400
 30
1.000000
 11
11.403500
 21
26.999300
 31
1.000000
  0
LINE
  8
1
 62
     7
  6
DOT
 10
11.403500
 20
26.999300
 30
1.000000
 11
11.453500
 21
26.979100
 31
1.000000
  0
LINE
  8
1
 62
     7
  6
CONTINUOUS
 10
11.453500
 20
26.979100
 30
1.000000
 11
11.403500
 21
26.979100
 31
1.000000
  0
LINE
  8
1
 62
     7
  6
CONTINUOUS
 10
11.403500
 20
26.979100
 30
1.000000
 11
10.620500
 21
26.979100
 31
1.000000
  0
LINE
  8
1
 62
     7
  6
CONTINUOUS
 10
10.620500
 20
26.979100
 30
1.000000
 11
10.620500
 21
26.907100
 31
1.000000
  0
LINE
  8
1
 62
     7
  6
CONTINUOUS
 10
10.620500
 20
26.907100
 30
1.000000
 11
11.403500
 21
26.907100
 31
1.000000
  0
LINE
  8
1
 62
     7
  6
CONTINUOUS
 10
11.403500
 20
26.907100
 30
1.000000
 11
11.403500
 21
26.829100
 31
1.000000
  0
ARC
  8
1
 62
     7
  6
CONTINUOUS
 10
11.378500
 20
26.829100
 30
1.000000
 40
0.025000
 50
270.000000
 51
360.000000
  0
LINE
  8
1
 62
     7
  6
CONTINUOUS
 10
11.378500
 20
26.804100
 30
1.000000
 11
9.826500
 21
26.804100
 31
1.000000
  0
LINE
  8
1
 62
     7
  6
CONTINUOUS
 10
9.826500
 20
26.804100
 30
1.000000
 11
9.826500
 21
28.069000
 31
1.000000
  0
LINE
  8
1
 62
     7
  6
DOT
 10
9.826500
 20
28.069000
 30
1.000000
 11
13.009600
 21
27.223100
 31
1.000000
  0
LINE
  8
1
 62
     7
  6
CONTINUOUS
 10
13.009600
 20
27.223100
 30
1.000000
 11
13.009600
 21
27.173100
 31
1.000000
  0
LINE
  8
1
 62
     7
  6
CONTINUOUS
 10
13.009600
 20
27.173100
 30
1.000000
 11
13.031900
 21
27.173100
 31
1.000000
  0
ARC
  8
1
 62
     7
  6
CONTINUOUS
 10
13.031903
 20
27.220600
 30
1.000000
 40
0.047500
 50
269.996826
 51
359.396875
  0
LINE
  8
1
 62
     7
  6
CONTINUOUS
 10
13.079400
 20
27.220100
 30
1.000000
 11
13.079400
 21
27.300200
 31
1.000000
  0
ARC
  8
1
 62
     7
  6
CONTINUOUS
 10
13.031901
 20
27.299841
 30
1.000000
 40
0.047500
 50
0.433576
 51
118.962636
  0
LINE
  8
1
 62
     7
  6
CONTINUOUS
 10
13.008900
 20
27.341400
 30
1.000000
 11
12.948700
 21
27.308400
 31
1.000000
  0
ARC
  8
1
 62
     7
  6
CONTINUOUS
 10
12.971856
 20
27.266927
 30
1.000000
 40
0.047500
 50
119.176066
 51
199.206845
  0
LINE
  8
1
 62
     7
  6
CONTINUOUS
 10
12.927000
 20
27.251300
 30
1.000000
 11
12.942500
 21
27.205000
 31
1.000000
  0
ARC
  8
1
 62
     7
  6
CONTINUOUS
 10
12.987365
 20
27.220600
 30
1.000000
 40
0.047500
 50
199.172952
 51
270.041920
  0
LINE
  8
1
 62
     7
  6
CONTINUOUS
 10
12.987400
 20
27.173100
 30
1.000000
 11
13.009600
 21
27.173100
 31
1.000000
  0
LINE
  8
1
 62
     7
  6
DOT
 10
13.009600
 20
27.173100
 30
1.000000
 11
13.219400
 21
27.207400
 31
1.000000
  0
LINE
  8
1
 62
     7
  6
DOT
 10
13.219400
 20
27.207400
 30
1.000000
 11
13.434300
 21
27.227000
 31
1.000000
  0
LINE
  8
1
 62
     7
  6
DOT
 10
13.434300
 20
27.227000
 30
1.000000
 11
13.649400
 21
27.237700
 31
1.000000
  0
LINE
  8
1
 62
     7
  6
DOT
 10
13.649400
 20
27.237700
 30
1.000000
 11
13.864400
 21
27.226300
 31
1.000000
  0
LINE
  8
1
 62
     7
  6
DOT
 10
13.864400
 20
27.226300
 30
1.000000
 11
14.079400
 21
27.207900
 31
1.000000
  0
LINE
  8
1
 62
     7
  6
DOT
 10
14.079400
 20
27.207900
 30
1.000000
 11
14.289100
 21
27.223100
 31
1.000000
  0
LINE
  8
1
 62
     7
  6
CONTINUOUS
 10
14.289100
 20
27.223100
 30
1.000000
 11
14.289100
 21
27.173100
 31
1.000000
  0
LINE
  8
1
 62
     7
  6
CONTINUOUS
 10
14.289100
 20
27.173100
 30
1.000000
 11
14.311300
 21
27.173100
 31
1.000000
  0
ARC
  8
1
 62
     7
  6
CONTINUOUS
 10
14.311335
 20
27.220600
 30
1.000000
 40
0.047500
 50
269.958080
 51
340.827048
  0
LINE
  8
1
 62
     7
  6
CONTINUOUS
 10
14.356200
 20
27.205000
 30
1.000000
 11
14.371900
 21
27.251500
 31
1.000000
  0
ARC
  8
1
 62
     7
  6
CONTINUOUS
 10
14.326766
 20
27.266304
 30
1.000000
 40
0.047500
 50
341.841125
 51
421.129762
  0
LINE
  8
1
 62
     7
  6
CONTINUOUS
 10
14.349700
 20
27.307900
 30
1.000000
 11
14.289900
 21
27.340400
 31
1.000000
  0
ARC
  8
1
 62
     7
  6
CONTINUOUS
 10
14.266900
 20
27.298840
 30
1.000000
 40
0.047500
 50
61.039186
 51
179.927414
  0
LINE
  8
1
 62
     7
  6
CONTINUOUS
 10
14.219400
 20
27.298900
 30
1.000000
 11
14.219400
 21
27.220600
 31
1.000000
  0
ARC
  8
1
 62
     7
  6
CONTINUOUS
 10
14.266900
 20
27.220600
 30
1.000000
 40
0.047500
 50
180.000000
 51
270.000000
  0
LINE
  8
1
 62
     7
  6
CONTINUOUS
 10
14.266900
 20
27.173100
 30
1.000000
 11
14.289100
 21
27.173100
 31
1.000000
  0
LINE
  8
1
 62
     7
  6
DOT
 10
14.289100
 20
27.173100
 30
1.000000
 11
13.618400
 21
26.712300
 31
1.000000
  0
LINE
  8
1
 62
     7
  6
CONTINUOUS
 10
13.618400
 20
26.712300
 30
1.000000
 11
13.634400
 21
26.770600
 31
1.000000
  0
LINE
  8
1
 62
     7
  6
CONTINUOUS
 10
13.634400
 20
26.770600
 30
1.000000
 11
13.231900
 21
26.770600
 31
1.000000
  0
ARC
  8
1
 62
     7
  6
CONTINUOUS
 10
13.231900
 20
26.818100
 30
1.000000
 40
0.047500
 50
180.000000
 51
270.000000
  0
LINE
  8
1
 62
     7
  6
CONTINUOUS
 10
13.184400
 20
26.818100
 30
1.000000
 11
13.184400
 21
26.830600
 31
1.000000
  0
ARC
  8
1
 62
     7
  6
CONTINUOUS
 10
13.136900
 20
26.830600
 30
1.000000
 40
0.047500
 50
360.000000
 51
450.000000
  0
LINE
  8
1
 62
     7
  6
CONTINUOUS
 10
13.136900
 20
26.878100
 30
1.000000
 11
13.116900
 21
26.878100
 31
1.000000
  0
LINE
  8
1
 62
     7
  6
CONTINUOUS
 10
13.116900
 20
26.878100
 30
1.000000
 11
13.116900
 21
27.003100
 31
1.000000
  0
LINE
  8
1
 62
     7
  6
CONTINUOUS
 10
13.116900
 20
27.003100
 30
1.000000
 11
13.044900
 21
27.003100
 31
1.000000
  0
LINE
  8
1
 62
     7
  6
CONTINUOUS
 10
13.044900
 20
27.003100
 30
1.000000
 11
13.044900
 21
26.878100
 31
1.000000
  0
LINE
  8
1
 62
     7
  6
CONTINUOUS
 10
13.044900
 20
26.878100
 30
1.000000
 11
12.928500
 21
26.878100
 31
1.000000
  0
ARC
  8
1
 62
     7
  6
CONTINUOUS
 10
12.928469
 20
26.925600
 30
1.000000
 40
0.047500
 50
198.408468
 51
270.036918
  0
LINE
  8
1
 62
     7
  6
CONTINUOUS
 10
12.883400
 20
26.910600
 30
1.000000
 11
12.744600
 21
27.322900
 31
1.000000
  0
ARC
  8
1
 62
     7
  6
CONTINUOUS
 10
12.789622
 20
27.338042
 30
1.000000
 40
0.047500
 50
118.715600
 51
198.588803
  0
LINE
  8
1
 62
     7
  6
CONTINUOUS
 10
12.766800
 20
27.379700
 30
1.000000
 11
13.316400
 21
27.680900
 31
1.000000
  0
ARC
  8
1
 62
     7
  6
CONTINUOUS
 10
13.647000
 20
27.237727
 30
1.000000
 40
0.552900
 50
53.277630
 51
126.722370
  0
LINE
  8
1
 62
     7
  6
CONTINUOUS
 10
13.977600
 20
27.680900
 30
1.000000
 11
14.531800
 21
27.379700
 31
1.000000
  0
ARC
  8
1
 62
     7
  6
CONTINUOUS
 10
14.509151
 20
27.337947
 30
1.000000
 40
0.047500
 50
340.766556
 51
421.522356
  0
LINE
  8
1
 62
     7
  6
CONTINUOUS
 10
14.554000
 20
27.322300
 30
1.000000
 11
14.415200
 21
26.910200
 31
1.000000
  0
ARC
  8
1
 62
     7
  6
CONTINUOUS
 10
14.370266
 20
26.925600
 30
1.000000
 40
0.047500
 50
269.920752
 51
341.082306
  0
LINE
  8
1
 62
     7
  6
CONTINUOUS
 10
14.370200
 20
26.878100
 30
1.000000
 11
14.253900
 21
26.878100
 31
1.000000
  0
LINE
  8
1
 62
     7
  6
CONTINUOUS
 10
14.253900
 20
26.878100
 30
1.000000
 11
14.253900
 21
27.003100
 31
1.000000
  0
LINE
  8
1
 62
     7
  6
CONTINUOUS
 10
14.253900
 20
27.003100
 30
1.000000
 11
14.181900
 21
27.003100
 31
1.000000
  0
LINE
  8
1
 62
     7
  6
CONTINUOUS
 10
14.181900
 20
27.003100
 30
1.000000
 11
14.181900
 21
26.878100
 31
1.000000
  0
LINE
  8
1
 62
     7
  6
CONTINUOUS
 10
14.181900
 20
26.878100
 30
1.000000
 11
14.161900
 21
26.878100
 31
1.000000
  0
ARC
  8
1
 62
     7
  6
CONTINUOUS
 10
14.161900
 20
26.830600
 30
1.000000
 40
0.047500
 50
90.000000
 51
180.000000
  0
LINE
  8
1
 62
     7
  6
CONTINUOUS
 10
14.114400
 20
26.830600
 30
1.000000
 11
14.114400
 21
26.818500
 31
1.000000
  0
ARC
  8
1
 62
     7
  6
CONTINUOUS
 10
14.066902
 20
26.818100
 30
1.000000
 40
0.047500
 50
269.997968
 51
360.482497
  0
LINE
  8
1
 62
     7
  6
CONTINUOUS
 10
14.066900
 20
26.770600
 30
1.000000
 11
13.664400
 21
26.770600
 31
1.000000
  0
LINE
  8
1
 62
     7
  6
DOT
 10
13.664400
 20
26.770600
 30
1.000000
 11
11.936900
 21
27.022900
 31
1.000000
  0
LINE
  8
1
 62
     7
  6
CONTINUOUS
 10
11.936900
 20
27.022900
 30
1.000000
 11
11.990600
 21
27.039400
 31
1.000000
  0
LINE
  8
1
 62
     7
  6
CONTINUOUS
 10
11.990600
 20
27.039400
 30
1.000000
 11
12.079600
 21
27.256900
 31
1.000000
  0
LINE
  8
1
 62
     7
  6
CONTINUOUS
 10
12.079600
 20
27.256900
 30
1.000000
 11
11.774200
 21
27.381900
 31
1.000000
  0
LINE
  8
1
 62
     7
  6
CONTINUOUS
 10
11.774200
 20
27.381900
 30
1.000000
 11
11.817000
 21
27.486500
 31
1.000000
  0
LINE
  8
1
 62
     7
  6
CONTINUOUS
 10
11.817000
 20
27.486500
 30
1.000000
 11
11.997400
 21
27.412700
 31
1.000000
  0
LINE
  8
1
 62
     7
  6
CONTINUOUS
 10
11.997400
 20
27.412700
 30
1.000000
 11
12.024700
 21
27.479300
 31
1.000000
  0
LINE
  8
1
 62
     7
  6
CONTINUOUS
 10
12.024700
 20
27.479300
 30
1.000000
 11
11.844200
 21
27.553100
 31
1.000000
  0
LINE
  8
1
 62
     7
  6
CONTINUOUS
 10
11.844200
 20
27.553100
 30
1.000000
 11
12.188800
 21
28.395400
 31
1.000000
  0
LINE
  8
1
 62
     7
  6
CONTINUOUS
 10
12.188800
 20
28.395400
 30
1.000000
 11
12.369300
 21
28.321500
 31
1.000000
  0
LINE
  8
1
 62
     7
  6
CONTINUOUS
 10
12.369300
 20
28.321500
 30
1.000000
 11
12.396500
 21
28.388200
 31
1.000000
  0
LINE
  8
1
 62
     7
  6
CONTINUOUS
 10
12.396500
 20
28.388200
 30
1.000000
 11
12.216000
 21
28.462000
 31
1.000000
  0
LINE
  8
1
 62
     7
  6
CONTINUOUS
 10
12.216000
 20
28.462000
 30
1.000000
 11
12.258800
 21
28.566600
 31
1.000000
  0
LINE
  8
1
 62
     7
  6
CONTINUOUS
 10
12.258800
 20
28.566600
 30
1.000000
 11
12.564200
 21
28.441600
 31
1.000000
  0
LINE
  8
1
 62
     7
  6
CONTINUOUS
 10
12.564200
 20
28.441600
 30
1.000000
 11
12.653200
 21
28.659200
 31
1.000000
  0
LINE
  8
1
 62
     7
  6
CONTINUOUS
 10
12.653200
 20
28.659200
 30
1.000000
 11
13.010500
 21
28.513000
 31
1.000000
  0
LINE
  8
1
 62
     7
  6
CONTINUOUS
 10
13.010500
 20
28.513000
 30
1.000000
 11
12.971500
 21
28.417700
 31
1.000000
  0
LINE
  8
1
 62
     7
  6
CONTINUOUS
 10
12.971500
 20
28.417700
 30
1.000000
 11
12.800300
 21
28.487700
 31
1.000000
  0
LINE
  8
1
 62
     7
  6
CONTINUOUS
 10
12.800300
 20
28.487700
 30
1.000000
 11
12.745700
 21
28.354400
 31
1.000000
  0
LINE
  8
1
 62
     7
  6
CONTINUOUS
 10
12.745700
 20
28.354400
 30
1.000000
 11
12.917000
 21
28.284400
 31
1.000000
  0
LINE
  8
1
 62
     7
  6
CONTINUOUS
 10
12.917000
 20
28.284400
 30
1.000000
 11
12.881800
 21
28.198300
 31
1.000000
  0
LINE
  8
1
 62
     7
  6
CONTINUOUS
 10
12.881800
 20
28.198300
 30
1.000000
 11
12.673500
 21
28.283500
 31
1.000000
  0
LINE
  8
1
 62
     7
  6
CONTINUOUS
 10
12.673500
 20
28.283500
 30
1.000000
 11
12.268400
 21
27.293200
 31
1.000000
  0
LINE
  8
1
 62
     7
  6
CONTINUOUS
 10
12.268400
 20
27.293200
 30
1.000000
 11
12.476600
 21
27.208000
 31
1.000000
  0
LINE
  8
1
 62
     7
  6
CONTINUOUS
 10
12.476600
 20
27.208000
 30
1.000000
 11
12.441400
 21
27.121900
 31
1.000000
  0
LINE
  8
1
 62
     7
  6
CONTINUOUS
 10
12.441400
 20
27.121900
 30
1.000000
 11
12.270200
 21
27.192000
 31
1.000000
  0
LINE
  8
1
 62
     7
  6
CONTINUOUS
 10
12.270200
 20
27.192000
 30
1.000000
 11
12.215700
 21
27.058700
 31
1.000000
  0
LINE
  8
1
 62
     7
  6
CONTINUOUS
 10
12.215700
 20
27.058700
 30
1.000000
 11
12.386900
 21
26.988600
 31
1.000000
  0
LINE
  8
1
 62
     7
  6
CONTINUOUS
 10
12.386900
 20
26.988600
 30
1.000000
 11
12.347900
 21
26.893300
 31
1.000000
  0
LINE
  8
1
 62
     7
  6
CONTINUOUS
 10
12.347900
 20
26.893300
 30
1.000000
 11
12.023100
 21
27.026100
 31
1.000000
  0
LINE
  8
1
 62
     7
  6
DOT
 10
12.023100
 20
27.026100
 30
1.000000
 11
14.575200
 21
27.496000
 31
1.000000
  0
LINE
  8
1
 62
     7
  6
CONTINUOUS
 10
14.575200
 20
27.496000
 30
1.000000
 11
14.575200
 21
27.882000
 31
1.000000
  0
LINE
  8
1
 62
     7
  6
CONTINUOUS
 10
14.575200
 20
27.882000
 30
1.000000
 11
14.678200
 21
27.882000
 31
1.000000
  0
LINE
  8
1
 62
     7
  6
CONTINUOUS
 10
14.678200
 20
27.882000
 30
1.000000
 11
14.678200
 21
27.697000
 31
1.000000
  0
LINE
  8
1
 62
     7
  6
CONTINUOUS
 10
14.678200
 20
27.697000
 30
1.000000
 11
14.822200
 21
27.697000
 31
1.000000
  0
LINE
  8
1
 62
     7
  6
CONTINUOUS
 10
14.822200
 20
27.697000
 30
1.000000
 11
14.822200
 21
27.882000
 31
1.000000
  0
LINE
  8
1
 62
     7
  6
CONTINUOUS
 10
14.822200
 20
27.882000
 30
1.000000
 11
14.915200
 21
27.882000
 31
1.000000
  0
LINE
  8
1
 62
     7
  6
CONTINUOUS
 10
14.915200
 20
27.882000
 30
1.000000
 11
14.915200
 21
27.657000
 31
1.000000
  0
LINE
  8
1
 62
     7
  6
CONTINUOUS
 10
14.915200
 20
27.657000
 30
1.000000
 11
15.985200
 21
27.657000
 31
1.000000
  0
LINE
  8
1
 62
     7
  6
CONTINUOUS
 10
15.985200
 20
27.657000
 30
1.000000
 11
15.985200
 21
27.882000
 31
1.000000
  0
LINE
  8
1
 62
     7
  6
CONTINUOUS
 10
15.985200
 20
27.882000
 30
1.000000
 11
16.078200
 21
27.882000
 31
1.000000
  0
LINE
  8
1
 62
     7
  6
CONTINUOUS
 10
16.078200
 20
27.882000
 30
1.000000
 11
16.078200
 21
27.697000
 31
1.000000
  0
LINE
  8
1
 62
     7
  6
CONTINUOUS
 10
16.078200
 20
27.697000
 30
1.000000
 11
16.222200
 21
27.697000
 31
1.000000
  0
LINE
  8
1
 62
     7
  6
CONTINUOUS
 10
16.222200
 20
27.697000
 30
1.000000
 11
16.222200
 21
27.882000
 31
1.000000
  0
LINE
  8
1
 62
     7
  6
CONTINUOUS
 10
16.222200
 20
27.882000
 30
1.000000
 11
16.325200
 21
27.882000
 31
1.000000
  0
LINE
  8
1
 62
     7
  6
CONTINUOUS
 10
16.325200
 20
27.882000
 30
1.000000
 11
16.325200
 21
27.496000
 31
1.000000
  0
LINE
  8
1
 62
     7
  6
DOT
 10
16.325200
 20
27.496000
 30
1.000000
 11
16.305100
 21
27.496000
 31
1.000000
  0
LINE
  8
1
 62
     7
  6
CONTINUOUS
 10
16.305100
 20
27.496000
 30
1.000000
 11
16.090200
 21
27.496000
 31
1.000000
  0
LINE
  8
1
 62
     7
  6
CONTINUOUS
 10
16.090200
 20
27.496000
 30
1.000000
 11
16.090200
 21
27.166000
 31
1.000000
  0
LINE
  8
1
 62
     7
  6
CONTINUOUS
 10
16.090200
 20
27.166000
 30
1.000000
 11
15.977200
 21
27.166000
 31
1.000000
  0
LINE
  8
1
 62
     7
  6
CONTINUOUS
 10
15.977200
 20
27.166000
 30
1.000000
 11
15.977200
 21
27.361000
 31
1.000000
  0
LINE
  8
1
 62
     7
  6
CONTINUOUS
 10
15.977200
 20
27.361000
 30
1.000000
 11
15.905200
 21
27.361000
 31
1.000000
  0
LINE
  8
1
 62
     7
  6
CONTINUOUS
 10
15.905200
 20
27.361000
 30
1.000000
 11
15.905200
 21
26.814000
 31
1.000000
  0
LINE
  8
1
 62
     7
  6
CONTINUOUS
 10
15.905200
 20
26.814000
 30
1.000000
 11
15.334200
 21
26.814000
 31
1.000000
  0
LINE
  8
1
 62
     7
  6
CONTINUOUS
 10
15.334200
 20
26.814000
 30
1.000000
 11
15.334200
 21
26.979000
 31
1.000000
  0
LINE
  8
1
 62
     7
  6
CONTINUOUS
 10
15.334200
 20
26.979000
 30
1.000000
 11
15.262200
 21
26.979000
 31
1.000000
  0
LINE
  8
1
 62
     7
  6
CONTINUOUS
 10
15.262200
 20
26.979000
 30
1.000000
 11
15.262200
 21
26.814000
 31
1.000000
  0
LINE
  8
1
 62
     7
  6
CONTINUOUS
 10
15.262200
 20
26.814000
 30
1.000000
 11
14.995200
 21
26.814000
 31
1.000000
  0
LINE
  8
1
 62
     7
  6
CONTINUOUS
 10
14.995200
 20
26.814000
 30
1.000000
 11
14.995200
 21
27.361000
 31
1.000000
  0
LINE
  8
1
 62
     7
  6
CONTINUOUS
 10
14.995200
 20
27.361000
 30
1.000000
 11
14.923200
 21
27.361000
 31
1.000000
  0
LINE
  8
1
 62
     7
  6
CONTINUOUS
 10
14.923200
 20
27.361000
 30
1.000000
 11
14.923200
 21
27.166000
 31
1.000000
  0
LINE
  8
1
 62
     7
  6
CONTINUOUS
 10
14.923200
 20
27.166000
 30
1.000000
 11
14.810200
 21
27.166000
 31
1.000000
  0
LINE
  8
1
 62
     7
  6
CONTINUOUS
 10
14.810200
 20
27.166000
 30
1.000000
 11
14.810200
 21
27.496000
 31
1.000000
  0
LINE
  8
1
 62
     7
  6
CONTINUOUS
 10
14.810200
 20
27.496000
 30
1.000000
 11
14.595300
 21
27.496000
 31
1.000000
  0
LINE
  8
1
 62
     7
  6
DOT
 10
14.595300
 20
27.496000
 30
1.000000
 11
9.740200
 21
29.664600
 31
1.000000
  0
LINE
  8
1
 62
     7
  6
CONTINUOUS
 10
9.740200
 20
29.664600
 30
1.000000
 11
9.773800
 21
29.698200
 31
1.000000
  0
LINE
  8
1
 62
     7
  6
CONTINUOUS
 10
9.773800
 20
29.698200
 30
1.000000
 11
9.311100
 21
29.698200
 31
1.000000
  0
LINE
  8
1
 62
     7
  6
DOT
 10
9.311100
 20
29.698200
 30
1.000000
 11
9.246200
 21
29.653400
 31
1.000000
  0
LINE
  8
1
 62
     7
  6
CONTINUOUS
 10
9.246200
 20
29.653400
 30
1.000000
 11
9.290900
 21
29.698200
 31
1.000000
  0
ARC
  8
1
 62
     7
  6
CONTINUOUS
 10
9.290897
 20
29.714200
 30
1.000000
 40
0.016000
 50
178.925640
 51
270.010072
  0
LINE
  8
1
 62
     7
  6
CONTINUOUS
 10
9.274900
 20
29.714500
 30
1.000000
 11
9.274900
 21
29.767500
 31
1.000000
  0
ARC
  8
1
 62
     7
  6
CONTINUOUS
 10
9.290897
 20
29.767200
 30
1.000000
 40
0.016000
 50
89.989928
 51
178.925642
  0
LINE
  8
1
 62
     7
  6
CONTINUOUS
 10
9.290900
 20
29.783200
 30
1.000000
 11
9.518900
 21
29.783200
 31
1.000000
  0
ARC
  8
1
 62
     7
  6
CONTINUOUS
 10
9.518900
 20
29.799200
 30
1.000000
 40
0.016000
 50
270.000000
 51
360.000000
  0
LINE
  8
1
 62
     7
  6
CONTINUOUS
 10
9.534900
 20
29.799200
 30
1.000000
 11
9.534900
 21
29.839200
 31
1.000000
  0
ARC
  8
1
 62
     7
  6
CONTINUOUS
 10
9.518900
 20
29.839200
 30
1.000000
 40
0.016000
 50
0.000000
 51
90.000000
  0
LINE
  8
1
 62
     7
  6
CONTINUOUS
 10
9.518900
 20
29.855200
 30
1.000000
 11
9.290900
 21
29.855200
 31
1.000000
  0
ARC
  8
1
 62
     7
  6
CONTINUOUS
 10
9.290897
 20
29.871200
 30
1.000000
 40
0.016000
 50
178.925640
 51
270.010072
  0
LINE
  8
1
 62
     7
  6
CONTINUOUS
 10
9.274900
 20
29.871500
 30
1.000000
 11
9.274900
 21
29.935000
 31
1.000000
  0
ARC
  8
1
 62
     7
  6
CONTINUOUS
 10
9.290897
 20
29.934700
 30
1.000000
 40
0.016000
 50
89.989928
 51
178.925642
  0
LINE
  8
1
 62
     7
  6
CONTINUOUS
 10
9.290900
 20
29.950700
 30
1.000000
 11
9.411900
 21
29.950700
 31
1.000000
  0
ARC
  8
1
 62
     7
  6
CONTINUOUS
 10
9.411903
 20
29.966700
 30
1.000000
 40
0.016000
 50
269.989928
 51
361.074360
  0
LINE
  8
1
 62
     7
  6
CONTINUOUS
 10
9.427900
 20
29.967000
 30
1.000000
 11
9.427900
 21
30.020000
 31
1.000000
  0
ARC
  8
1
 62
     7
  6
CONTINUOUS
 10
9.411903
 20
30.019701
 30
1.000000
 40
0.016000
 50
1.069756
 51
90.726203
  0
LINE
  8
1
 62
     7
  6
CONTINUOUS
 10
9.411700
 20
30.035700
 30
1.000000
 11
9.256100
 21
30.035700
 31
1.000000
  0
ARC
  8
1
 62
     7
  6
CONTINUOUS
 10
9.259770
 20
30.058000
 30
1.000000
 40
0.022600
 50
99.345997
 51
260.654003
  0
ARC
  8
1
 62
     7
  6
CONTINUOUS
 10
9.565035
 20
30.097248
 30
1.000000
 40
0.309400
 50
116.558340
 51
183.140066
  0
ARC
  8
1
 62
     7
  6
CONTINUOUS
 10
9.463950
 20
30.365534
 30
1.000000
 40
0.038200
 50
12.804774
 51
167.195226
  0
ARC
  8
1
 62
     7
  6
CONTINUOUS
 10
9.380464
 20
30.107471
 30
1.000000
 40
0.292600
 50
354.671784
 51
425.629810
  0
ARC
  8
1
 62
     7
  6
CONTINUOUS
 10
9.668130
 20
30.058000
 30
1.000000
 40
0.022600
 50
279.345997
 51
440.654003
  0
LINE
  8
1
 62
     7
  6
CONTINUOUS
 10
9.671800
 20
30.035700
 30
1.000000
 11
9.515700
 21
30.035700
 31
1.000000
  0
ARC
  8
1
 62
     7
  6
CONTINUOUS
 10
9.515900
 20
30.019701
 30
1.000000
 40
0.016000
 50
90.716216
 51
180.004476
  0
LINE
  8
1
 62
     7
  6
CONTINUOUS
 10
9.499900
 20
30.019700
 30
1.000000
 11
9.499900
 21
29.966700
 31
1.000000
  0
ARC
  8
1
 62
     7
  6
CONTINUOUS
 10
9.515900
 20
29.966700
 30
1.000000
 40
0.016000
 50
180.000000
 51
270.000000
  0
LINE
  8
1
 62
     7
  6
CONTINUOUS
 10
9.515900
 20
29.950700
 30
1.000000
 11
9.793900
 21
29.950700
 31
1.000000
  0
ARC
  8
1
 62
     7
  6
CONTINUOUS
 10
9.793900
 20
29.934700
 30
1.000000
 40
0.016000
 50
360.000000
 51
450.000000
  0
LINE
  8
1
 62
     7
  6
CONTINUOUS
 10
9.809900
 20
29.934700
 30
1.000000
 11
9.809900
 21
29.714200
 31
1.000000
  0
ARC
  8
1
 62
     7
  6
CONTINUOUS
 10
9.793900
 20
29.714200
 30
1.000000
 40
0.016000
 50
270.000000
 51
360.000000
  0
LINE
  8
1
 62
     7
  6
DOT
 10
9.793900
 20
29.698200
 30
1.000000
 11
13.753700
 21
30.313700
 31
1.000000
  0
LINE
  8
1
 62
     7
  6
CONTINUOUS
 10
13.753700
 20
30.313700
 30
1.000000
 11
13.653000
 21
30.268900
 31
1.000000
  0
ARC
  8
1
 62
     7
  6
CONTINUOUS
 10
13.253500
 20
29.788900
 30
1.000000
 40
0.624500
 50
309.770330
 51
410.229670
  0
LINE
  8
1
 62
     7
  6
CONTINUOUS
 10
13.653000
 20
29.308900
 30
1.000000
 11
12.871100
 21
29.309400
 31
1.000000
  0
LINE
  8
1
 62
     7
  6
CONTINUOUS
 10
12.871100
 20
29.309400
 30
1.000000
 11
12.871100
 21
29.236900
 31
1.000000
  0
LINE
  8
1
 62
     7
  6
CONTINUOUS
 10
12.871100
 20
29.236900
 30
1.000000
 11
13.244600
 21
29.236900
 31
1.000000
  0
ARC
  8
1
 62
     7
  6
CONTINUOUS
 10
13.244587
 20
29.220900
 30
1.000000
 40
0.016000
 50
42.941375
 51
89.954098
  0
ARC
  8
1
 62
     7
  6
CONTINUOUS
 10
13.210382
 20
29.189400
 30
1.000000
 40
0.062500
 50
270.016771
 51
402.718743
  0
LINE
  8
1
 62
     7
  6
CONTINUOUS
 10
13.210400
 20
29.126900
 30
1.000000
 11
12.933700
 21
29.126900
 31
1.000000
  0
ARC
  8
1
 62
     7
  6
CONTINUOUS
 10
12.933699
 20
29.064400
 30
1.000000
 40
0.062500
 50
89.998827
 51
180.366696
  0
ARC
  8
1
 62
     7
  6
CONTINUOUS
 10
12.855201
 20
29.063800
 30
1.000000
 40
0.016000
 50
269.995524
 51
360.716216
  0
LINE
  8
1
 62
     7
  6
CONTINUOUS
 10
12.855200
 20
29.047800
 30
1.000000
 11
12.674700
 21
29.047700
 31
1.000000
  0
ARC
  8
1
 62
     7
  6
CONTINUOUS
 10
12.674697
 20
29.063700
 30
1.000000
 40
0.016000
 50
181.074358
 51
270.010072
  0
LINE
  8
1
 62
     7
  6
CONTINUOUS
 10
12.658700
 20
29.063400
 30
1.000000
 11
12.658600
 21
29.367300
 31
1.000000
  0
ARC
  8
1
 62
     7
  6
CONTINUOUS
 10
12.533600
 20
29.367285
 30
1.000000
 40
0.125000
 50
0.006689
 51
43.481217
  0
ARC
  8
1
 62
     7
  6
CONTINUOUS
 10
12.978161
 20
29.788909
 30
1.000000
 40
0.487700
 50
184.246026
 51
223.483555
  0
LINE
  8
1
 62
     7
  6
CONTINUOUS
 10
12.491800
 20
29.752800
 30
1.000000
 11
12.690500
 21
29.752800
 31
1.000000
  0
LINE
  8
1
 62
     7
  6
CONTINUOUS
 10
12.690500
 20
29.752800
 30
1.000000
 11
12.690500
 21
29.824800
 31
1.000000
  0
LINE
  8
1
 62
     7
  6
CONTINUOUS
 10
12.690500
 20
29.824800
 30
1.000000
 11
12.491800
 21
29.824800
 31
1.000000
  0
ARC
  8
1
 62
     7
  6
CONTINUOUS
 10
12.978171
 20
29.788824
 30
1.000000
 40
0.487700
 50
136.586457
 51
175.769601
  0
ARC
  8
1
 62
     7
  6
CONTINUOUS
 10
12.533201
 20
30.210015
 30
1.000000
 40
0.125000
 50
316.518324
 51
359.809631
  0
LINE
  8
1
 62
     7
  6
CONTINUOUS
 10
12.658200
 20
30.209600
 30
1.000000
 11
12.658000
 21
30.513900
 31
1.000000
  0
ARC
  8
1
 62
     7
  6
CONTINUOUS
 10
12.673997
 20
30.514200
 30
1.000000
 40
0.016000
 50
89.989928
 51
181.074360
  0
LINE
  8
1
 62
     7
  6
CONTINUOUS
 10
12.674000
 20
30.530200
 30
1.000000
 11
12.854500
 21
30.530200
 31
1.000000
  0
ARC
  8
1
 62
     7
  6
CONTINUOUS
 10
12.854503
 20
30.514200
 30
1.000000
 40
0.016000
 50
358.925640
 51
450.010072
  0
ARC
  8
1
 62
     7
  6
CONTINUOUS
 10
12.932998
 20
30.513398
 30
1.000000
 40
0.062500
 50
179.539781
 51
270.460219
  0
LINE
  8
1
 62
     7
  6
CONTINUOUS
 10
12.933500
 20
30.450900
 30
1.000000
 11
13.209600
 21
30.450900
 31
1.000000
  0
ARC
  8
1
 62
     7
  6
CONTINUOUS
 10
13.209600
 20
30.388400
 30
1.000000
 40
0.062500
 50
0.091673
 51
90.000073
  0
LINE
  8
1
 62
     7
  6
CONTINUOUS
 10
13.272100
 20
30.388500
 30
1.000000
 11
13.272100
 21
30.356900
 31
1.000000
  0
ARC
  8
1
 62
     7
  6
CONTINUOUS
 10
13.256100
 20
30.356900
 30
1.000000
 40
0.016000
 50
270.000000
 51
360.000000
  0
LINE
  8
1
 62
     7
  6
CONTINUOUS
 10
13.256100
 20
30.340900
 30
1.000000
 11
12.869400
 21
30.340900
 31
1.000000
  0
LINE
  8
1
 62
     7
  6
CONTINUOUS
 10
12.869400
 20
30.340900
 30
1.000000
 11
12.870600
 21
30.268900
 31
1.000000
  0
LINE
  8
1
 62
     7
  6
CONTINUOUS
 10
12.870600
 20
30.268900
 30
1.000000
 11
13.630600
 21
30.268900
 31
1.000000
  0
LINE
  8
1
 62
     7
  6
DOT
 10
13.630600
 20
30.268900
 30
1.000000
 11
13.284900
 21
28.732800
 31
1.000000
  0
LINE
  8
1
 62
     7
  6
CONTINUOUS
 10
13.284900
 20
28.732800
 30
1.000000
 11
13.351800
 21
28.763100
 31
1.000000
  0
LINE
  8
1
 62
     7
  6
CONTINUOUS
 10
13.351800
 20
28.763100
 30
1.000000
 11
13.076500
 21
28.763100
 31
1.000000
  0
ARC
  8
1
 62
     7
  6
CONTINUOUS
 10
13.076800
 20
28.788098
 30
1.000000
 40
0.025000
 50
179.995875
 51
269.312434
  0
LINE
  8
1
 62
     7
  6
CONTINUOUS
 10
13.051800
 20
28.788100
 30
1.000000
 11
13.051800
 21
28.888100
 31
1.000000
  0
ARC
  8
1
 62
     7
  6
CONTINUOUS
 10
13.076800
 20
28.888100
 30
1.000000
 40
0.025000
 50
90.000000
 51
180.000000
  0
LINE
  8
1
 62
     7
  6
CONTINUOUS
 10
13.076800
 20
28.913100
 30
1.000000
 11
15.436800
 21
28.913100
 31
1.000000
  0
LINE
  8
1
 62
     7
  6
CONTINUOUS
 10
15.436800
 20
28.913100
 30
1.000000
 11
15.436800
 21
29.085500
 31
1.000000
  0
LINE
  8
1
 62
     7
  6
CONTINUOUS
 10
15.436800
 20
29.085500
 30
1.000000
 11
15.046800
 21
29.085500
 31
1.000000
  0
ARC
  8
1
 62
     7
  6
CONTINUOUS
 10
15.046800
 20
29.110500
 30
1.000000
 40
0.025000
 50
180.000000
 51
270.000000
  0
LINE
  8
1
 62
     7
  6
CONTINUOUS
 10
15.021800
 20
29.110500
 30
1.000000
 11
15.021800
 21
29.138500
 31
1.000000
  0
ARC
  8
1
 62
     7
  6
CONTINUOUS
 10
15.046800
 20
29.138500
 30
1.000000
 40
0.025000
 50
90.000000
 51
180.000000
  0
LINE
  8
1
 62
     7
  6
CONTINUOUS
 10
15.046800
 20
29.163500
 30
1.000000
 11
15.867800
 21
29.163500
 31
1.000000
  0
LINE
  8
1
 62
     7
  6
CONTINUOUS
 10
15.867800
 20
29.163500
 30
1.000000
 11
15.867800
 21
28.520100
 31
1.000000
  0
ARC
  8
1
 62
     7
  6
CONTINUOUS
 10
15.842800
 20
28.520100
 30
1.000000
 40
0.025000
 50
270.000000
 51
360.000000
  0
LINE
  8
1
 62
     7
  6
CONTINUOUS
 10
15.842800
 20
28.495100
 30
1.000000
 11
15.204800
 21
28.495100
 31
1.000000
  0
LINE
  8
1
 62
     7
  6
CONTINUOUS
 10
15.204800
 20
28.495100
 30
1.000000
 11
15.204800
 21
28.423100
 31
1.000000
  0
LINE
  8
1
 62
     7
  6
CONTINUOUS
 10
15.204800
 20
28.423100
 30
1.000000
 11
15.837900
 21
28.423100
 31
1.000000
  0
LINE
  8
1
 62
     7
  6
CONTINUOUS
 10
15.837900
 20
28.423100
 30
1.000000
 11
15.842800
 21
28.423100
 31
1.000000
  0
ARC
  8
1
 62
     7
  6
CONTINUOUS
 10
15.842800
 20
28.398100
 30
1.000000
 40
0.025000
 50
0.000000
 51
90.000000
  0
LINE
  8
1
 62
     7
  6
CONTINUOUS
 10
15.867800
 20
28.398100
 30
1.000000
 11
15.867800
 21
27.777100
 31
1.000000
  0
LINE
  8
1
 62
     7
  6
DOT
 10
15.867800
 20
27.777100
 30
1.000000
 11
15.802200
 21
27.692300
 31
1.000000
  0
LINE
  8
1
 62
     7
  6
CONTINUOUS
 10
15.802200
 20
27.692300
 30
1.000000
 11
15.867800
 21
27.754700
 31
1.000000
  0
LINE
  8
1
 62
     7
  6
CONTINUOUS
 10
15.867800
 20
27.754700
 30
1.000000
 11
15.046800
 21
27.754700
 31
1.000000
  0
ARC
  8
1
 62
     7
  6
CONTINUOUS
 10
15.046800
 20
27.779700
 30
1.000000
 40
0.025000
 50
180.000000
 51
270.000000
  0
LINE
  8
1
 62
     7
  6
CONTINUOUS
 10
15.021800
 20
27.779700
 30
1.000000
 11
15.021800
 21
27.811600
 31
1.000000
  0
ARC
  8
1
 62
     7
  6
CONTINUOUS
 10
15.046800
 20
27.811600
 30
1.000000
 40
0.025000
 50
90.000000
 51
180.000000
  0
LINE
  8
1
 62
     7
  6
CONTINUOUS
 10
15.046800
 20
27.836600
 30
1.000000
 11
15.436800
 21
27.836600
 31
1.000000
  0
LINE
  8
1
 62
     7
  6
CONTINUOUS
 10
15.436800
 20
27.836600
 30
1.000000
 11
15.436800
 21
28.005100
 31
1.000000
  0
LINE
  8
1
 62
     7
  6
CONTINUOUS
 10
15.436800
 20
28.005100
 30
1.000000
 11
13.076800
 21
28.005100
 31
1.000000
  0
ARC
  8
1
 62
     7
  6
CONTINUOUS
 10
13.076800
 20
28.030100
 30
1.000000
 40
0.025000
 50
180.000000
 51
270.000000
  0
LINE
  8
1
 62
     7
  6
CONTINUOUS
 10
13.051800
 20
28.030100
 30
1.000000
 11
13.051800
 21
28.130100
 31
1.000000
  0
ARC
  8
1
 62
     7
  6
CONTINUOUS
 10
13.076800
 20
28.130103
 30
1.000000
 40
0.025000
 50
89.083228
 51
180.007334
  0
LINE
  8
1
 62
     7
  6
CONTINUOUS
 10
13.077200
 20
28.155100
 30
1.000000
 11
13.351800
 21
28.155100
 31
1.000000
  0
LINE
  8
1
 62
     7
  6
CONTINUOUS
 10
13.351800
 20
28.155100
 30
1.000000
 11
13.351800
 21
28.398100
 31
1.000000
  0
ARC
  8
1
 62
     7
  6
CONTINUOUS
 10
13.376800
 20
28.398100
 30
1.000000
 40
0.025000
 50
90.000000
 51
180.000000
  0
LINE
  8
1
 62
     7
  6
CONTINUOUS
 10
13.376800
 20
28.423100
 30
1.000000
 11
13.620000
 21
28.423100
 31
1.000000
  0
LINE
  8
1
 62
     7
  6
CONTINUOUS
 10
13.620000
 20
28.423100
 30
1.000000
 11
13.620000
 21
28.495100
 31
1.000000
  0
LINE
  8
1
 62
     7
  6
CONTINUOUS
 10
13.620000
 20
28.495100
 30
1.000000
 11
13.376800
 21
28.495100
 31
1.000000
  0
ARC
  8
1
 62
     7
  6
CONTINUOUS
 10
13.376800
 20
28.520100
 30
1.000000
 40
0.025000
 50
180.000000
 51
270.000000
  0
LINE
  8
1
 62
     7
  6
CONTINUOUS
 10
13.351800
 20
28.520100
 30
1.000000
 11
13.351800
 21
28.740700
 31
1.000000
  0
LINE
  8
1
 62
     7
  6
DOT
 10
13.351800
 20
28.740700
 30
1.000000
 11
14.487400
 21
29.118700
 31
1.000000
  0
LINE
  8
1
 62
     7
  6
CONTINUOUS
 10
14.487400
 20
29.118700
 30
1.000000
 11
14.507500
 21
29.179100
 31
1.000000
  0
LINE
  8
1
 62
     7
  6
CONTINUOUS
 10
14.507500
 20
29.179100
 30
1.000000
 11
14.060100
 21
29.179100
 31
1.000000
  0
ARC
  8
1
 62
     7
  6
CONTINUOUS
 10
14.060200
 20
29.195400
 30
1.000000
 40
0.016300
 50
179.998922
 51
269.648490
  0
LINE
  8
1
 62
     7
  6
CONTINUOUS
 10
14.043900
 20
29.195400
 30
1.000000
 11
14.043900
 21
29.280600
 31
1.000000
  0
LINE
  8
1
 62
     7
  6
CONTINUOUS
 10
14.043900
 20
29.280600
 30
1.000000
 11
14.277600
 21
29.280600
 31
1.000000
  0
ARC
  8
1
 62
     7
  6
CONTINUOUS
 10
14.277600
 20
29.296900
 30
1.000000
 40
0.016300
 50
270.000000
 51
360.000000
  0
LINE
  8
1
 62
     7
  6
CONTINUOUS
 10
14.293900
 20
29.296900
 30
1.000000
 11
14.293900
 21
29.336400
 31
1.000000
  0
ARC
  8
1
 62
     7
  6
CONTINUOUS
 10
14.277600
 20
29.336300
 30
1.000000
 40
0.016300
 50
0.351510
 51
90.001078
  0
LINE
  8
1
 62
     7
  6
CONTINUOUS
 10
14.277600
 20
29.352600
 30
1.000000
 11
14.043900
 21
29.352600
 31
1.000000
  0
LINE
  8
1
 62
     7
  6
CONTINUOUS
 10
14.043900
 20
29.352600
 30
1.000000
 11
14.043900
 21
29.437900
 31
1.000000
  0
ARC
  8
1
 62
     7
  6
CONTINUOUS
 10
14.060100
 20
29.437900
 30
1.000000
 40
0.016200
 50
90.000000
 51
180.000000
  0
LINE
  8
1
 62
     7
  6
CONTINUOUS
 10
14.060100
 20
29.454100
 30
1.000000
 11
14.427600
 21
29.454100
 31
1.000000
  0
ARC
  8
1
 62
     7
  6
CONTINUOUS
 10
14.427600
 20
29.470400
 30
1.000000
 40
0.016300
 50
270.000000
 51
360.000000
  0
LINE
  8
1
 62
     7
  6
CONTINUOUS
 10
14.443900
 20
29.470400
 30
1.000000
 11
14.443900
 21
29.530400
 31
1.000000
  0
ARC
  8
1
 62
     7
  6
CONTINUOUS
 10
14.427600
 20
29.530300
 30
1.000000
 40
0.016300
 50
0.351510
 51
90.001078
  0
LINE
  8
1
 62
     7
  6
CONTINUOUS
 10
14.427600
 20
29.546600
 30
1.000000
 11
14.260100
 21
29.546600
 31
1.000000
  0
ARC
  8
1
 62
     7
  6
CONTINUOUS
 10
14.260200
 20
29.562900
 30
1.000000
 40
0.016300
 50
179.998922
 51
269.648490
  0
LINE
  8
1
 62
     7
  6
CONTINUOUS
 10
14.243900
 20
29.562900
 30
1.000000
 11
14.243900
 21
29.805400
 31
1.000000
  0
ARC
  8
1
 62
     7
  6
CONTINUOUS
 10
14.260100
 20
29.805400
 30
1.000000
 40
0.016200
 50
90.000000
 51
180.000000
  0
LINE
  8
1
 62
     7
  6
CONTINUOUS
 10
14.260100
 20
29.821600
 30
1.000000
 11
14.727600
 21
29.821600
 31
1.000000
  0
ARC
  8
1
 62
     7
  6
CONTINUOUS
 10
14.727600
 20
29.805300
 30
1.000000
 40
0.016300
 50
0.351510
 51
90.001078
  0
LINE
  8
1
 62
     7
  6
CONTINUOUS
 10
14.743900
 20
29.805400
 30
1.000000
 11
14.743900
 21
29.720100
 31
1.000000
  0
LINE
  8
1
 62
     7
  6
CONTINUOUS
 10
14.743900
 20
29.720100
 30
1.000000
 11
14.510100
 21
29.720100
 31
1.000000
  0
ARC
  8
1
 62
     7
  6
CONTINUOUS
 10
14.510100
 20
29.703900
 30
1.000000
 40
0.016200
 50
90.000000
 51
180.000000
  0
LINE
  8
1
 62
     7
  6
CONTINUOUS
 10
14.493900
 20
29.703900
 30
1.000000
 11
14.493900
 21
29.664400
 31
1.000000
  0
ARC
  8
1
 62
     7
  6
CONTINUOUS
 10
14.510200
 20
29.664400
 30
1.000000
 40
0.016300
 50
179.998922
 51
269.648490
  0
LINE
  8
1
 62
     7
  6
CONTINUOUS
 10
14.510100
 20
29.648100
 30
1.000000
 11
14.743900
 21
29.648100
 31
1.000000
  0
LINE
  8
1
 62
     7
  6
CONTINUOUS
 10
14.743900
 20
29.648100
 30
1.000000
 11
14.743900
 21
29.562900
 31
1.000000
  0
ARC
  8
1
 62
     7
  6
CONTINUOUS
 10
14.727600
 20
29.562900
 30
1.000000
 40
0.016300
 50
270.000000
 51
360.000000
  0
LINE
  8
1
 62
     7
  6
CONTINUOUS
 10
14.727600
 20
29.546600
 30
1.000000
 11
14.560100
 21
29.546600
 31
1.000000
  0
ARC
  8
1
 62
     7
  6
CONTINUOUS
 10
14.560100
 20
29.530400
 30
1.000000
 40
0.016200
 50
90.000000
 51
180.000000
  0
LINE
  8
1
 62
     7
  6
CONTINUOUS
 10
14.543900
 20
29.530400
 30
1.000000
 11
14.543900
 21
29.195400
 31
1.000000
  0
ARC
  8
1
 62
     7
  6
CONTINUOUS
 10
14.527600
 20
29.195400
 30
1.000000
 40
0.016300
 50
270.000000
 51
360.000000
  0
LINE
  8
1
 62
     7
  6
DOT
 10
14.527600
 20
29.179100
 30
1.000000
 11
14.296500
 21
29.997200
 31
1.000000
  0
LINE
  8
1
 62
     7
  6
CONTINUOUS
 10
14.296500
 20
29.997200
 30
1.000000
 11
14.357300
 21
30.064300
 31
1.000000
  0
LINE
  8
1
 62
     7
  6
CONTINUOUS
 10
14.357300
 20
30.064300
 30
1.000000
 11
14.357300
 21
30.288400
 31
1.000000
  0
ARC
  8
1
 62
     7
  6
CONTINUOUS
 10
14.341100
 20
30.288400
 30
1.000000
 40
0.016200
 50
0.000000
 51
90.000000
  0
LINE
  8
1
 62
     7
  6
CONTINUOUS
 10
14.341100
 20
30.304600
 30
1.000000
 11
14.301600
 21
30.304600
 31
1.000000
  0
ARC
  8
1
 62
     7
  6
CONTINUOUS
 10
14.301600
 20
30.288300
 30
1.000000
 40
0.016300
 50
89.998922
 51
179.648490
  0
LINE
  8
1
 62
     7
  6
CONTINUOUS
 10
14.285300
 20
30.288400
 30
1.000000
 11
14.285300
 21
30.041900
 31
1.000000
  0
ARC
  8
1
 62
     7
  6
CONTINUOUS
 10
14.321300
 20
29.779256
 30
1.000000
 40
0.265100
 50
82.195244
 51
97.804756
  0
LINE
  8
1
 62
     7
  6
DOT
 10
14.357300
 20
30.041900
 30
1.000000
 11
15.718200
 21
29.430500
 31
1.000000
  0
LINE
  8
1
 62
     7
  6
DOT
 10
15.718200
 20
29.430500
 30
1.000000
 11
15.344300
 21
30.589000
 31
1.000000
  0
LINE
  8
1
 62
     7
  6
CONTINUOUS
 10
15.344300
 20
30.589000
 30
1.000000
 11
15.266000
 21
30.499500
 31
1.000000
  0
LINE
  8
1
 62
     7
  6
CONTINUOUS
 10
15.266000
 20
30.499500
 30
1.000000
 11
16.143500
 21
30.499500
 31
1.000000
  0
LINE
  8
1
 62
     7
  6
DOT
 10
16.143500
 20
30.499500
 30
1.000000
 11
16.241900
 21
30.577800
 31
1.000000
  0
LINE
  8
1
 62
     7
  6
CONTINUOUS
 10
16.241900
 20
30.577800
 30
1.000000
 11
16.163600
 21
30.499500
 31
1.000000
  0
LINE
  8
1
 62
     7
  6
CONTINUOUS
 10
16.163600
 20
30.499500
 30
1.000000
 11
16.163600
 21
29.964500
 31
1.000000
  0
LINE
  8
1
 62
     7
  6
CONTINUOUS
 10
16.163600
 20
29.964500
 30
1.000000
 11
16.235600
 21
29.964500
 31
1.000000
  0
LINE
  8
1
 62
     7
  6
CONTINUOUS
 10
16.235600
 20
29.964500
 30
1.000000
 11
16.235600
 21
30.499500
 31
1.000000
  0
LINE
  8
1
 62
     7
  6
CONTINUOUS
 10
16.235600
 20
30.499500
 30
1.000000
 11
16.572700
 21
30.499500
 31
1.000000
  0
LINE
  8
1
 62
     7
  6
CONTINUOUS
 10
16.572700
 20
30.499500
 30
1.000000
 11
16.572700
 21
29.686800
 31
1.000000
  0
ARC
  8
1
 62
     7
  6
CONTINUOUS
 10
16.556400
 20
29.686800
 30
1.000000
 40
0.016300
 50
270.351510
 51
360.001078
  0
LINE
  8
1
 62
     7
  6
CONTINUOUS
 10
16.556500
 20
29.670500
 30
1.000000
 11
16.467700
 21
29.670500
 31
1.000000
  0
LINE
  8
1
 62
     7
  6
CONTINUOUS
 10
16.467700
 20
29.670500
 30
1.000000
 11
16.467700
 21
30.095500
 31
1.000000
  0
LINE
  8
1
 62
     7
  6
CONTINUOUS
 10
16.467700
 20
30.095500
 30
1.000000
 11
16.395700
 21
30.095500
 31
1.000000
  0
LINE
  8
1
 62
     7
  6
CONTINUOUS
 10
16.395700
 20
30.095500
 30
1.000000
 11
16.395700
 21
29.670500
 31
1.000000
  0
LINE
  8
1
 62
     7
  6
CONTINUOUS
 10
16.395700
 20
29.670500
 30
1.000000
 11
16.354000
 21
29.670500
 31
1.000000
  0
ARC
  8
1
 62
     7
  6
CONTINUOUS
 10
16.354000
 20
29.654200
 30
1.000000
 40
0.016300
 50
89.998922
 51
179.648490
  0
LINE
  8
1
 62
     7
  6
CONTINUOUS
 10
16.337700
 20
29.654300
 30
1.000000
 11
16.337700
 21
29.241800
 31
1.000000
  0
ARC
  8
1
 62
     7
  6
CONTINUOUS
 10
16.321400
 20
29.241800
 30
1.000000
 40
0.016300
 50
270.351510
 51
360.001078
  0
LINE
  8
1
 62
     7
  6
CONTINUOUS
 10
16.321500
 20
29.225500
 30
1.000000
 11
15.115000
 21
29.225500
 31
1.000000
  0
ARC
  8
1
 62
     7
  6
CONTINUOUS
 10
15.115000
 20
29.241800
 30
1.000000
 40
0.016300
 50
180.000000
 51
270.000000
  0
LINE
  8
1
 62
     7
  6
CONTINUOUS
 10
15.098700
 20
29.241800
 30
1.000000
 11
15.098700
 21
29.654300
 31
1.000000
  0
ARC
  8
1
 62
     7
  6
CONTINUOUS
 10
15.082500
 20
29.654300
 30
1.000000
 40
0.016200
 50
0.000000
 51
90.000000
  0
LINE
  8
1
 62
     7
  6
CONTINUOUS
 10
15.082500
 20
29.670500
 30
1.000000
 11
15.040700
 21
29.670500
 31
1.000000
  0
LINE
  8
1
 62
     7
  6
CONTINUOUS
 10
15.040700
 20
29.670500
 30
1.000000
 11
15.040700
 21
30.095500
 31
1.000000
  0
LINE
  8
1
 62
     7
  6
CONTINUOUS
 10
15.040700
 20
30.095500
 30
1.000000
 11
14.968700
 21
30.095500
 31
1.000000
  0
LINE
  8
1
 62
     7
  6
CONTINUOUS
 10
14.968700
 20
30.095500
 30
1.000000
 11
14.968700
 21
29.670500
 31
1.000000
  0
LINE
  8
1
 62
     7
  6
CONTINUOUS
 10
14.968700
 20
29.670500
 30
1.000000
 11
14.880000
 21
29.670500
 31
1.000000
  0
ARC
  8
1
 62
     7
  6
CONTINUOUS
 10
14.880000
 20
29.686800
 30
1.000000
 40
0.016300
 50
180.000000
 51
270.000000
  0
LINE
  8
1
 62
     7
  6
CONTINUOUS
 10
14.863700
 20
29.686800
 30
1.000000
 11
14.863700
 21
30.499500
 31
1.000000
  0
LINE
  8
1
 62
     7
  6
CONTINUOUS
 10
14.863700
 20
30.499500
 30
1.000000
 11
15.173900
 21
30.499500
 31
1.000000
  0
LINE
  8
1
 62
     7
  6
CONTINUOUS
 10
15.173900
 20
30.499500
 30
1.000000
 11
15.173900
 21
29.964500
 31
1.000000
  0
LINE
  8
1
 62
     7
  6
CONTINUOUS
 10
15.173900
 20
29.964500
 30
1.000000
 11
15.245900
 21
29.964500
 31
1.000000
  0
LINE
  8
1
 62
     7
  6
CONTINUOUS
 10
15.245900
 20
29.964500
 30
1.000000
 11
15.245900
 21
30.499500
 31
1.000000
  0
LINE
  8
1
 62
     7
  6
DOT
 10
15.245900
 20
30.499500
 30
1.000000
 11
11.705600
 21
31.872300
 31
1.000000
  0
LINE
  8
1
 62
     7
  6
CONTINUOUS
 10
11.705600
 20
31.872300
 30
1.000000
 11
11.704200
 21
31.822400
 31
1.000000
  0
ARC
  8
1
 62
     7
  6
CONTINUOUS
 10
11.705906
 20
31.880175
 30
1.000000
 40
0.057800
 50
268.308302
 51
296.836588
  0
ARC
  8
1
 62
     7
  6
CONTINUOUS
 10
11.700500
 20
31.876943
 30
1.000000
 40
0.057700
 50
303.088015
 51
360.056640
  0
LINE
  8
1
 62
     7
  6
CONTINUOUS
 10
11.758200
 20
31.877000
 30
1.000000
 11
11.758200
 21
32.090200
 31
1.000000
  0
ARC
  8
1
 62
     7
  6
CONTINUOUS
 10
11.727000
 20
32.090228
 30
1.000000
 40
0.031200
 50
359.948793
 51
462.400508
  0
ARC
  8
1
 62
     7
  6
CONTINUOUS
 10
11.815761
 20
31.683500
 30
1.000000
 40
0.447500
 50
102.316998
 51
137.695414
  0
ARC
  8
1
 62
     7
  6
CONTINUOUS
 10
11.507836
 20
31.963657
 30
1.000000
 40
0.031200
 50
137.588402
 51
240.136578
  0
LINE
  8
1
 62
     7
  6
CONTINUOUS
 10
11.492300
 20
31.936600
 30
1.000000
 11
11.676900
 21
31.830100
 31
1.000000
  0
ARC
  8
1
 62
     7
  6
CONTINUOUS
 10
11.705733
 20
31.880080
 30
1.000000
 40
0.057700
 50
240.019813
 51
268.477840
  0
LINE
  8
1
 62
     7
  6
DOT
 10
11.704200
 20
31.822400
 30
1.000000
 11
11.715200
 21
31.291400
 31
1.000000
  0
LINE
  8
1
 62
     7
  6
CONTINUOUS
 10
11.715200
 20
31.291400
 30
1.000000
 11
11.746600
 21
31.252500
 31
1.000000
  0
ARC
  8
1
 62
     7
  6
CONTINUOUS
 10
11.727000
 20
31.276775
 30
1.000000
 40
0.031200
 50
308.917800
 51
360.045730
  0
LINE
  8
1
 62
     7
  6
CONTINUOUS
 10
11.758200
 20
31.276800
 30
1.000000
 11
11.758200
 21
31.490000
 31
1.000000
  0
ARC
  8
1
 62
     7
  6
CONTINUOUS
 10
11.700500
 20
31.490057
 30
1.000000
 40
0.057700
 50
359.943360
 51
416.911985
  0
ARC
  8
1
 62
     7
  6
CONTINUOUS
 10
11.705807
 20
31.486876
 30
1.000000
 40
0.057800
 50
63.052860
 51
119.665043
  0
LINE
  8
1
 62
     7
  6
CONTINUOUS
 10
11.677200
 20
31.537100
 30
1.000000
 11
11.492300
 21
31.430400
 31
1.000000
  0
ARC
  8
1
 62
     7
  6
CONTINUOUS
 10
11.507836
 20
31.403343
 30
1.000000
 40
0.031200
 50
119.863422
 51
222.411598
  0
ARC
  8
1
 62
     7
  6
CONTINUOUS
 10
11.815761
 20
31.683500
 30
1.000000
 40
0.447500
 50
222.304586
 51
257.683002
  0
ARC
  8
1
 62
     7
  6
CONTINUOUS
 10
11.726997
 20
31.276773
 30
1.000000
 40
0.031200
 50
257.604954
 51
308.924652
  0
LINE
  8
1
 62
     7
  6
DOT
 10
11.746600
 20
31.252500
 30
1.000000
 11
11.916300
 21
31.291400
 31
1.000000
  0
LINE
  8
1
 62
     7
  6
CONTINUOUS
 10
11.916300
 20
31.291400
 30
1.000000
 11
11.884900
 21
31.252500
 31
1.000000
  0
ARC
  8
1
 62
     7
  6
CONTINUOUS
 10
11.904472
 20
31.276798
 30
1.000000
 40
0.031200
 50
231.149311
 51
283.018818
  0
ARC
  8
1
 62
     7
  6
CONTINUOUS
 10
11.815778
 20
31.683543
 30
1.000000
 40
0.447500
 50
282.351192
 51
317.687978
  0
ARC
  8
1
 62
     7
  6
CONTINUOUS
 10
12.123664
 20
31.403343
 30
1.000000
 40
0.031200
 50
317.588402
 51
420.136578
  0
LINE
  8
1
 62
     7
  6
CONTINUOUS
 10
12.139200
 20
31.430400
 30
1.000000
 11
11.954600
 21
31.536900
 31
1.000000
  0
ARC
  8
1
 62
     7
  6
CONTINUOUS
 10
11.925667
 20
31.486863
 30
1.000000
 40
0.057800
 50
59.962680
 51
116.918537
  0
ARC
  8
1
 62
     7
  6
CONTINUOUS
 10
11.931000
 20
31.489938
 30
1.000000
 40
0.057800
 50
123.023442
 51
179.938268
  0
LINE
  8
1
 62
     7
  6
CONTINUOUS
 10
11.873200
 20
31.490000
 30
1.000000
 11
11.873200
 21
31.276800
 31
1.000000
  0
ARC
  8
1
 62
     7
  6
CONTINUOUS
 10
11.904500
 20
31.276904
 30
1.000000
 40
0.031300
 50
180.189683
 51
231.230225
  0
LINE
  8
1
 62
     7
  6
DOT
 10
11.884900
 20
31.252500
 30
1.000000
 11
11.832200
 21
31.720300
 31
1.000000
  0
LINE
  8
1
 62
     7
  6
CONTINUOUS
 10
11.832200
 20
31.720300
 30
1.000000
 11
11.845200
 21
31.672000
 31
1.000000
  0
ARC
  8
1
 62
     7
  6
CONTINUOUS
 10
11.840997
 20
31.687645
 30
1.000000
 40
0.016200
 50
285.038712
 51
329.815391
  0
LINE
  8
1
 62
     7
  6
CONTINUOUS
 10
11.855000
 20
31.679500
 30
1.000000
 11
11.933400
 21
31.815300
 31
1.000000
  0
ARC
  8
1
 62
     7
  6
CONTINUOUS
 10
11.947419
 20
31.807181
 30
1.000000
 40
0.016200
 50
120.076654
 51
149.923346
  0
LINE
  8
1
 62
     7
  6
CONTINUOUS
 10
11.939300
 20
31.821200
 30
1.000000
 11
12.139200
 21
31.936600
 31
1.000000
  0
ARC
  8
1
 62
     7
  6
CONTINUOUS
 10
12.123664
 20
31.963657
 30
1.000000
 40
0.031200
 50
299.863422
 51
402.411598
  0
ARC
  8
1
 62
     7
  6
CONTINUOUS
 10
11.815739
 20
31.683500
 30
1.000000
 40
0.447500
 50
42.304586
 51
77.683002
  0
ARC
  8
1
 62
     7
  6
CONTINUOUS
 10
11.904500
 20
32.090126
 30
1.000000
 40
0.031300
 50
77.639595
 51
179.863662
  0
LINE
  8
1
 62
     7
  6
CONTINUOUS
 10
11.873200
 20
32.090200
 30
1.000000
 11
11.873200
 21
31.877000
 31
1.000000
  0
ARC
  8
1
 62
     7
  6
CONTINUOUS
 10
11.931000
 20
31.877117
 30
1.000000
 40
0.057800
 50
180.116207
 51
191.696076
  0
ARC
  8
1
 62
     7
  6
CONTINUOUS
 10
11.858542
 20
31.862090
 30
1.000000
 40
0.016200
 50
328.808979
 51
371.790237
  0
LINE
  8
1
 62
     7
  6
CONTINUOUS
 10
11.872400
 20
31.853700
 30
1.000000
 11
11.792700
 21
31.715600
 31
1.000000
  0
ARC
  8
1
 62
     7
  6
CONTINUOUS
 10
11.806810
 20
31.707439
 30
1.000000
 40
0.016300
 50
149.956301
 51
240.162246
  0
LINE
  8
1
 62
     7
  6
CONTINUOUS
 10
11.798700
 20
31.693300
 30
1.000000
 11
11.832800
 21
31.673600
 31
1.000000
  0
ARC
  8
1
 62
     7
  6
CONTINUOUS
 10
11.840926
 20
31.687730
 30
1.000000
 40
0.016300
 50
240.095639
 51
285.199602
  0
LINE
  8
1
 62
     7
  6
DOT
 10
11.845200
 20
31.672000
 30
1.000000
 11
11.425900
 21
31.574500
 31
1.000000
  0
LINE
  8
1
 62
     7
  6
CONTINUOUS
 10
11.425900
 20
31.574500
 30
1.000000
 11
11.407900
 21
31.527900
 31
1.000000
  0
ARC
  8
1
 62
     7
  6
CONTINUOUS
 10
11.419160
 20
31.556997
 30
1.000000
 40
0.031200
 50
248.843797
 51
300.083905
  0
LINE
  8
1
 62
     7
  6
CONTINUOUS
 10
11.434800
 20
31.530000
 30
1.000000
 11
11.619400
 21
31.636500
 31
1.000000
  0
ARC
  8
1
 62
     7
  6
CONTINUOUS
 10
11.590480
 20
31.686545
 30
1.000000
 40
0.057800
 50
300.022602
 51
356.980300
  0
ARC
  8
1
 62
     7
  6
CONTINUOUS
 10
11.590480
 20
31.680455
 30
1.000000
 40
0.057800
 50
3.019700
 51
59.977398
  0
LINE
  8
1
 62
     7
  6
CONTINUOUS
 10
11.619400
 20
31.730500
 30
1.000000
 11
11.434800
 21
31.837000
 31
1.000000
  0
ARC
  8
1
 62
     7
  6
CONTINUOUS
 10
11.419121
 20
31.810026
 30
1.000000
 40
0.031200
 50
59.831780
 51
162.899968
  0
ARC
  8
1
 62
     7
  6
CONTINUOUS
 10
11.815733
 20
31.683513
 30
1.000000
 40
0.447500
 50
162.349488
 51
197.734770
  0
ARC
  8
1
 62
     7
  6
CONTINUOUS
 10
11.419116
 20
31.557014
 30
1.000000
 40
0.031200
 50
198.334091
 51
248.930821
  0
LINE
  8
1
 62
     7
  6
DOT
 10
11.407900
 20
31.527900
 30
1.000000
 11
12.205500
 21
31.574500
 31
1.000000
  0
LINE
  8
1
 62
     7
  6
CONTINUOUS
 10
12.205500
 20
31.574500
 30
1.000000
 11
12.223600
 21
31.527900
 31
1.000000
  0
ARC
  8
1
 62
     7
  6
CONTINUOUS
 10
12.212358
 20
31.557004
 30
1.000000
 40
0.031200
 50
291.120167
 51
343.034183
  0
ARC
  8
1
 62
     7
  6
CONTINUOUS
 10
11.815751
 20
31.683536
 30
1.000000
 40
0.447500
 50
342.356223
 51
377.728066
  0
ARC
  8
1
 62
     7
  6
CONTINUOUS
 10
12.212372
 20
31.810022
 30
1.000000
 40
0.031200
 50
18.264771
 51
120.152596
  0
LINE
  8
1
 62
     7
  6
CONTINUOUS
 10
12.196700
 20
31.837000
 30
1.000000
 11
12.012100
 21
31.730500
 31
1.000000
  0
ARC
  8
1
 62
     7
  6
CONTINUOUS
 10
12.041020
 20
31.680455
 30
1.000000
 40
0.057800
 50
120.022602
 51
176.980300
  0
ARC
  8
1
 62
     7
  6
CONTINUOUS
 10
12.041020
 20
31.686545
 30
1.000000
 40
0.057800
 50
183.019700
 51
239.977398
  0
LINE
  8
1
 62
     7
  6
CONTINUOUS
 10
12.012100
 20
31.636500
 30
1.000000
 11
12.196700
 21
31.530000
 31
1.000000
  0
ARC
  8
1
 62
     7
  6
CONTINUOUS
 10
12.212340
 20
31.556997
 30
1.000000
 40
0.031200
 50
239.916095
 51
291.156203
  0
LINE
  8
1
 62
     7
  6
DOT
 10
12.223600
 20
31.527900
 30
1.000000
 11
13.124400
 21
31.720300
 31
1.000000
  0
LINE
  8
1
 62
     7
  6
CONTINUOUS
 10
13.124400
 20
31.720300
 30
1.000000
 11
13.137400
 21
31.672000
 31
1.000000
  0
ARC
  8
1
 62
     7
  6
CONTINUOUS
 10
13.133197
 20
31.687645
 30
1.000000
 40
0.016200
 50
285.038712
 51
329.815391
  0
LINE
  8
1
 62
     7
  6
CONTINUOUS
 10
13.147200
 20
31.679500
 30
1.000000
 11
13.225600
 21
31.815300
 31
1.000000
  0
ARC
  8
1
 62
     7
  6
CONTINUOUS
 10
13.239729
 20
31.807171
 30
1.000000
 40
0.016300
 50
119.913044
 51
150.086956
  0
LINE
  8
1
 62
     7
  6
CONTINUOUS
 10
13.231600
 20
31.821300
 30
1.000000
 11
13.431400
 21
31.936600
 31
1.000000
  0
ARC
  8
1
 62
     7
  6
CONTINUOUS
 10
13.415864
 20
31.963657
 30
1.000000
 40
0.031200
 50
299.863422
 51
402.411598
  0
ARC
  8
1
 62
     7
  6
CONTINUOUS
 10
13.107939
 20
31.683500
 30
1.000000
 40
0.447500
 50
42.304586
 51
77.683002
  0
ARC
  8
1
 62
     7
  6
CONTINUOUS
 10
13.196700
 20
32.090228
 30
1.000000
 40
0.031200
 50
77.599492
 51
180.051207
  0
LINE
  8
1
 62
     7
  6
CONTINUOUS
 10
13.165500
 20
32.090200
 30
1.000000
 11
13.165500
 21
31.877000
 31
1.000000
  0
ARC
  8
1
 62
     7
  6
CONTINUOUS
 10
13.223199
 20
31.876619
 30
1.000000
 40
0.057700
 50
179.621942
 51
191.212102
  0
ARC
  8
1
 62
     7
  6
CONTINUOUS
 10
13.150742
 20
31.862090
 30
1.000000
 40
0.016200
 50
328.808979
 51
371.790237
  0
LINE
  8
1
 62
     7
  6
CONTINUOUS
 10
13.164600
 20
31.853700
 30
1.000000
 11
13.084900
 21
31.715600
 31
1.000000
  0
ARC
  8
1
 62
     7
  6
CONTINUOUS
 10
13.099010
 20
31.707439
 30
1.000000
 40
0.016300
 50
149.956301
 51
240.162246
  0
LINE
  8
1
 62
     7
  6
CONTINUOUS
 10
13.090900
 20
31.693300
 30
1.000000
 11
13.125100
 21
31.673600
 31
1.000000
  0
ARC
  8
1
 62
     7
  6
CONTINUOUS
 10
13.133194
 20
31.687748
 30
1.000000
 40
0.016300
 50
240.225126
 51
284.951888
  0
LINE
  8
1
 62
     7
  6
DOT
 10
13.137400
 20
31.672000
 30
1.000000
 11
13.208500
 21
31.291400
 31
1.000000
  0
LINE
  8
1
 62
     7
  6
CONTINUOUS
 10
13.208500
 20
31.291400
 30
1.000000
 11
13.177100
 21
31.252500
 31
1.000000
  0
ARC
  8
1
 62
     7
  6
CONTINUOUS
 10
13.196672
 20
31.276798
 30
1.000000
 40
0.031200
 50
231.149311
 51
283.018818
  0
ARC
  8
1
 62
     7
  6
CONTINUOUS
 10
13.107978
 20
31.683543
 30
1.000000
 40
0.447500
 50
282.351192
 51
317.687978
  0
ARC
  8
1
 62
     7
  6
CONTINUOUS
 10
13.415864
 20
31.403343
 30
1.000000
 40
0.031200
 50
317.588402
 51
420.136578
  0
LINE
  8
1
 62
     7
  6
CONTINUOUS
 10
13.431400
 20
31.430400
 30
1.000000
 11
13.246800
 21
31.536900
 31
1.000000
  0
ARC
  8
1
 62
     7
  6
CONTINUOUS
 10
13.217867
 20
31.486863
 30
1.000000
 40
0.057800
 50
59.962680
 51
116.918537
  0
ARC
  8
1
 62
     7
  6
CONTINUOUS
 10
13.223200
 20
31.490057
 30
1.000000
 40
0.057700
 50
123.088015
 51
180.056640
  0
LINE
  8
1
 62
     7
  6
CONTINUOUS
 10
13.165500
 20
31.490000
 30
1.000000
 11
13.165500
 21
31.276800
 31
1.000000
  0
ARC
  8
1
 62
     7
  6
CONTINUOUS
 10
13.196700
 20
31.276775
 30
1.000000
 40
0.031200
 50
179.954270
 51
231.082200
  0
LINE
  8
1
 62
     7
  6
DOT
 10
13.177100
 20
31.252500
 30
1.000000
 11
13.007400
 21
31.291400
 31
1.000000
  0
LINE
  8
1
 62
     7
  6
CONTINUOUS
 10
13.007400
 20
31.291400
 30
1.000000
 11
13.038800
 21
31.252500
 31
1.000000
  0
ARC
  8
1
 62
     7
  6
CONTINUOUS
 10
13.019200
 20
31.276904
 30
1.000000
 40
0.031300
 50
308.769775
 51
359.810317
  0
LINE
  8
1
 62
     7
  6
CONTINUOUS
 10
13.050500
 20
31.276800
 30
1.000000
 11
13.050500
 21
31.490000
 31
1.000000
  0
ARC
  8
1
 62
     7
  6
CONTINUOUS
 10
12.992700
 20
31.489938
 30
1.000000
 40
0.057800
 50
0.061732
 51
56.976558
  0
ARC
  8
1
 62
     7
  6
CONTINUOUS
 10
12.998007
 20
31.486876
 30
1.000000
 40
0.057800
 50
63.052860
 51
119.665043
  0
LINE
  8
1
 62
     7
  6
CONTINUOUS
 10
12.969400
 20
31.537100
 30
1.000000
 11
12.784500
 21
31.430400
 31
1.000000
  0
ARC
  8
1
 62
     7
  6
CONTINUOUS
 10
12.800036
 20
31.403343
 30
1.000000
 40
0.031200
 50
119.863422
 51
222.411598
  0
ARC
  8
1
 62
     7
  6
CONTINUOUS
 10
13.107961
 20
31.683500
 30
1.000000
 40
0.447500
 50
222.304586
 51
257.683002
  0
ARC
  8
1
 62
     7
  6
CONTINUOUS
 10
13.019197
 20
31.276773
 30
1.000000
 40
0.031200
 50
257.604954
 51
308.924652
  0
LINE
  8
1
 62
     7
  6
DOT
 10
13.038800
 20
31.252500
 30
1.000000
 11
12.997800
 21
31.872300
 31
1.000000
  0
LINE
  8
1
 62
     7
  6
CONTINUOUS
 10
12.997800
 20
31.872300
 30
1.000000
 11
12.996500
 21
31.822400
 31
1.000000
  0
ARC
  8
1
 62
     7
  6
CONTINUOUS
 10
12.998112
 20
31.880178
 30
1.000000
 40
0.057800
 50
268.402143
 51
296.830621
  0
ARC
  8
1
 62
     7
  6
CONTINUOUS
 10
12.992700
 20
31.877062
 30
1.000000
 40
0.057800
 50
303.023442
 51
359.938268
  0
LINE
  8
1
 62
     7
  6
CONTINUOUS
 10
13.050500
 20
31.877000
 30
1.000000
 11
13.050500
 21
32.090200
 31
1.000000
  0
ARC
  8
1
 62
     7
  6
CONTINUOUS
 10
13.019200
 20
32.090126
 30
1.000000
 40
0.031300
 50
0.136338
 51
102.360405
  0
ARC
  8
1
 62
     7
  6
CONTINUOUS
 10
13.107961
 20
31.683500
 30
1.000000
 40
0.447500
 50
102.316998
 51
137.695414
  0
ARC
  8
1
 62
     7
  6
CONTINUOUS
 10
12.800036
 20
31.963657
 30
1.000000
 40
0.031200
 50
137.588402
 51
240.136578
  0
LINE
  8
1
 62
     7
  6
CONTINUOUS
 10
12.784500
 20
31.936600
 30
1.000000
 11
12.969100
 21
31.830100
 31
1.000000
  0
ARC
  8
1
 62
     7
  6
CONTINUOUS
 10
12.997928
 20
31.880082
 30
1.000000
 40
0.057700
 50
240.025151
 51
268.581797
  0
LINE
  8
1
 62
     7
  6
DOT
 10
12.996500
 20
31.822400
 30
1.000000
 11
12.718100
 21
31.574500
 31
1.000000
  0
LINE
  8
1
 62
     7
  6
CONTINUOUS
 10
12.718100
 20
31.574500
 30
1.000000
 11
12.700100
 21
31.527900
 31
1.000000
  0
ARC
  8
1
 62
     7
  6
CONTINUOUS
 10
12.711360
 20
31.556997
 30
1.000000
 40
0.031200
 50
248.843797
 51
300.083905
  0
LINE
  8
1
 62
     7
  6
CONTINUOUS
 10
12.727000
 20
31.530000
 30
1.000000
 11
12.911600
 21
31.636500
 31
1.000000
  0
ARC
  8
1
 62
     7
  6
CONTINUOUS
 10
12.882680
 20
31.686545
 30
1.000000
 40
0.057800
 50
300.022602
 51
356.980300
  0
ARC
  8
1
 62
     7
  6
CONTINUOUS
 10
12.882680
 20
31.680455
 30
1.000000
 40
0.057800
 50
3.019700
 51
59.977398
  0
LINE
  8
1
 62
     7
  6
CONTINUOUS
 10
12.911600
 20
31.730500
 30
1.000000
 11
12.727000
 21
31.837000
 31
1.000000
  0
ARC
  8
1
 62
     7
  6
CONTINUOUS
 10
12.711321
 20
31.810026
 30
1.000000
 40
0.031200
 50
59.831780
 51
162.899968
  0
ARC
  8
1
 62
     7
  6
CONTINUOUS
 10
13.108038
 20
31.683514
 30
1.000000
 40
0.447600
 50
162.353572
 51
197.730687
  0
ARC
  8
1
 62
     7
  6
CONTINUOUS
 10
12.711316
 20
31.557014
 30
1.000000
 40
0.031200
 50
198.334091
 51
248.930821
  0
LINE
  8
1
 62
     7
  6
DOT
 10
12.700100
 20
31.527900
 30
1.000000
 11
13.497800
 21
31.574500
 31
1.000000
  0
LINE
  8
1
 62
     7
  6
CONTINUOUS
 10
13.497800
 20
31.574500
 30
1.000000
 11
13.515800
 21
31.527900
 31
1.000000
  0
ARC
  8
1
 62
     7
  6
CONTINUOUS
 10
13.504558
 20
31.557004
 30
1.000000
 40
0.031200
 50
291.120167
 51
343.034183
  0
ARC
  8
1
 62
     7
  6
CONTINUOUS
 10
13.107951
 20
31.683536
 30
1.000000
 40
0.447500
 50
342.356223
 51
377.728066
  0
ARC
  8
1
 62
     7
  6
CONTINUOUS
 10
13.504572
 20
31.810022
 30
1.000000
 40
0.031200
 50
18.264771
 51
120.152596
  0
LINE
  8
1
 62
     7
  6
CONTINUOUS
 10
13.488900
 20
31.837000
 30
1.000000
 11
13.304300
 21
31.730500
 31
1.000000
  0
ARC
  8
1
 62
     7
  6
CONTINUOUS
 10
13.333220
 20
31.680455
 30
1.000000
 40
0.057800
 50
120.022602
 51
176.980300
  0
ARC
  8
1
 62
     7
  6
CONTINUOUS
 10
13.333220
 20
31.686545
 30
1.000000
 40
0.057800
 50
183.019700
 51
239.977398
  0
LINE
  8
1
 62
     7
  6
CONTINUOUS
 10
13.304300
 20
31.636500
 30
1.000000
 11
13.488900
 21
31.530000
 31
1.000000
  0
ARC
  8
1
 62
     7
  6
CONTINUOUS
 10
13.504540
 20
31.556997
 30
1.000000
 40
0.031200
 50
239.916095
 51
291.156203
  0
LINE
  8
1
 62
     7
  6
DOT
 10
13.515800
 20
31.527900
 30
1.000000
 11
12.519000
 21
31.683500
 31
1.000000
  0
LINE
  8
1
 62
     7
  6
CONTINUOUS
 10
12.519000
 20
31.683500
 30
1.000000
 11
12.469000
 21
31.683500
 31
1.000000
  0
LINE
  8
1
 62
     7
  6
CONTINUOUS
 10
12.469000
 20
31.683500
 30
1.000000
 11
12.379500
 21
31.683500
 31
1.000000
  0
ARC
  8
1
 62
     7
  6
CONTINUOUS
 10
12.942600
 20
31.655414
 30
1.000000
 40
0.563800
 50
177.144586
 51
180.001410
  0
LINE
  8
1
 62
     7
  6
DOT
 10
12.378800
 20
31.655400
 30
1.000000
 11
13.811200
 21
31.683500
 31
1.000000
  0
LINE
  8
1
 62
     7
  6
CONTINUOUS
 10
13.811200
 20
31.683500
 30
1.000000
 11
13.761200
 21
31.683500
 31
1.000000
  0
LINE
  8
1
 62
     7
  6
CONTINUOUS
 10
13.761200
 20
31.683500
 30
1.000000
 11
13.671700
 21
31.683500
 31
1.000000
  0
ARC
  8
1
 62
     7
  6
CONTINUOUS
 10
14.234700
 20
31.655416
 30
1.000000
 40
0.563700
 50
177.144332
 51
180.001664
  0
LINE
  8
1
 62
     7
  6
DOT
 10
13.671000
 20
31.655400
 30
1.000000
 11
14.523100
 21
31.355900
 31
1.000000
  0
LINE
  8
1
 62
     7
  6
CONTINUOUS
 10
14.523100
 20
31.355900
 30
1.000000
 11
14.493400
 21
31.315700
 31
1.000000
  0
ARC
  8
1
 62
     7
  6
CONTINUOUS
 10
14.523083
 20
31.355936
 30
1.000000
 40
0.050000
 50
233.583353
 51
286.519836
  0
ARC
  8
1
 62
     7
  6
CONTINUOUS
 10
14.423075
 20
31.683511
 30
1.000000
 40
0.392500
 50
286.919015
 51
312.988201
  0
ARC
  8
1
 62
     7
  6
CONTINUOUS
 10
14.656792
 20
31.433146
 30
1.000000
 40
0.050000
 50
312.699995
 51
420.121685
  0
LINE
  8
1
 62
     7
  6
CONTINUOUS
 10
14.681700
 20
31.476500
 30
1.000000
 11
14.590900
 21
31.528900
 31
1.000000
  0
ARC
  8
1
 62
     7
  6
CONTINUOUS
 10
14.551600
 20
31.460946
 30
1.000000
 40
0.078500
 50
59.957840
 51
180.033506
  0
LINE
  8
1
 62
     7
  6
CONTINUOUS
 10
14.473100
 20
31.460900
 30
1.000000
 11
14.473100
 21
31.355900
 31
1.000000
  0
ARC
  8
1
 62
     7
  6
CONTINUOUS
 10
14.523100
 20
31.355923
 30
1.000000
 40
0.050000
 50
180.026649
 51
233.558631
  0
LINE
  8
1
 62
     7
  6
DOT
 10
14.493400
 20
31.315700
 30
1.000000
 11
14.089400
 21
31.606300
 31
1.000000
  0
LINE
  8
1
 62
     7
  6
CONTINUOUS
 10
14.089400
 20
31.606300
 30
1.000000
 11
14.069500
 21
31.560500
 31
1.000000
  0
ARC
  8
1
 62
     7
  6
CONTINUOUS
 10
14.089496
 20
31.606328
 30
1.000000
 40
0.050000
 50
246.426818
 51
299.477382
  0
LINE
  8
1
 62
     7
  6
CONTINUOUS
 10
14.114100
 20
31.562800
 30
1.000000
 11
14.205300
 21
31.615500
 31
1.000000
  0
ARC
  8
1
 62
     7
  6
CONTINUOUS
 10
14.166122
 20
31.683525
 30
1.000000
 40
0.078500
 50
299.939279
 51
419.554056
  0
LINE
  8
1
 62
     7
  6
CONTINUOUS
 10
14.205900
 20
31.751200
 30
1.000000
 11
14.114100
 21
31.804200
 31
1.000000
  0
ARC
  8
1
 62
     7
  6
CONTINUOUS
 10
14.089411
 20
31.760721
 30
1.000000
 40
0.050000
 50
60.410844
 51
166.962520
  0
ARC
  8
1
 62
     7
  6
CONTINUOUS
 10
14.423104
 20
31.683550
 30
1.000000
 40
0.392500
 50
166.976521
 51
193.023479
  0
ARC
  8
1
 62
     7
  6
CONTINUOUS
 10
14.089415
 20
31.606363
 30
1.000000
 40
0.050000
 50
193.017891
 51
246.528068
  0
LINE
  8
1
 62
     7
  6
DOT
 10
14.069500
 20
31.560500
 30
1.000000
 11
14.323100
 21
31.355900
 31
1.000000
  0
LINE
  8
1
 62
     7
  6
CONTINUOUS
 10
14.323100
 20
31.355900
 30
1.000000
 11
14.352900
 21
31.315700
 31
1.000000
  0
ARC
  8
1
 62
     7
  6
CONTINUOUS
 10
14.323100
 20
31.355849
 30
1.000000
 40
0.050000
 50
306.583916
 51
360.058166
  0
LINE
  8
1
 62
     7
  6
CONTINUOUS
 10
14.373100
 20
31.355900
 30
1.000000
 11
14.373100
 21
31.460900
 31
1.000000
  0
ARC
  8
1
 62
     7
  6
CONTINUOUS
 10
14.294600
 20
31.460862
 30
1.000000
 40
0.078500
 50
0.027763
 51
120.210931
  0
LINE
  8
1
 62
     7
  6
CONTINUOUS
 10
14.255100
 20
31.528700
 30
1.000000
 11
14.165000
 21
31.476700
 31
1.000000
  0
ARC
  8
1
 62
     7
  6
CONTINUOUS
 10
14.189464
 20
31.433094
 30
1.000000
 40
0.050000
 50
119.293532
 51
227.212282
  0
ARC
  8
1
 62
     7
  6
CONTINUOUS
 10
14.423125
 20
31.683511
 30
1.000000
 40
0.392500
 50
227.011799
 51
253.080985
  0
ARC
  8
1
 62
     7
  6
CONTINUOUS
 10
14.323189
 20
31.355915
 30
1.000000
 40
0.050000
 50
253.394942
 51
306.457549
  0
LINE
  8
1
 62
     7
  6
DOT
 10
14.352900
 20
31.315700
 30
1.000000
 11
14.756800
 21
31.606300
 31
1.000000
  0
LINE
  8
1
 62
     7
  6
CONTINUOUS
 10
14.756800
 20
31.606300
 30
1.000000
 11
14.776800
 21
31.560500
 31
1.000000
  0
ARC
  8
1
 62
     7
  6
CONTINUOUS
 10
14.756785
 20
31.606319
 30
1.000000
 40
0.050000
 50
293.597509
 51
347.503491
  0
ARC
  8
1
 62
     7
  6
CONTINUOUS
 10
14.423134
 20
31.683684
 30
1.000000
 40
0.392500
 50
347.016417
 51
373.048397
  0
ARC
  8
1
 62
     7
  6
CONTINUOUS
 10
14.756860
 20
31.760718
 30
1.000000
 40
0.050000
 50
13.393482
 51
119.814778
  0
LINE
  8
1
 62
     7
  6
CONTINUOUS
 10
14.732000
 20
31.804100
 30
1.000000
 11
14.641400
 21
31.751800
 31
1.000000
  0
ARC
  8
1
 62
     7
  6
CONTINUOUS
 10
14.680159
 20
31.683536
 30
1.000000
 40
0.078500
 50
119.586728
 51
240.076981
  0
LINE
  8
1
 62
     7
  6
CONTINUOUS
 10
14.641000
 20
31.615500
 30
1.000000
 11
14.732000
 21
31.562900
 31
1.000000
  0
ARC
  8
1
 62
     7
  6
CONTINUOUS
 10
14.756790
 20
31.606322
 30
1.000000
 40
0.050000
 50
240.276900
 51
293.590129
  0
LINE
  8
1
 62
     7
  6
DOT
 10
14.776800
 20
31.560500
 30
1.000000
 11
14.439600
 21
31.720300
 31
1.000000
  0
LINE
  8
1
 62
     7
  6
CONTINUOUS
 10
14.439600
 20
31.720300
 30
1.000000
 11
14.452600
 21
31.672000
 31
1.000000
  0
ARC
  8
1
 62
     7
  6
CONTINUOUS
 10
14.448328
 20
31.687627
 30
1.000000
 40
0.016200
 50
285.288833
 51
330.299053
  0
LINE
  8
1
 62
     7
  6
CONTINUOUS
 10
14.462400
 20
31.679600
 30
1.000000
 11
14.543300
 21
31.819600
 31
1.000000
  0
ARC
  8
1
 62
     7
  6
CONTINUOUS
 10
14.557346
 20
31.811528
 30
1.000000
 40
0.016200
 50
93.345993
 51
150.112719
  0
ARC
  8
1
 62
     7
  6
CONTINUOUS
 10
14.551582
 20
31.906052
 30
1.000000
 40
0.078500
 50
273.518611
 51
300.479671
  0
LINE
  8
1
 62
     7
  6
CONTINUOUS
 10
14.591400
 20
31.838400
 30
1.000000
 11
14.681700
 21
31.890500
 31
1.000000
  0
ARC
  8
1
 62
     7
  6
CONTINUOUS
 10
14.656792
 20
31.933854
 30
1.000000
 40
0.050000
 50
299.878315
 51
407.300005
  0
ARC
  8
1
 62
     7
  6
CONTINUOUS
 10
14.423040
 20
31.683521
 30
1.000000
 40
0.392500
 50
47.004824
 51
73.014609
  0
ARC
  8
1
 62
     7
  6
CONTINUOUS
 10
14.523099
 20
32.011079
 30
1.000000
 40
0.050000
 50
73.021334
 51
180.320081
  0
LINE
  8
1
 62
     7
  6
CONTINUOUS
 10
14.473100
 20
32.010800
 30
1.000000
 11
14.473100
 21
31.906100
 31
1.000000
  0
ARC
  8
1
 62
     7
  6
CONTINUOUS
 10
14.551600
 20
31.906131
 30
1.000000
 40
0.078500
 50
180.022873
 51
206.585511
  0
ARC
  8
1
 62
     7
  6
CONTINUOUS
 10
14.466915
 20
31.863746
 30
1.000000
 40
0.016200
 50
328.991923
 51
386.602881
  0
LINE
  8
1
 62
     7
  6
CONTINUOUS
 10
14.480800
 20
31.855400
 30
1.000000
 11
14.400100
 21
31.715600
 31
1.000000
  0
ARC
  8
1
 62
     7
  6
CONTINUOUS
 10
14.414210
 20
31.707439
 30
1.000000
 40
0.016300
 50
149.956301
 51
240.162246
  0
LINE
  8
1
 62
     7
  6
CONTINUOUS
 10
14.406100
 20
31.693300
 30
1.000000
 11
14.440200
 21
31.673600
 31
1.000000
  0
ARC
  8
1
 62
     7
  6
CONTINUOUS
 10
14.448326
 20
31.687730
 30
1.000000
 40
0.016300
 50
240.095639
 51
285.199602
  0
LINE
  8
1
 62
     7
  6
DOT
 10
14.452600
 20
31.672000
 30
1.000000
 11
14.234900
 21
31.907600
 31
1.000000
  0
LINE
  8
1
 62
     7
  6
CONTINUOUS
 10
14.234900
 20
31.907600
 30
1.000000
 11
14.209900
 21
31.864300
 31
1.000000
  0
LINE
  8
1
 62
     7
  6
CONTINUOUS
 10
14.209900
 20
31.864300
 30
1.000000
 11
14.255400
 21
31.838100
 31
1.000000
  0
ARC
  8
1
 62
     7
  6
CONTINUOUS
 10
14.294600
 20
31.906112
 30
1.000000
 40
0.078500
 50
240.042130
 51
359.991361
  0
LINE
  8
1
 62
     7
  6
CONTINUOUS
 10
14.373100
 20
31.906100
 30
1.000000
 11
14.373100
 21
32.011100
 31
1.000000
  0
ARC
  8
1
 62
     7
  6
CONTINUOUS
 10
14.323100
 20
32.011079
 30
1.000000
 40
0.050000
 50
0.023966
 51
106.977736
  0
ARC
  8
1
 62
     7
  6
CONTINUOUS
 10
14.423182
 20
31.683528
 30
1.000000
 40
0.392500
 50
106.988646
 51
133.039365
  0
ARC
  8
1
 62
     7
  6
CONTINUOUS
 10
14.189473
 20
31.933901
 30
1.000000
 40
0.050000
 50
133.114951
 51
239.770539
  0
LINE
  8
1
 62
     7
  6
CONTINUOUS
 10
14.164300
 20
31.890700
 30
1.000000
 11
14.209900
 21
31.864300
 31
1.000000
  0
LINE
  8
1
 62
     7
  6
DOT
 10
14.209900
 20
31.864300
 30
1.000000
 11
15.064200
 21
31.683500
 31
1.000000
  0
LINE
  8
1
 62
     7
  6
CONTINUOUS
 10
15.064200
 20
31.683500
 30
1.000000
 11
15.014200
 21
31.683500
 31
1.000000
  0
LINE
  8
1
 62
     7
  6
CONTINUOUS
 10
15.014200
 20
31.683500
 30
1.000000
 11
14.929400
 21
31.683500
 31
1.000000
  0
ARC
  8
1
 62
     7
  6
CONTINUOUS
 10
15.434700
 20
31.651694
 30
1.000000
 40
0.506300
 50
176.398244
 51
179.976651
  0
LINE
  8
1
 62
     7
  6
DOT
 10
14.928400
 20
31.651900
 30
1.000000
 11
10.174300
 21
32.499700
 31
1.000000
  0
LINE
  8
1
 62
     7
  6
CONTINUOUS
 10
10.174300
 20
32.499700
 30
1.000000
 11
10.206000
 21
32.461100
 31
1.000000
  0
ARC
  8
1
 62
     7
  6
CONTINUOUS
 10
10.175600
 20
32.498246
 30
1.000000
 40
0.048000
 50
309.296446
 51
359.944834
  0
LINE
  8
1
 62
     7
  6
CONTINUOUS
 10
10.223600
 20
32.498200
 30
1.000000
 11
10.223600
 21
32.651400
 31
1.000000
  0
ARC
  8
1
 62
     7
  6
CONTINUOUS
 10
10.175600
 20
32.651479
 30
1.000000
 40
0.048000
 50
359.905249
 51
433.913876
  0
ARC
  8
1
 62
     7
  6
CONTINUOUS
 10
10.278557
 20
33.009884
 30
1.000000
 40
0.324900
 50
207.512388
 51
253.981140
  0
ARC
  8
1
 62
     7
  6
CONTINUOUS
 10
9.947895
 20
32.837500
 30
1.000000
 40
0.048000
 50
27.683103
 51
89.874102
  0
LINE
  8
1
 62
     7
  6
CONTINUOUS
 10
9.948000
 20
32.885500
 30
1.000000
 11
9.785500
 21
32.885700
 31
1.000000
  0
ARC
  8
1
 62
     7
  6
CONTINUOUS
 10
9.785825
 20
32.837701
 30
1.000000
 40
0.048000
 50
90.387544
 51
199.219591
  0
ARC
  8
1
 62
     7
  6
CONTINUOUS
 10
10.278609
 20
33.009886
 30
1.000000
 40
0.570000
 50
199.256630
 51
258.615965
  0
ARC
  8
1
 62
     7
  6
CONTINUOUS
 10
10.175506
 20
32.498169
 30
1.000000
 40
0.048000
 50
258.698911
 51
309.441142
  0
LINE
  8
1
 62
     7
  6
DOT
 10
10.206000
 20
32.461100
 30
1.000000
 11
10.382900
 21
32.499700
 31
1.000000
  0
LINE
  8
1
 62
     7
  6
CONTINUOUS
 10
10.382900
 20
32.499700
 30
1.000000
 11
10.351200
 21
32.461100
 31
1.000000
  0
ARC
  8
1
 62
     7
  6
CONTINUOUS
 10
10.381656
 20
32.498201
 30
1.000000
 40
0.048000
 50
230.617513
 51
281.712780
  0
ARC
  8
1
 62
     7
  6
CONTINUOUS
 10
10.278606
 20
33.009928
 30
1.000000
 40
0.570000
 50
281.413275
 51
340.738843
  0
ARC
  8
1
 62
     7
  6
CONTINUOUS
 10
10.771375
 20
32.837701
 30
1.000000
 40
0.048000
 50
340.779940
 51
450.448181
  0
LINE
  8
1
 62
     7
  6
CONTINUOUS
 10
10.771000
 20
32.885700
 30
1.000000
 11
10.609300
 21
32.885500
 31
1.000000
  0
ARC
  8
1
 62
     7
  6
CONTINUOUS
 10
10.609358
 20
32.837500
 30
1.000000
 40
0.048000
 50
90.068926
 51
152.451501
  0
ARC
  8
1
 62
     7
  6
CONTINUOUS
 10
10.278617
 20
33.009953
 30
1.000000
 40
0.325000
 50
286.036758
 51
332.463381
  0
ARC
  8
1
 62
     7
  6
CONTINUOUS
 10
10.381599
 20
32.651450
 30
1.000000
 40
0.048000
 50
105.961203
 51
180.299002
  0
LINE
  8
1
 62
     7
  6
CONTINUOUS
 10
10.333600
 20
32.651200
 30
1.000000
 11
10.333600
 21
32.498200
 31
1.000000
  0
ARC
  8
1
 62
     7
  6
CONTINUOUS
 10
10.381600
 20
32.498246
 30
1.000000
 40
0.048000
 50
180.055166
 51
230.703554
  0
LINE
  8
1
 62
     7
  6
DOT
 10
10.351200
 20
32.461100
 30
1.000000
 11
8.528600
 21
32.314900
 31
1.000000
  0
LINE
  8
1
 62
     7
  6
DOT
 10
8.528600
 20
32.314900
 30
1.000000
 11
8.298600
 21
32.314900
 31
1.000000
  0
LINE
  8
1
 62
     7
  6
CONTINUOUS
 10
8.298600
 20
32.314900
 30
1.000000
 11
8.348600
 21
32.314900
 31
1.000000
  0
LINE
  8
1
 62
     7
  6
CONTINUOUS
 10
8.348600
 20
32.314900
 30
1.000000
 11
8.348600
 21
32.664200
 31
1.000000
  0
ARC
  8
1
 62
     7
  6
CONTINUOUS
 10
8.364597
 20
32.663900
 30
1.000000
 40
0.016000
 50
89.989928
 51
178.925642
  0
LINE
  8
1
 62
     7
  6
CONTINUOUS
 10
8.364600
 20
32.679900
 30
1.000000
 11
8.567600
 21
32.679900
 31
1.000000
  0
ARC
  8
1
 62
     7
  6
CONTINUOUS
 10
8.567603
 20
32.695900
 30
1.000000
 40
0.016000
 50
269.989928
 51
361.074360
  0
LINE
  8
1
 62
     7
  6
CONTINUOUS
 10
8.583600
 20
32.696200
 30
1.000000
 11
8.583600
 21
32.993900
 31
1.000000
  0
ARC
  8
1
 62
     7
  6
CONTINUOUS
 10
8.599600
 20
32.993900
 30
1.000000
 40
0.016000
 50
90.000000
 51
180.000000
  0
LINE
  8
1
 62
     7
  6
CONTINUOUS
 10
8.599600
 20
33.009900
 30
1.000000
 11
10.913000
 21
33.009900
 31
1.000000
  0
ARC
  8
1
 62
     7
  6
CONTINUOUS
 10
10.912998
 20
32.947400
 30
1.000000
 40
0.062500
 50
354.399016
 51
449.998526
  0
ARC
  8
1
 62
     7
  6
CONTINUOUS
 10
10.278597
 20
33.010183
 30
1.000000
 40
0.700000
 50
190.310106
 51
354.352708
  0
LINE
  8
1
 62
     7
  6
CONTINUOUS
 10
9.589900
 20
32.884900
 30
1.000000
 11
8.879100
 21
32.884900
 31
1.000000
  0
ARC
  8
1
 62
     7
  6
CONTINUOUS
 10
8.879100
 20
32.868900
 30
1.000000
 40
0.016000
 50
90.000000
 51
180.000000
  0
LINE
  8
1
 62
     7
  6
CONTINUOUS
 10
8.863100
 20
32.868900
 30
1.000000
 11
8.863100
 21
31.965900
 31
1.000000
  0
ARC
  8
1
 62
     7
  6
CONTINUOUS
 10
8.847100
 20
31.965900
 30
1.000000
 40
0.016000
 50
270.000000
 51
360.000000
  0
LINE
  8
1
 62
     7
  6
CONTINUOUS
 10
8.847100
 20
31.949900
 30
1.000000
 11
8.770600
 21
31.949900
 31
1.000000
  0
LINE
  8
1
 62
     7
  6
CONTINUOUS
 10
8.770600
 20
31.949900
 30
1.000000
 11
8.770600
 21
32.333900
 31
1.000000
  0
ARC
  8
1
 62
     7
  6
CONTINUOUS
 10
8.754600
 20
32.333903
 30
1.000000
 40
0.016000
 50
359.989928
 51
448.925642
  0
LINE
  8
1
 62
     7
  6
CONTINUOUS
 10
8.754900
 20
32.349900
 30
1.000000
 11
8.714300
 21
32.349900
 31
1.000000
  0
ARC
  8
1
 62
     7
  6
CONTINUOUS
 10
8.714600
 20
32.333903
 30
1.000000
 40
0.016000
 50
91.074358
 51
180.010072
  0
LINE
  8
1
 62
     7
  6
CONTINUOUS
 10
8.698600
 20
32.333900
 30
1.000000
 11
8.698600
 21
31.965700
 31
1.000000
  0
ARC
  8
1
 62
     7
  6
CONTINUOUS
 10
8.682601
 20
31.965900
 30
1.000000
 40
0.016000
 50
269.995524
 51
359.283784
  0
LINE
  8
1
 62
     7
  6
CONTINUOUS
 10
8.682600
 20
31.949900
 30
1.000000
 11
8.364600
 21
31.949900
 31
1.000000
  0
ARC
  8
1
 62
     7
  6
CONTINUOUS
 10
8.364599
 20
31.965900
 30
1.000000
 40
0.016000
 50
180.716216
 51
270.004476
  0
LINE
  8
1
 62
     7
  6
CONTINUOUS
 10
8.348600
 20
31.965700
 30
1.000000
 11
8.348600
 21
32.284900
 31
1.000000
  0
LINE
  8
1
 62
     7
  6
DOT
 10
8.348600
 20
32.284900
 30
1.000000
 11
7.457100
 21
32.132900
 31
1.000000
  0
LINE
  8
1
 62
     7
  6
DOT
 10
7.457100
 20
32.132900
 30
1.000000
 11
11.035400
 21
30.747700
 31
1.000000
  0
LINE
  8
1
 62
     7
  6
CONTINUOUS
 10
11.035400
 20
30.747700
 30
1.000000
 11
10.957100
 21
30.803700
 31
1.000000
  0
LINE
  8
1
 62
     7
  6
CONTINUOUS
 10
10.957100
 20
30.803700
 30
1.000000
 11
10.700100
 21
30.803700
 31
1.000000
  0
LINE
  8
1
 62
     7
  6
CONTINUOUS
 10
10.700100
 20
30.803700
 30
1.000000
 11
10.700100
 21
31.018700
 31
1.000000
  0
LINE
  8
1
 62
     7
  6
CONTINUOUS
 10
10.700100
 20
31.018700
 30
1.000000
 11
10.628100
 21
31.018700
 31
1.000000
  0
LINE
  8
1
 62
     7
  6
CONTINUOUS
 10
10.628100
 20
31.018700
 30
1.000000
 11
10.628100
 21
30.803700
 31
1.000000
  0
LINE
  8
1
 62
     7
  6
CONTINUOUS
 10
10.628100
 20
30.803700
 30
1.000000
 11
9.616100
 21
30.803700
 31
1.000000
  0
LINE
  8
1
 62
     7
  6
CONTINUOUS
 10
9.616100
 20
30.803700
 30
1.000000
 11
9.616100
 21
31.018700
 31
1.000000
  0
LINE
  8
1
 62
     7
  6
CONTINUOUS
 10
9.616100
 20
31.018700
 30
1.000000
 11
9.544100
 21
31.018700
 31
1.000000
  0
LINE
  8
1
 62
     7
  6
CONTINUOUS
 10
9.544100
 20
31.018700
 30
1.000000
 11
9.544100
 21
30.803700
 31
1.000000
  0
LINE
  8
1
 62
     7
  6
CONTINUOUS
 10
9.544100
 20
30.803700
 30
1.000000
 11
8.477100
 21
30.803700
 31
1.000000
  0
LINE
  8
1
 62
     7
  6
CONTINUOUS
 10
8.477100
 20
30.803700
 30
1.000000
 11
8.477100
 21
31.018700
 31
1.000000
  0
LINE
  8
1
 62
     7
  6
CONTINUOUS
 10
8.477100
 20
31.018700
 30
1.000000
 11
8.405100
 21
31.018700
 31
1.000000
  0
LINE
  8
1
 62
     7
  6
CONTINUOUS
 10
8.405100
 20
31.018700
 30
1.000000
 11
8.405100
 21
30.803700
 31
1.000000
  0
LINE
  8
1
 62
     7
  6
CONTINUOUS
 10
8.405100
 20
30.803700
 30
1.000000
 11
7.275100
 21
30.803700
 31
1.000000
  0
LINE
  8
1
 62
     7
  6
CONTINUOUS
 10
7.275100
 20
30.803700
 30
1.000000
 11
7.275100
 21
31.018700
 31
1.000000
  0
LINE
  8
1
 62
     7
  6
CONTINUOUS
 10
7.275100
 20
31.018700
 30
1.000000
 11
7.203100
 21
31.018700
 31
1.000000
  0
LINE
  8
1
 62
     7
  6
CONTINUOUS
 10
7.203100
 20
31.018700
 30
1.000000
 11
7.203100
 21
30.803700
 31
1.000000
  0
LINE
  8
1
 62
     7
  6
CONTINUOUS
 10
7.203100
 20
30.803700
 30
1.000000
 11
6.833100
 21
30.803700
 31
1.000000
  0
LINE
  8
1
 62
     7
  6
CONTINUOUS
 10
6.833100
 20
30.803700
 30
1.000000
 11
6.833100
 21
31.523700
 31
1.000000
  0
LINE
  8
1
 62
     7
  6
CONTINUOUS
 10
6.833100
 20
31.523700
 30
1.000000
 11
6.761100
 21
31.523700
 31
1.000000
  0
LINE
  8
1
 62
     7
  6
CONTINUOUS
 10
6.761100
 20
31.523700
 30
1.000000
 11
6.761100
 21
30.803700
 31
1.000000
  0
LINE
  8
1
 62
     7
  6
CONTINUOUS
 10
6.761100
 20
30.803700
 30
1.000000
 11
6.638100
 21
30.803700
 31
1.000000
  0
LINE
  8
1
 62
     7
  6
CONTINUOUS
 10
6.638100
 20
30.803700
 30
1.000000
 11
6.638100
 21
32.095100
 31
1.000000
  0
LINE
  8
1
 62
     7
  6
DOT
 10
6.638100
 20
32.095100
 30
1.000000
 11
6.588100
 21
32.128700
 31
1.000000
  0
LINE
  8
1
 62
     7
  6
CONTINUOUS
 10
6.588100
 20
32.128700
 30
1.000000
 11
6.638100
 21
32.128700
 31
1.000000
  0
LINE
  8
1
 62
     7
  6
CONTINUOUS
 10
6.638100
 20
32.128700
 30
1.000000
 11
7.013100
 21
32.128700
 31
1.000000
  0
LINE
  8
1
 62
     7
  6
CONTINUOUS
 10
7.013100
 20
32.128700
 30
1.000000
 11
7.013100
 21
32.443700
 31
1.000000
  0
LINE
  8
1
 62
     7
  6
CONTINUOUS
 10
7.013100
 20
32.443700
 30
1.000000
 11
6.638100
 21
32.443700
 31
1.000000
  0
LINE
  8
1
 62
     7
  6
CONTINUOUS
 10
6.638100
 20
32.443700
 30
1.000000
 11
6.638100
 21
32.550200
 31
1.000000
  0
LINE
  8
1
 62
     7
  6
CONTINUOUS
 10
6.638100
 20
32.550200
 30
1.000000
 11
7.463100
 21
32.550200
 31
1.000000
  0
LINE
  8
1
 62
     7
  6
CONTINUOUS
 10
7.463100
 20
32.550200
 30
1.000000
 11
7.463100
 21
32.622200
 31
1.000000
  0
LINE
  8
1
 62
     7
  6
CONTINUOUS
 10
7.463100
 20
32.622200
 30
1.000000
 11
6.638100
 21
32.622200
 31
1.000000
  0
LINE
  8
1
 62
     7
  6
CONTINUOUS
 10
6.638100
 20
32.622200
 30
1.000000
 11
6.638100
 21
32.728700
 31
1.000000
  0
LINE
  8
1
 62
     7
  6
CONTINUOUS
 10
6.638100
 20
32.728700
 30
1.000000
 11
8.213100
 21
32.728700
 31
1.000000
  0
LINE
  8
1
 62
     7
  6
CONTINUOUS
 10
8.213100
 20
32.728700
 30
1.000000
 11
8.213100
 21
32.443700
 31
1.000000
  0
LINE
  8
1
 62
     7
  6
CONTINUOUS
 10
8.213100
 20
32.443700
 30
1.000000
 11
8.063100
 21
32.443700
 31
1.000000
  0
LINE
  8
1
 62
     7
  6
CONTINUOUS
 10
8.063100
 20
32.443700
 30
1.000000
 11
8.063100
 21
31.814700
 31
1.000000
  0
LINE
  8
1
 62
     7
  6
CONTINUOUS
 10
8.063100
 20
31.814700
 30
1.000000
 11
10.768100
 21
31.814700
 31
1.000000
  0
ARC
  8
1
 62
     7
  6
CONTINUOUS
 10
10.768100
 20
31.789700
 30
1.000000
 40
0.025000
 50
0.000000
 51
90.000000
  0
LINE
  8
1
 62
     7
  6
CONTINUOUS
 10
10.793100
 20
31.789700
 30
1.000000
 11
10.793100
 21
31.722700
 31
1.000000
  0
LINE
  8
1
 62
     7
  6
CONTINUOUS
 10
10.793100
 20
31.722700
 30
1.000000
 11
10.313100
 21
31.722700
 31
1.000000
  0
LINE
  8
1
 62
     7
  6
CONTINUOUS
 10
10.313100
 20
31.722700
 30
1.000000
 11
10.313100
 21
31.650700
 31
1.000000
  0
LINE
  8
1
 62
     7
  6
CONTINUOUS
 10
10.313100
 20
31.650700
 30
1.000000
 11
10.793100
 21
31.650700
 31
1.000000
  0
LINE
  8
1
 62
     7
  6
CONTINUOUS
 10
10.793100
 20
31.650700
 30
1.000000
 11
10.793100
 21
31.450700
 31
1.000000
  0
LINE
  8
1
 62
     7
  6
CONTINUOUS
 10
10.793100
 20
31.450700
 30
1.000000
 11
10.865100
 21
31.450700
 31
1.000000
  0
LINE
  8
1
 62
     7
  6
CONTINUOUS
 10
10.865100
 20
31.450700
 30
1.000000
 11
10.865100
 21
31.650700
 31
1.000000
  0
LINE
  8
1
 62
     7
  6
CONTINUOUS
 10
10.865100
 20
31.650700
 30
1.000000
 11
10.932100
 21
31.650700
 31
1.000000
  0
ARC
  8
1
 62
     7
  6
CONTINUOUS
 10
10.932100
 20
31.625700
 30
1.000000
 40
0.025000
 50
0.000000
 51
90.000000
  0
LINE
  8
1
 62
     7
  6
CONTINUOUS
 10
10.957100
 20
31.625700
 30
1.000000
 11
10.957100
 21
30.837200
 31
1.000000
  0
LINE
  8
1
 62
     7
  6
DOT
 10
10.957100
 20
30.837200
 30
1.000000
 11
5.138000
 21
31.438200
 31
1.000000
  0
LINE
  8
1
 62
     7
  6
CONTINUOUS
 10
5.138000
 20
31.438200
 30
1.000000
 11
5.115600
 21
31.371000
 31
1.000000
  0
ARC
  8
1
 62
     7
  6
CONTINUOUS
 10
5.115519
 20
31.433500
 30
1.000000
 40
0.062500
 50
270.073811
 51
315.765299
  0
LINE
  8
1
 62
     7
  6
CONTINUOUS
 10
5.160300
 20
31.389900
 30
1.000000
 11
6.006000
 21
32.256100
 31
1.000000
  0
ARC
  8
1
 62
     7
  6
CONTINUOUS
 10
6.050780
 20
32.212500
 30
1.000000
 40
0.062500
 50
89.982094
 51
135.765236
  0
LINE
  8
1
 62
     7
  6
CONTINUOUS
 10
6.050800
 20
32.275000
 30
1.000000
 11
6.064800
 21
32.275000
 31
1.000000
  0
ARC
  8
1
 62
     7
  6
CONTINUOUS
 10
6.064720
 20
32.212500
 30
1.000000
 40
0.062500
 50
315.765166
 51
449.926282
  0
LINE
  8
1
 62
     7
  6
CONTINUOUS
 10
6.109500
 20
32.168900
 30
1.000000
 11
5.985700
 21
32.045100
 31
1.000000
  0
LINE
  8
1
 62
     7
  6
CONTINUOUS
 10
5.985700
 20
32.045100
 30
1.000000
 11
6.036600
 21
31.994100
 31
1.000000
  0
LINE
  8
1
 62
     7
  6
CONTINUOUS
 10
6.036600
 20
31.994100
 30
1.000000
 11
6.115200
 21
32.072800
 31
1.000000
  0
ARC
  8
1
 62
     7
  6
CONTINUOUS
 10
6.159400
 20
32.028612
 30
1.000000
 40
0.062500
 50
359.989316
 51
495.007555
  0
LINE
  8
1
 62
     7
  6
CONTINUOUS
 10
6.221900
 20
32.028600
 30
1.000000
 11
6.221900
 21
31.815900
 31
1.000000
  0
ARC
  8
1
 62
     7
  6
CONTINUOUS
 10
6.159400
 20
31.815900
 30
1.000000
 40
0.062500
 50
270.000000
 51
360.000000
  0
LINE
  8
1
 62
     7
  6
CONTINUOUS
 10
6.159400
 20
31.753400
 30
1.000000
 11
5.791900
 21
31.753500
 31
1.000000
  0
LINE
  8
1
 62
     7
  6
CONTINUOUS
 10
5.791900
 20
31.753500
 30
1.000000
 11
5.681400
 21
31.753500
 31
1.000000
  0
ARC
  8
1
 62
     7
  6
CONTINUOUS
 10
5.681383
 20
31.691000
 30
1.000000
 40
0.062500
 50
89.984310
 51
135.637148
  0
LINE
  8
1
 62
     7
  6
CONTINUOUS
 10
5.636700
 20
31.734700
 30
1.000000
 11
5.385300
 21
31.477200
 31
1.000000
  0
ARC
  8
1
 62
     7
  6
CONTINUOUS
 10
5.429983
 20
31.433500
 30
1.000000
 40
0.062500
 50
135.637004
 51
270.107464
  0
LINE
  8
1
 62
     7
  6
CONTINUOUS
 10
5.430100
 20
31.371000
 30
1.000000
 11
5.791900
 21
31.371000
 31
1.000000
  0
LINE
  8
1
 62
     7
  6
CONTINUOUS
 10
5.791900
 20
31.371000
 30
1.000000
 11
5.791900
 21
31.285800
 31
1.000000
  0
LINE
  8
1
 62
     7
  6
CONTINUOUS
 10
5.791900
 20
31.285800
 30
1.000000
 11
5.237400
 21
31.285800
 31
1.000000
  0
LINE
  8
1
 62
     7
  6
CONTINUOUS
 10
5.237400
 20
31.285800
 30
1.000000
 11
5.237400
 21
31.213800
 31
1.000000
  0
LINE
  8
1
 62
     7
  6
CONTINUOUS
 10
5.237400
 20
31.213800
 30
1.000000
 11
5.791900
 21
31.213800
 31
1.000000
  0
LINE
  8
1
 62
     7
  6
CONTINUOUS
 10
5.791900
 20
31.213800
 30
1.000000
 11
5.791900
 21
31.128500
 31
1.000000
  0
LINE
  8
1
 62
     7
  6
CONTINUOUS
 10
5.791900
 20
31.128500
 30
1.000000
 11
4.649700
 21
31.128500
 31
1.000000
  0
LINE
  8
1
 62
     7
  6
CONTINUOUS
 10
4.649700
 20
31.128500
 30
1.000000
 11
4.483600
 21
31.185100
 31
1.000000
  0
ARC
  8
1
 62
     7
  6
CONTINUOUS
 10
4.495019
 20
31.249800
 30
1.000000
 40
0.065700
 50
100.009384
 51
259.990616
  0
LINE
  8
1
 62
     7
  6
CONTINUOUS
 10
4.483600
 20
31.314500
 30
1.000000
 11
4.649900
 21
31.371000
 31
1.000000
  0
LINE
  8
1
 62
     7
  6
CONTINUOUS
 10
4.649900
 20
31.371000
 30
1.000000
 11
5.082000
 21
31.371000
 31
1.000000
  0
LINE
  8
1
 62
     7
  6
CONTINUOUS
 10
5.082000
 20
31.371000
 30
1.000000
 11
5.003700
 21
31.415800
 31
1.000000
  0
LINE
  8
1
 62
     7
  6
DOT
 10
5.003700
 20
31.415800
 30
1.000000
 11
5.118300
 21
32.939700
 31
1.000000
  0
LINE
  8
1
 62
     7
  6
CONTINUOUS
 10
5.118300
 20
32.939700
 30
1.000000
 11
5.062400
 21
32.872600
 31
1.000000
  0
LINE
  8
1
 62
     7
  6
CONTINUOUS
 10
5.062400
 20
32.872600
 30
1.000000
 11
6.098800
 21
32.872600
 31
1.000000
  0
LINE
  8
1
 62
     7
  6
CONTINUOUS
 10
6.098800
 20
32.872600
 30
1.000000
 11
6.098800
 21
33.097600
 31
1.000000
  0
LINE
  8
1
 62
     7
  6
CONTINUOUS
 10
6.098800
 20
33.097600
 30
1.000000
 11
6.191800
 21
33.097600
 31
1.000000
  0
LINE
  8
1
 62
     7
  6
CONTINUOUS
 10
6.191800
 20
33.097600
 30
1.000000
 11
6.191800
 21
32.912600
 31
1.000000
  0
LINE
  8
1
 62
     7
  6
CONTINUOUS
 10
6.191800
 20
32.912600
 30
1.000000
 11
6.335800
 21
32.912600
 31
1.000000
  0
LINE
  8
1
 62
     7
  6
CONTINUOUS
 10
6.335800
 20
32.912600
 30
1.000000
 11
6.335800
 21
33.097600
 31
1.000000
  0
LINE
  8
1
 62
     7
  6
CONTINUOUS
 10
6.335800
 20
33.097600
 30
1.000000
 11
6.438800
 21
33.097600
 31
1.000000
  0
LINE
  8
1
 62
     7
  6
CONTINUOUS
 10
6.438800
 20
33.097600
 30
1.000000
 11
6.438800
 21
32.711600
 31
1.000000
  0
LINE
  8
1
 62
     7
  6
CONTINUOUS
 10
6.438800
 20
32.711600
 30
1.000000
 11
6.203800
 21
32.711600
 31
1.000000
  0
LINE
  8
1
 62
     7
  6
CONTINUOUS
 10
6.203800
 20
32.711600
 30
1.000000
 11
6.203800
 21
32.381600
 31
1.000000
  0
LINE
  8
1
 62
     7
  6
CONTINUOUS
 10
6.203800
 20
32.381600
 30
1.000000
 11
6.090800
 21
32.381600
 31
1.000000
  0
LINE
  8
1
 62
     7
  6
CONTINUOUS
 10
6.090800
 20
32.381600
 30
1.000000
 11
6.090800
 21
32.576600
 31
1.000000
  0
LINE
  8
1
 62
     7
  6
CONTINUOUS
 10
6.090800
 20
32.576600
 30
1.000000
 11
6.018800
 21
32.576600
 31
1.000000
  0
LINE
  8
1
 62
     7
  6
CONTINUOUS
 10
6.018800
 20
32.576600
 30
1.000000
 11
6.018800
 21
32.381600
 31
1.000000
  0
LINE
  8
1
 62
     7
  6
CONTINUOUS
 10
6.018800
 20
32.381600
 30
1.000000
 11
5.898800
 21
32.381600
 31
1.000000
  0
LINE
  8
1
 62
     7
  6
CONTINUOUS
 10
5.898800
 20
32.381600
 30
1.000000
 11
5.898800
 21
32.619100
 31
1.000000
  0
LINE
  8
1
 62
     7
  6
CONTINUOUS
 10
5.898800
 20
32.619100
 30
1.000000
 11
5.228800
 21
32.619100
 31
1.000000
  0
LINE
  8
1
 62
     7
  6
CONTINUOUS
 10
5.228800
 20
32.619100
 30
1.000000
 11
5.228800
 21
32.381600
 31
1.000000
  0
LINE
  8
1
 62
     7
  6
CONTINUOUS
 10
5.228800
 20
32.381600
 30
1.000000
 11
5.108800
 21
32.381600
 31
1.000000
  0
LINE
  8
1
 62
     7
  6
CONTINUOUS
 10
5.108800
 20
32.381600
 30
1.000000
 11
5.108800
 21
32.576600
 31
1.000000
  0
LINE
  8
1
 62
     7
  6
CONTINUOUS
 10
5.108800
 20
32.576600
 30
1.000000
 11
5.036800
 21
32.576600
 31
1.000000
  0
LINE
  8
1
 62
     7
  6
CONTINUOUS
 10
5.036800
 20
32.576600
 30
1.000000
 11
5.036800
 21
32.381600
 31
1.000000
  0
LINE
  8
1
 62
     7
  6
CONTINUOUS
 10
5.036800
 20
32.381600
 30
1.000000
 11
4.923800
 21
32.381600
 31
1.000000
  0
LINE
  8
1
 62
     7
  6
CONTINUOUS
 10
4.923800
 20
32.381600
 30
1.000000
 11
4.923800
 21
32.711600
 31
1.000000
  0
LINE
  8
1
 62
     7
  6
CONTINUOUS
 10
4.923800
 20
32.711600
 30
1.000000
 11
4.688800
 21
32.711600
 31
1.000000
  0
LINE
  8
1
 62
     7
  6
CONTINUOUS
 10
4.688800
 20
32.711600
 30
1.000000
 11
4.688800
 21
33.097600
 31
1.000000
  0
LINE
  8
1
 62
     7
  6
CONTINUOUS
 10
4.688800
 20
33.097600
 30
1.000000
 11
4.791800
 21
33.097600
 31
1.000000
  0
LINE
  8
1
 62
     7
  6
CONTINUOUS
 10
4.791800
 20
33.097600
 30
1.000000
 11
4.791800
 21
32.912600
 31
1.000000
  0
LINE
  8
1
 62
     7
  6
CONTINUOUS
 10
4.791800
 20
32.912600
 30
1.000000
 11
4.935800
 21
32.912600
 31
1.000000
  0
LINE
  8
1
 62
     7
  6
CONTINUOUS
 10
4.935800
 20
32.912600
 30
1.000000
 11
4.935800
 21
33.097600
 31
1.000000
  0
LINE
  8
1
 62
     7
  6
CONTINUOUS
 10
4.935800
 20
33.097600
 30
1.000000
 11
5.028800
 21
33.097600
 31
1.000000
  0
LINE
  8
1
 62
     7
  6
CONTINUOUS
 10
5.028800
 20
33.097600
 30
1.000000
 11
5.028800
 21
32.872600
 31
1.000000
  0
LINE
  8
1
 62
     7
  6
DOT
 10
5.028800
 20
32.872600
 30
1.000000
 11
10.393700
 21
26.450000
 31
1.000000
  0
LINE
  8
1
 62
     7
  6
CONTINUOUS
 10
10.393700
 20
26.450000
 30
1.000000
 11
10.393700
 21
26.500000
 31
1.000000
  0
LINE
  8
1
 62
     7
  6
CONTINUOUS
 10
10.393700
 20
26.500000
 30
1.000000
 11
4.500000
 21
26.500000
 31
1.000000
  0
ARC
  8
1
 62
     7
  6
CONTINUOUS
 10
4.500000
 20
27.000000
 30
1.000000
 40
0.500000
 50
180.000000
 51
270.000000
  0
LINE
  8
1
 62
     7
  6
CONTINUOUS
 10
4.000000
 20
27.000000
 30
1.000000
 11
4.000000
 21
32.688000
 31
1.000000
  0
ARC
  8
1
 62
     7
  6
CONTINUOUS
 10
4.500000
 20
32.688000
 30
1.000000
 40
0.500000
 50
90.000000
 51
180.000000
  0
LINE
  8
1
 62
     7
  6
CONTINUOUS
 10
4.500000
 20
33.188000
 30
1.000000
 11
16.317300
 21
33.188000
 31
1.000000
  0
ARC
  8
1
 62
     7
  6
CONTINUOUS
 10
16.317300
 20
32.688000
 30
1.000000
 40
0.500000
 50
0.000000
 51
90.000000
  0
LINE
  8
1
 62
     7
  6
CONTINUOUS
 10
16.817300
 20
32.688000
 30
1.000000
 11
16.817300
 21
27.000000
 31
1.000000
  0
ARC
  8
1
 62
     7
  6
CONTINUOUS
 10
16.317300
 20
27.000000
 30
1.000000
 40
0.500000
 50
270.000000
 51
360.000000
  0
LINE
  8
1
 62
     7
  6
CONTINUOUS
 10
16.317300
 20
26.500000
 30
1.000000
 11
10.423700
 21
26.500000
 31
1.000000
  0
ENDSEC
  0
EOF
