  0
SECTION
  2
HEADER
  9
$ACADVER
  1
AC1009
  9
$INSBASE
 10
0.0
 20
0.0
 30
0.0
  9
$EXTMIN
 10
-28.75046057232252
 20
-28.25
 30
0.0
  9
$EXTMAX
 10
27.5
 20
28.875791869429779
 30
0.0
  9
$LIMMIN
 10
0.0
 20
0.0
  9
$LIMMAX
 10
420.0
 20
297.0
  9
$ORTHOMODE
 70
     0
  9
$REGENMODE
 70
     1
  9
$FILLMODE
 70
     1
  9
$QTEXTMODE
 70
     0
  9
$MIRRTEXT
 70
     1
  9
$DRAGMODE
 70
     2
  9
$LTSCALE
 40
1.0
  9
$OSMODE
 70
  2487
  9
$ATTMODE
 70
     1
  9
$TEXTSIZE
 40
2.5
  9
$TRACEWID
 40
1.0
  9
$TEXTSTYLE
  7
STANDARD
  9
$CLAYER
  8
HOLDI1
  9
$CELTYPE
  6
BYLAYER
  9
$CECOLOR
 62
   256
  9
$DIMSCALE
 40
1.0
  9
$DIMASZ
 40
3.5
  9
$DIMEXO
 40
3.0
  9
$DIMDLI
 40
3.75
  9
$DIMRND
 40
0.0005
  9
$DIMDLE
 40
0.0
  9
$DIMEXE
 40
2.0
  9
$DIMTP
 40
0.0
  9
$DIMTM
 40
0.0
  9
$DIMTXT
 40
2.5
  9
$DIMCEN
 40
2.5
  9
$DIMTSZ
 40
0.0
  9
$DIMTOL
 70
     0
  9
$DIMLIM
 70
     0
  9
$DIMTIH
 70
     0
  9
$DIMTOH
 70
     0
  9
$DIMSE1
 70
     0
  9
$DIMSE2
 70
     0
  9
$DIMTAD
 70
     1
  9
$DIMZIN
 70
     1
  9
$DIMBLK
  1

  9
$DIMASO
 70
     1
  9
$DIMSHO
 70
     1
  9
$DIMPOST
  1

  9
$DIMAPOST
  1

  9
$DIMALT
 70
     0
  9
$DIMALTD
 70
     3
  9
$DIMALTF
 40
0.03937007874016
  9
$DIMLFAC
 40
1.0
  9
$DIMTOFL
 70
     1
  9
$DIMTVP
 40
0.0
  9
$DIMTIX
 70
     0
  9
$DIMSOXD
 70
     0
  9
$DIMSAH
 70
     0
  9
$DIMBLK1
  1

  9
$DIMBLK2
  1

  9
$DIMSTYLE
  2
ISO-25
  9
$DIMCLRD
 70
   256
  9
$DIMCLRE
 70
   256
  9
$DIMCLRT
 70
   256
  9
$DIMTFAC
 40
1.0
  9
$DIMGAP
 40
2.0
  9
$LUNITS
 70
     2
  9
$LUPREC
 70
     4
  9
$SKETCHINC
 40
1.0
  9
$FILLETRAD
 40
1.0
  9
$AUNITS
 70
     0
  9
$AUPREC
 70
     0
  9
$MENU
  1
.
  9
$ELEVATION
 40
0.0
  9
$PELEVATION
 40
0.0
  9
$THICKNESS
 40
0.0
  9
$LIMCHECK
 70
     0
  9
$BLIPMODE
 70
     0
  9
$CHAMFERA
 40
10.0
  9
$CHAMFERB
 40
10.0
  9
$SKPOLY
 70
     0
  9
$TDCREATE
 40
2453063.50471632
  9
$TDUPDATE
 40
2456662.0713751041
  9
$TDINDWG
 40
0.0373469097
  9
$TDUSRTIMER
 40
0.0373465394
  9
$USRTIMER
 70
     1
  9
$ANGBASE
 50
0.0
  9
$ANGDIR
 70
     0
  9
$PDMODE
 70
     0
  9
$PDSIZE
 40
0.0
  9
$PLINEWID
 40
0.0
  9
$COORDS
 70
     2
  9
$SPLFRAME
 70
     0
  9
$SPLINETYPE
 70
     6
  9
$SPLINESEGS
 70
     8
  9
$ATTDIA
 70
     0
  9
$ATTREQ
 70
     1
  9
$HANDLING
 70
     1
  9
$HANDSEED
  5
542
  9
$SURFTAB1
 70
     6
  9
$SURFTAB2
 70
     6
  9
$SURFTYPE
 70
     6
  9
$SURFU
 70
     6
  9
$SURFV
 70
     6
  9
$UCSNAME
  2

  9
$UCSORG
 10
0.0
 20
0.0
 30
0.0
  9
$UCSXDIR
 10
1.0
 20
0.0
 30
0.0
  9
$UCSYDIR
 10
0.0
 20
1.0
 30
0.0
  9
$PUCSNAME
  2

  9
$PUCSORG
 10
0.0
 20
0.0
 30
0.0
  9
$PUCSXDIR
 10
1.0
 20
0.0
 30
0.0
  9
$PUCSYDIR
 10
0.0
 20
1.0
 30
0.0
  9
$USERI1
 70
     0
  9
$USERI2
 70
     0
  9
$USERI3
 70
     0
  9
$USERI4
 70
     0
  9
$USERI5
 70
     0
  9
$USERR1
 40
0.0
  9
$USERR2
 40
0.0
  9
$USERR3
 40
0.0
  9
$USERR4
 40
0.0
  9
$USERR5
 40
0.0
  9
$WORLDVIEW
 70
     1
  9
$SHADEDGE
 70
     3
  9
$SHADEDIF
 70
    70
  9
$TILEMODE
 70
     1
  9
$MAXACTVP
 70
    48
  9
$PLIMCHECK
 70
     0
  9
$PEXTMIN
 10
1.0000000000000000E+020
 20
1.0000000000000000E+020
 30
1.0000000000000000E+020
  9
$PEXTMAX
 10
-1.0000000000000000E+020
 20
-1.0000000000000000E+020
 30
-1.0000000000000000E+020
  9
$PLIMMIN
 10
0.0
 20
0.0
  9
$PLIMMAX
 10
420.0
 20
297.0
  9
$UNITMODE
 70
     0
  9
$VISRETAIN
 70
     1
  9
$PLINEGEN
 70
     0
  9
$PSLTSCALE
 70
     1
  0
ENDSEC
  0
SECTION
  2
TABLES
  0
TABLE
  2
VPORT
 70
     4
  0
VPORT
  2
*ACTIVE
 70
     0
 10
0.0
 20
0.0
 11
1.0
 21
1.0
 12
81.485448942258344
 22
-10.723354065716951
 13
0.0
 23
0.0
 14
10.0
 24
10.0
 15
10.0
 25
10.0
 16
0.0
 26
0.0
 36
1.0
 17
0.0
 27
0.0
 37
0.0
 40
105.7130509615392
 41
3.037383177570093
 42
50.0
 43
0.0
 44
0.0
 50
0.0
 51
0.0
 71
     0
 72
   100
 73
     1
 74
     2
 75
     0
 76
     0
 77
     0
 78
     0
  0
ENDTAB
  0
TABLE
  2
LTYPE
 70
     1
  0
LTYPE
  2
CONTINUOUS
 70
     0
  3
Solid line
 72
    65
 73
     0
 40
0.0
  0
ENDTAB
  0
TABLE
  2
LAYER
 70
     6
  0
LAYER
  2
0
 70
     0
 62
     7
  6
CONTINUOUS
  0
LAYER
  2
HOLDI1
 70
     0
 62
     1
  6
CONTINUOUS
  0
LAYER
  2
HOLPUN
 70
     0
 62
     3
  6
CONTINUOUS
  0
LAYER
  2
DEFPOINTS
 70
     0
 62
     7
  6
CONTINUOUS
  0
LAYER
  2
HOLINF
 70
     0
 62
     7
  6
CONTINUOUS
  0
LAYER
  2
HOLOT1
 70
     0
 62
     2
  6
CONTINUOUS
  0
ENDTAB
  0
TABLE
  2
STYLE
 70
     1
  0
STYLE
  2
STANDARD
 70
     0
 40
2.5
 41
1.0
 50
0.0
 71
     0
 42
2.5
  3
romans.shx
  4

  0
ENDTAB
  0
TABLE
  2
VIEW
 70
     0
  0
ENDTAB
  0
TABLE
  2
UCS
 70
     0
  0
ENDTAB
  0
TABLE
  2
APPID
 70
     3
  0
APPID
  2
ACAD
 70
     0
  0
APPID
  2
TCAD
 70
     0
  0
APPID
  2
DCO15
 70
     0
  0
ENDTAB
  0
TABLE
  2
DIMSTYLE
 70
     2
  0
DIMSTYLE
  2
ISO-25
 70
     0
  3

  4

  5

  6

  7

 40
1.0
 41
3.5
 42
3.0
 43
3.75
 44
2.0
 45
0.0005
 46
0.0
 47
0.0
 48
0.0
140
2.5
141
2.5
142
0.0
143
0.03937007874016
144
1.0
145
0.0
146
1.0
147
2.0
 71
     0
 72
     0
 73
     0
 74
     0
 75
     0
 76
     0
 77
     1
 78
     1
170
     0
171
     3
172
     1
173
     0
174
     0
175
     0
176
   256
177
   256
178
   256
  0
DIMSTYLE
  2
STANDARD
 70
     0
  3

  4

  5

  6

  7

 40
1.0
 41
0.18
 42
0.0625
 43
0.38
 44
0.18
 45
0.0
 46
0.0
 47
0.0
 48
0.0
140
0.18
141
0.09
142
0.0
143
25.399999999999999
144
1.0
145
0.0
146
1.0
147
0.09
 71
     0
 72
     0
 73
     1
 74
     1
 75
     0
 76
     0
 77
     0
 78
     0
170
     0
171
     2
172
     0
173
     0
174
     0
175
     0
176
     0
177
     0
178
     0
  0
ENDTAB
  0
ENDSEC
  0
SECTION
  2
BLOCKS
  0
BLOCK
  8
0
  2
$MODEL_SPACE
 70
     0
 10
0.0
 20
0.0
 30
0.0
  3
$MODEL_SPACE
  1

  0
ENDBLK
  5
4FA
  8
0
  0
BLOCK
 67
     1
  8
0
  2
$PAPER_SPACE
 70
     0
 10
0.0
 20
0.0
 30
0.0
  3
$PAPER_SPACE
  1

  0
ENDBLK
  5
4F6
 67
     1
  8
0
  0
BLOCK
  8
0
  2
*D2
 70
     1
 10
0.0
 20
0.0
 30
0.0
  3
*D2
  1

  0
LINE
  5
40C
  8
HOLDI1
 10
-12.5
 20
-3.0
 30
0.0
 11
-12.5
 21
-28.25
 31
0.0
  0
LINE
  5
40D
  8
HOLDI1
 10
12.5
 20
-3.0
 30
0.0
 11
12.5
 21
-28.25
 31
0.0
  0
LINE
  5
40E
  8
HOLDI1
 10
-9.0000000000000036
 20
-26.25
 30
0.0
 11
8.9999999999999982
 21
-26.25
 31
0.0
  0
SOLID
  5
40F
  8
HOLDI1
 10
-9.0000000000000036
 20
-25.666666666666671
 30
0.0
 11
-9.0000000000000036
 21
-26.833333333333339
 31
0.0
 12
-12.5
 22
-26.25
 32
0.0
 13
-12.5
 23
-26.25
 33
0.0
  0
SOLID
  5
410
  8
HOLDI1
 10
8.9999999999999982
 20
-25.666666666666671
 30
0.0
 11
8.9999999999999982
 21
-26.833333333333339
 31
0.0
 12
12.5
 22
-26.25
 32
0.0
 13
12.5
 23
-26.25
 33
0.0
  0
INSERT
  5
411
  8
HOLDI1
  2
*U3
 10
0.0
 20
0.0
 30
0.0
  0
POINT
  5
412
  8
DEFPOINTS
 62
     0
 10
-12.5
 20
0.0
 30
0.0
  0
POINT
  5
413
  8
DEFPOINTS
 62
     0
 10
12.5
 20
0.0
 30
0.0
  0
POINT
  5
414
  8
DEFPOINTS
 62
     0
 10
12.5
 20
-26.25
 30
0.0
  0
ENDBLK
  5
33F
  8
0
  0
BLOCK
  8
0
  2
*U3
 70
     1
 10
0.0
 20
0.0
 30
0.0
  3
*U3
  1

  0
TEXT
  5
4BD
  8
HOLDI1
 10
-4.1666666666666661
 20
-24.25
 30
0.0
 40
2.5
  1
25.0
  0
ENDBLK
  5
4BF
  8
0
  0
BLOCK
  8
0
  2
*D4
 70
     1
 10
0.0
 20
0.0
 30
0.0
  3
*D4
  1

  0
LINE
  5
415
  8
HOLDI1
 10
-10.249999999999989
 20
0.6500000000000057
 30
0.0
 11
-10.249999999999989
 21
-18.25142689415463
 31
0.0
  0
LINE
  5
416
  8
HOLDI1
 10
-7.8822687068285022
 20
-7.7780714367035522
 30
0.0
 11
-6.0995607761907351
 21
-17.888310513417991
 31
0.0
  0
ARC
  5
417
  8
HOLDI1
 10
-10.249999999999989
 20
5.6500000000000012
 30
0.0
 40
21.901426894154639
 50
251.60861905123289
 51
270.0
  0
LINE
  5
418
  8
HOLDI1
 10
-17.160038014669698
 20
-15.132778318497721
 30
0.0
 11
-28.75046057232252
 21
-11.27909430897423
 31
0.0
  0
ARC
  5
419
  8
HOLDI1
 10
-10.249999999999989
 20
5.6500000000000012
 30
0.0
 40
21.901426894154639
 50
251.66793122373571
 51
260.83396561186788
  0
ARC
  5
41A
  8
HOLDI1
 10
-10.249999999999989
 20
5.6500000000000012
 30
0.0
 40
21.901426894154639
 50
289.16603438813189
 51
298.33206877626401
  0
ARC
  5
41B
  8
HOLDI1
 10
-10.249999999999989
 20
5.6500000000000012
 30
0.0
 40
21.901426894154639
 50
270.0
 51
279.99999999999989
  0
SOLID
  5
41C
  8
HOLDI1
 10
-13.692198764037601
 20
-15.39029656334762
 30
0.0
 11
-13.78541947867568
 21
-16.553232937133171
 31
0.0
 12
-10.249999999999989
 22
-16.25142689415463
 32
0.0
 13
-10.249999999999989
 23
-16.25142689415463
 33
0.0
  0
SOLID
  5
41D
  8
HOLDI1
 10
-2.9127405494023071
 20
-15.601996788664589
 30
0.0
 11
-3.2064868139696712
 21
-14.472915638718391
 31
0.0
 12
-6.4468571315245891
 22
-15.91869500739357
 32
0.0
 13
-6.4468571315245891
 23
-15.91869500739357
 33
0.0
  0
INSERT
  5
41E
  8
HOLDI1
  2
*U5
 10
0.0
 20
0.0
 30
0.0
  0
POINT
  5
41F
  8
DEFPOINTS
 62
     0
 10
-7.7073995283569241
 20
-16.103337280555369
 30
0.0
  0
POINT
  5
420
  8
DEFPOINTS
 62
     0
 10
-10.249999999999989
 20
5.6500000000000039
 30
0.0
  0
POINT
  5
421
  8
DEFPOINTS
 62
     0
 10
-10.04305416041799
 20
4.4763518223330747
 30
0.0
  0
POINT
  5
422
  8
DEFPOINTS
 62
     0
 10
-8.4032132398292863
 20
-4.8236481776669251
 30
0.0
  0
POINT
  5
423
  8
DEFPOINTS
 62
     0
 10
-10.249999999999989
 20
3.6500000000000061
 30
0.0
  0
ENDBLK
  5
351
  8
0
  0
BLOCK
  8
0
  2
*U5
 70
     1
 10
0.0
 20
0.0
 30
0.0
  3
*U5
  1

  0
TEXT
  5
4C1
  8
HOLDI1
 10
-26.89940350621487
 20
-9.7868982888405682
 30
0.0
 40
2.5
  1
10.0°
 50
341.60861905123289
  0
ENDBLK
  5
4C3
  8
0
  0
BLOCK
  8
0
  2
*D6
 70
     1
 10
0.0
 20
0.0
 30
0.0
  3
*D6
  1

  0
LINE
  5
424
  8
HOLDI1
 10
-10.249999999999989
 20
8.6500000000000057
 30
0.0
 11
-10.249999999999989
 21
18.25
 31
0.0
  0
LINE
  5
425
  8
HOLDI1
 10
10.25
 20
8.6500000000000057
 30
0.0
 11
10.25
 21
18.25
 31
0.0
  0
LINE
  5
426
  8
HOLDI1
 10
-6.749999999999992
 20
16.25
 30
0.0
 11
6.75
 21
16.25
 31
0.0
  0
SOLID
  5
427
  8
HOLDI1
 10
-6.749999999999992
 20
16.833333333333329
 30
0.0
 11
-6.749999999999992
 21
15.666666666666661
 31
0.0
 12
-10.249999999999989
 22
16.25
 32
0.0
 13
-10.249999999999989
 23
16.25
 33
0.0
  0
SOLID
  5
428
  8
HOLDI1
 10
6.75
 20
16.833333333333329
 30
0.0
 11
6.75
 21
15.666666666666661
 31
0.0
 12
10.25
 22
16.25
 32
0.0
 13
10.25
 23
16.25
 33
0.0
  0
INSERT
  5
429
  8
HOLDI1
  2
*U7
 10
0.0
 20
0.0
 30
0.0
  0
POINT
  5
42A
  8
DEFPOINTS
 62
     0
 10
-10.249999999999989
 20
5.6500000000000039
 30
0.0
  0
POINT
  5
42B
  8
DEFPOINTS
 62
     0
 10
10.25
 20
5.6500000000000039
 30
0.0
  0
POINT
  5
42C
  8
DEFPOINTS
 62
     0
 10
10.25
 20
16.25
 30
0.0
  0
ENDBLK
  5
35D
  8
0
  0
BLOCK
  8
0
  2
*U7
 70
     1
 10
0.0
 20
0.0
 30
0.0
  3
*U7
  1

  0
TEXT
  5
4C5
  8
HOLDI1
 10
-4.1666666666666607
 20
18.25
 30
0.0
 40
2.5
  1
20.5
  0
ENDBLK
  5
4C7
  8
0
  0
BLOCK
  8
0
  2
*D8
 70
     1
 10
0.0
 20
0.0
 30
0.0
  3
*D8
  1

  0
LINE
  5
42D
  8
HOLDI1
 10
12.05824640740579
 20
5.650000000000003
 30
0.0
 11
27.5
 21
5.6500000000000004
 31
0.0
  0
LINE
  5
42E
  8
HOLDI1
 10
10.41840548681707
 20
-5.6499999999999924
 30
0.0
 11
27.5
 21
-5.649999999999995
 31
0.0
  0
LINE
  5
42F
  8
HOLDI1
 10
25.5
 20
2.149999999999999
 30
0.0
 11
25.5
 21
-2.149999999999995
 31
0.0
  0
SOLID
  5
430
  8
HOLDI1
 10
24.916666666666671
 20
2.1499999999999999
 30
0.0
 11
26.083333333333329
 21
2.149999999999999
 31
0.0
 12
25.5
 22
5.6500000000000012
 32
0.0
 13
25.5
 23
5.6500000000000012
 33
0.0
  0
SOLID
  5
431
  8
HOLDI1
 10
24.916666666666671
 20
-2.149999999999995
 30
0.0
 11
26.083333333333329
 21
-2.149999999999995
 31
0.0
 12
25.5
 22
-5.649999999999995
 32
0.0
 13
25.5
 23
-5.649999999999995
 33
0.0
  0
INSERT
  5
432
  8
HOLDI1
  2
*U9
 10
0.0
 20
0.0
 30
0.0
  0
POINT
  5
433
  8
DEFPOINTS
 62
     0
 10
9.0582464074057896
 20
5.6500000000000039
 30
0.0
  0
POINT
  5
434
  8
DEFPOINTS
 62
     0
 10
7.418405486817079
 20
-5.6499999999999906
 30
0.0
  0
POINT
  5
435
  8
DEFPOINTS
 62
     0
 10
25.5
 20
-5.649999999999995
 30
0.0
  0
ENDBLK
  5
369
  8
0
  0
BLOCK
  8
0
  2
*U9
 70
     1
 10
0.0
 20
0.0
 30
0.0
  3
*U9
  1

  0
TEXT
  5
4C9
  8
HOLDI1
 10
23.5
 20
-4.3452380952380878
 30
0.0
 40
2.5
  1
11.3
 50
90.0
  0
ENDBLK
  5
4CB
  8
0
  0
BLOCK
  8
0
  2
*U10
 70
     1
 10
0.0
 20
0.0
 30
0.0
  3
*U10
  1

  0
SOLID
  5
4B0
  8
HOLDI1
 10
14.33692478937955
 20
3.0357840990328442
 30
0.0
 11
12.5
 21
0.0
 31
0.0
 12
13.25305293080784
 22
3.4674470523974099
 32
0.0
 13
13.25305293080784
 23
3.4674470523974099
 33
0.0
  0
POLYLINE
  5
4B1
  8
HOLDI1
 66
     1
 10
0.0
 20
0.0
 30
0.0
  0
VERTEX
  5
532
  8
HOLDI1
 10
13.794988860093691
 20
3.2516155757151282
 30
0.0
  0
VERTEX
  5
533
  8
HOLDI1
 10
23.502251615894242
 20
27.625791869429779
 30
0.0
  0
VERTEX
  5
534
  8
HOLDI1
 10
18.502251615894242
 20
27.625791869429779
 30
0.0
  0
SEQEND
  5
535
  8
HOLDI1
  0
ENDBLK
  5
4B7
  8
0
  0
BLOCK
  8
0
  2
*U11
 70
     1
 10
0.0
 20
0.0
 30
0.0
  3
*U11
  1

  0
TEXT
  5
4B9
  8
HOLDI1
 62
     1
 10
-23.854891241248581
 20
26.375791869429779
 30
0.0
 40
2.5
  1
2 HOLES 3.5mm DIA
  0
ENDBLK
  5
4BB
  8
0
  0
BLOCK
  8
0
  2
*U12
 70
     1
 10
0.0
 20
0.0
 30
0.0
  3
*U12
  1

  0
SOLID
  5
4CD
  8
HOLDI1
 10
-11.104021733740719
 20
8.602253827118151
 30
0.0
 11
-9.8242908505247666
 21
5.2927876096865409
 31
0.0
 12
-12.108187486247409
 22
8.0083159072950494
 32
0.0
 13
-12.108187486247409
 23
8.0083159072950494
 33
0.0
  0
POLYLINE
  5
4CE
  8
HOLDI1
 66
     1
 10
0.0
 20
0.0
 30
0.0
  0
VERTEX
  5
536
  8
HOLDI1
 10
-11.60610460999407
 20
8.3052848672065984
 30
0.0
  0
VERTEX
  5
537
  8
HOLDI1
 10
-20.250152865228419
 20
22.919703194810211
 30
0.0
  0
VERTEX
  5
538
  8
HOLDI1
 10
-15.25015286522841
 20
22.919703194810211
 30
0.0
  0
SEQEND
  5
539
  8
HOLDI1
  0
ENDBLK
  5
4D4
  8
0
  0
BLOCK
  8
0
  2
*U13
 70
     1
 10
0.0
 20
0.0
 30
0.0
  3
*U13
  1

  0
TEXT
  5
4D6
  8
HOLDI1
 10
-13.96443857951413
 20
21.669703194810211
 30
0.0
 40
2.5
  1
1.5mm RAD
  0
ENDBLK
  5
4D8
  8
0
  0
ENDSEC
  0
SECTION
  2
ENTITIES
  0
CIRCLE
  5
241
  8
HOLOT1
 62
     0
 10
-12.5
 20
0.0
 30
0.0
 40
1.75
  0
CIRCLE
  5
248
  8
HOLOT1
 62
     0
 10
12.5
 20
0.0
 30
0.0
 40
1.75
  0
LINE
  5
24D
  8
HOLOT1
 62
     0
 10
-7.9214885069568481
 20
-2.0812177100513041
 30
0.0
 11
-8.4504694490822327
 21
0.9187822899486944
 31
0.0
  0
ARC
  5
24E
  8
HOLOT1
 62
     0
 10
-5.507310266584156
 20
1.499999999999988
 30
0.0
 40
3.0000000000000102
 50
89.999999999971479
 51
191.1710827177337
  0
LINE
  5
24F
  8
HOLOT1
 62
     0
 10
-5.5073102665826479
 20
4.5
 30
0.0
 11
5.5073102665881617
 21
4.4999999999999432
 31
0.0
  0
ARC
  5
250
  8
HOLOT1
 62
     0
 10
5.5073102665851277
 20
1.4999999999999141
 30
0.0
 40
3.0000000000000231
 50
348.82891728134479
 51
89.99999999994219
  0
LINE
  5
251
  8
HOLOT1
 62
     0
 10
8.4504694490738785
 20
0.9187822899012836
 30
0.0
 11
7.9214885069568481
 21
-2.0812177100513609
 31
0.0
  0
ARC
  5
252
  8
HOLOT1
 62
     0
 10
4.978329324458775
 20
-1.499999999999911
 30
0.0
 40
3.0000000000000302
 50
269.99999999997112
 51
348.82891728226338
  0
LINE
  5
253
  8
HOLOT1
 62
     0
 10
4.9783293244572633
 20
-4.4999999999999432
 30
0.0
 11
-4.9783293244573761
 21
-4.4999999999999432
 31
0.0
  0
ARC
  5
254
  8
HOLOT1
 62
     0
 10
-4.9783293244588194
 20
-1.4999999999999769
 30
0.0
 40
2.999999999999964
 50
191.17108271773441
 51
270.00000000002728
  0
ENDSEC
  0
EOF
