  0
SECTION
  2
HEADER
  9
$ACADVER
  1
AC1009
  9
$INSBASE
 10
0.0
 20
0.0
 30
0.0
  9
$EXTMIN
 10
-40.750000000000007
 20
-20.876322251547759
 30
0.0
  9
$EXTMAX
 10
28.30575082809856
 20
30.75
 30
0.0
  9
$LIMMIN
 10
0.0
 20
0.0
  9
$LIMMAX
 10
420.0
 20
297.0
  9
$ORTHOMODE
 70
     0
  9
$REGENMODE
 70
     1
  9
$FILLMODE
 70
     1
  9
$QTEXTMODE
 70
     0
  9
$MIRRTEXT
 70
     1
  9
$DRAGMODE
 70
     2
  9
$LTSCALE
 40
1.0
  9
$OSMODE
 70
  2487
  9
$ATTMODE
 70
     1
  9
$TEXTSIZE
 40
2.5
  9
$TRACEWID
 40
1.0
  9
$TEXTSTYLE
  7
STANDARD
  9
$CLAYER
  8
HOLDI1
  9
$CELTYPE
  6
BYLAYER
  9
$CECOLOR
 62
   256
  9
$DIMSCALE
 40
1.0
  9
$DIMASZ
 40
3.5
  9
$DIMEXO
 40
2.0
  9
$DIMDLI
 40
3.75
  9
$DIMRND
 40
0.0005
  9
$DIMDLE
 40
0.0
  9
$DIMEXE
 40
2.0
  9
$DIMTP
 40
0.0
  9
$DIMTM
 40
0.0
  9
$DIMTXT
 40
2.5
  9
$DIMCEN
 40
2.5
  9
$DIMTSZ
 40
0.0
  9
$DIMTOL
 70
     0
  9
$DIMLIM
 70
     0
  9
$DIMTIH
 70
     0
  9
$DIMTOH
 70
     0
  9
$DIMSE1
 70
     0
  9
$DIMSE2
 70
     0
  9
$DIMTAD
 70
     1
  9
$DIMZIN
 70
     1
  9
$DIMBLK
  1

  9
$DIMASO
 70
     1
  9
$DIMSHO
 70
     1
  9
$DIMPOST
  1

  9
$DIMAPOST
  1

  9
$DIMALT
 70
     0
  9
$DIMALTD
 70
     3
  9
$DIMALTF
 40
0.03937007874016
  9
$DIMLFAC
 40
1.0
  9
$DIMTOFL
 70
     1
  9
$DIMTVP
 40
0.0
  9
$DIMTIX
 70
     0
  9
$DIMSOXD
 70
     0
  9
$DIMSAH
 70
     0
  9
$DIMBLK1
  1

  9
$DIMBLK2
  1

  9
$DIMSTYLE
  2
ISO-25
  9
$DIMCLRD
 70
     1
  9
$DIMCLRE
 70
     1
  9
$DIMCLRT
 70
     1
  9
$DIMTFAC
 40
1.0
  9
$DIMGAP
 40
2.0
  9
$LUNITS
 70
     2
  9
$LUPREC
 70
     4
  9
$SKETCHINC
 40
1.0
  9
$FILLETRAD
 40
1.0
  9
$AUNITS
 70
     0
  9
$AUPREC
 70
     0
  9
$MENU
  1
.
  9
$ELEVATION
 40
0.0
  9
$PELEVATION
 40
0.0
  9
$THICKNESS
 40
0.0
  9
$LIMCHECK
 70
     0
  9
$BLIPMODE
 70
     0
  9
$CHAMFERA
 40
10.0
  9
$CHAMFERB
 40
10.0
  9
$SKPOLY
 70
     0
  9
$TDCREATE
 40
2453063.50471632
  9
$TDUPDATE
 40
2456662.0724372109
  9
$TDINDWG
 40
0.0489521875
  9
$TDUSRTIMER
 40
0.0489521875
  9
$USRTIMER
 70
     1
  9
$ANGBASE
 50
0.0
  9
$ANGDIR
 70
     0
  9
$PDMODE
 70
     0
  9
$PDSIZE
 40
0.0
  9
$PLINEWID
 40
0.0
  9
$COORDS
 70
     2
  9
$SPLFRAME
 70
     0
  9
$SPLINETYPE
 70
     6
  9
$SPLINESEGS
 70
     8
  9
$ATTDIA
 70
     0
  9
$ATTREQ
 70
     1
  9
$HANDLING
 70
     1
  9
$HANDSEED
  5
509
  9
$SURFTAB1
 70
     6
  9
$SURFTAB2
 70
     6
  9
$SURFTYPE
 70
     6
  9
$SURFU
 70
     6
  9
$SURFV
 70
     6
  9
$UCSNAME
  2

  9
$UCSORG
 10
0.0
 20
0.0
 30
0.0
  9
$UCSXDIR
 10
1.0
 20
0.0
 30
0.0
  9
$UCSYDIR
 10
0.0
 20
1.0
 30
0.0
  9
$PUCSNAME
  2

  9
$PUCSORG
 10
0.0
 20
0.0
 30
0.0
  9
$PUCSXDIR
 10
1.0
 20
0.0
 30
0.0
  9
$PUCSYDIR
 10
0.0
 20
1.0
 30
0.0
  9
$USERI1
 70
     0
  9
$USERI2
 70
     0
  9
$USERI3
 70
     0
  9
$USERI4
 70
     0
  9
$USERI5
 70
     0
  9
$USERR1
 40
0.0
  9
$USERR2
 40
0.0
  9
$USERR3
 40
0.0
  9
$USERR4
 40
0.0
  9
$USERR5
 40
0.0
  9
$WORLDVIEW
 70
     1
  9
$SHADEDGE
 70
     3
  9
$SHADEDIF
 70
    70
  9
$TILEMODE
 70
     1
  9
$MAXACTVP
 70
    64
  9
$PLIMCHECK
 70
     0
  9
$PEXTMIN
 10
1.0000000000000000E+020
 20
1.0000000000000000E+020
 30
1.0000000000000000E+020
  9
$PEXTMAX
 10
-1.0000000000000000E+020
 20
-1.0000000000000000E+020
 30
-1.0000000000000000E+020
  9
$PLIMMIN
 10
0.0
 20
0.0
  9
$PLIMMAX
 10
420.0
 20
297.0
  9
$UNITMODE
 70
     0
  9
$VISRETAIN
 70
     1
  9
$PLINEGEN
 70
     0
  9
$PSLTSCALE
 70
     1
  0
ENDSEC
  0
SECTION
  2
TABLES
  0
TABLE
  2
VPORT
 70
     3
  0
VPORT
  2
*ACTIVE
 70
     0
 10
0.0
 20
0.0
 11
1.0
 21
1.0
 12
1.072088721060396
 22
-2.728922630327403
 13
0.0
 23
0.0
 14
10.0
 24
10.0
 15
10.0
 25
10.0
 16
0.0
 26
0.0
 36
1.0
 17
0.0
 27
0.0
 37
0.0
 40
25.82493497610611
 41
2.5657894736842102
 42
50.0
 43
0.0
 44
0.0
 50
0.0
 51
0.0
 71
     0
 72
   100
 73
     1
 74
     2
 75
     0
 76
     0
 77
     0
 78
     0
  0
ENDTAB
  0
TABLE
  2
LTYPE
 70
     1
  0
LTYPE
  2
CONTINUOUS
 70
     0
  3
Solid line
 72
    65
 73
     0
 40
0.0
  0
ENDTAB
  0
TABLE
  2
LAYER
 70
     6
  0
LAYER
  2
0
 70
     0
 62
     7
  6
CONTINUOUS
  0
LAYER
  2
HOLDI1
 70
     0
 62
     1
  6
CONTINUOUS
  0
LAYER
  2
HOLPUN
 70
     0
 62
     3
  6
CONTINUOUS
  0
LAYER
  2
HOLOT1
 70
     0
 62
     2
  6
CONTINUOUS
  0
LAYER
  2
HOLINF
 70
     0
 62
     7
  6
CONTINUOUS
  0
LAYER
  2
DEFPOINTS
 70
     0
 62
     7
  6
CONTINUOUS
  0
ENDTAB
  0
TABLE
  2
STYLE
 70
     1
  0
STYLE
  2
STANDARD
 70
     0
 40
2.5
 41
0.8349999999999997
 50
0.0
 71
     0
 42
2.5
  3
romans.shx
  4

  0
ENDTAB
  0
TABLE
  2
VIEW
 70
     0
  0
ENDTAB
  0
TABLE
  2
UCS
 70
     0
  0
ENDTAB
  0
TABLE
  2
APPID
 70
     3
  0
APPID
  2
ACAD
 70
     0
  0
APPID
  2
TCAD
 70
     0
  0
APPID
  2
DCO15
 70
     0
  0
ENDTAB
  0
TABLE
  2
DIMSTYLE
 70
     1
  0
DIMSTYLE
  2
ISO-25
 70
     0
  3

  4

  5

  6

  7

 40
1.0
 41
3.5
 42
2.0
 43
3.75
 44
2.0
 45
0.0005
 46
0.0
 47
0.0
 48
0.0
140
2.5
141
2.5
142
0.0
143
0.03937007874016
144
1.0
145
0.0
146
1.0
147
2.0
 71
     0
 72
     0
 73
     0
 74
     0
 75
     0
 76
     0
 77
     1
 78
     1
170
     0
171
     3
172
     1
173
     0
174
     0
175
     0
176
     1
177
     1
178
     1
  0
ENDTAB
  0
ENDSEC
  0
SECTION
  2
BLOCKS
  0
BLOCK
  8
0
  2
$MODEL_SPACE
 70
     0
 10
0.0
 20
0.0
 30
0.0
  3
$MODEL_SPACE
  1

  0
ENDBLK
  5
4CB
  8
0
  0
BLOCK
 67
     1
  8
0
  2
$PAPER_SPACE
 70
     0
 10
0.0
 20
0.0
 30
0.0
  3
$PAPER_SPACE
  1

  0
ENDBLK
  5
4C7
 67
     1
  8
0
  0
BLOCK
  8
0
  2
*D2
 70
     1
 10
0.0
 20
0.0
 30
0.0
  3
*D2
  1

  0
LINE
  5
41C
  8
HOLDI1
 62
     1
 10
-21.699999999999989
 20
7.7500000000000044
 30
0.0
 11
-21.699999999999989
 21
18.25
 31
0.0
  0
LINE
  5
41D
  8
HOLDI1
 62
     1
 10
21.699999999999989
 20
7.7500000000000062
 30
0.0
 11
21.699999999999989
 21
18.25
 31
0.0
  0
LINE
  5
41E
  8
HOLDI1
 62
     1
 10
-18.199999999999989
 20
16.25
 30
0.0
 11
18.199999999999989
 21
16.25
 31
0.0
  0
SOLID
  5
41F
  8
HOLDI1
 62
     1
 10
-18.199999999999989
 20
16.833333333333329
 30
0.0
 11
-18.199999999999989
 21
15.666666666666661
 31
0.0
 12
-21.699999999999989
 22
16.25
 32
0.0
 13
-21.699999999999989
 23
16.25
 33
0.0
  0
SOLID
  5
420
  8
HOLDI1
 62
     1
 10
18.199999999999989
 20
16.833333333333329
 30
0.0
 11
18.199999999999989
 21
15.666666666666661
 31
0.0
 12
21.699999999999989
 22
16.25
 32
0.0
 13
21.699999999999989
 23
16.25
 33
0.0
  0
INSERT
  5
421
  8
HOLDI1
  2
*U3
 10
0.0
 20
0.0
 30
0.0
  0
POINT
  5
422
  8
DEFPOINTS
 62
     0
 10
-21.699999999999989
 20
5.7500000000000044
 30
0.0
  0
POINT
  5
423
  8
DEFPOINTS
 62
     0
 10
21.699999999999989
 20
5.7500000000000062
 30
0.0
  0
POINT
  5
424
  8
DEFPOINTS
 62
     0
 10
21.699999999999989
 20
16.25
 30
0.0
  0
ENDBLK
  5
426
  8
0
  0
BLOCK
  8
0
  2
*U3
 70
     1
 10
0.0
 20
0.0
 30
0.0
  3
*U3
  1

  0
TEXT
  5
481
  8
HOLDI1
 62
     1
 10
-3.528869047619045
 20
18.25
 30
0.0
 40
2.5
  1
43.4
 41
0.8349999999999997
  0
ENDBLK
  5
483
  8
0
  0
BLOCK
  8
0
  2
*D4
 70
     1
 10
0.0
 20
0.0
 30
0.0
  3
*D4
  1

  0
LINE
  5
429
  8
HOLDI1
 62
     1
 10
-23.500000000000011
 20
2.0
 30
0.0
 11
-23.500000000000011
 21
28.25
 31
0.0
  0
LINE
  5
42A
  8
HOLDI1
 62
     1
 10
23.5
 20
2.0
 30
0.0
 11
23.5
 21
28.25
 31
0.0
  0
LINE
  5
42B
  8
HOLDI1
 62
     1
 10
-20.000000000000011
 20
26.25
 30
0.0
 11
20.0
 21
26.25
 31
0.0
  0
SOLID
  5
42C
  8
HOLDI1
 62
     1
 10
-20.000000000000011
 20
26.833333333333339
 30
0.0
 11
-20.000000000000011
 21
25.666666666666671
 31
0.0
 12
-23.500000000000011
 22
26.25
 32
0.0
 13
-23.500000000000011
 23
26.25
 33
0.0
  0
SOLID
  5
42D
  8
HOLDI1
 62
     1
 10
20.0
 20
26.833333333333339
 30
0.0
 11
20.0
 21
25.666666666666671
 31
0.0
 12
23.5
 22
26.25
 32
0.0
 13
23.5
 23
26.25
 33
0.0
  0
INSERT
  5
42E
  8
HOLDI1
  2
*U5
 10
0.0
 20
0.0
 30
0.0
  0
POINT
  5
42F
  8
DEFPOINTS
 62
     0
 10
-23.500000000000011
 20
0.0
 30
0.0
  0
POINT
  5
430
  8
DEFPOINTS
 62
     0
 10
23.5
 20
0.0
 30
0.0
  0
POINT
  5
431
  8
DEFPOINTS
 62
     0
 10
23.5
 20
26.25
 30
0.0
  0
ENDBLK
  5
433
  8
0
  0
BLOCK
  8
0
  2
*U5
 70
     1
 10
0.0
 20
0.0
 30
0.0
  3
*U5
  1

  0
TEXT
  5
485
  8
HOLDI1
 62
     1
 10
-3.479166666666671
 20
28.25
 30
0.0
 40
2.5
  1
47.0
 41
0.8349999999999997
  0
ENDBLK
  5
487
  8
0
  0
BLOCK
  8
0
  2
*D6
 70
     1
 10
0.0
 20
0.0
 30
0.0
  3
*D6
  1

  0
LINE
  5
436
  8
HOLDI1
 62
     1
 10
-23.699999999999999
 20
5.7500000000000062
 30
0.0
 11
-38.250000000000007
 21
5.7500000000000089
 31
0.0
  0
LINE
  5
437
  8
HOLDI1
 62
     1
 10
-20.868405486817078
 20
-5.5499999999999901
 30
0.0
 11
-38.250000000000007
 21
-5.5499999999999847
 31
0.0
  0
LINE
  5
438
  8
HOLDI1
 62
     1
 10
-36.250000000000007
 20
2.250000000000008
 30
0.0
 11
-36.250000000000007
 21
-2.0499999999999861
 31
0.0
  0
SOLID
  5
439
  8
HOLDI1
 62
     1
 10
-36.833333333333343
 20
2.250000000000008
 30
0.0
 11
-35.666666666666671
 21
2.250000000000008
 31
0.0
 12
-36.250000000000007
 22
5.750000000000008
 32
0.0
 13
-36.250000000000007
 23
5.750000000000008
 33
0.0
  0
SOLID
  5
43A
  8
HOLDI1
 62
     1
 10
-36.833333333333343
 20
-2.0499999999999861
 30
0.0
 11
-35.666666666666671
 21
-2.0499999999999861
 31
0.0
 12
-36.250000000000007
 22
-5.5499999999999874
 32
0.0
 13
-36.250000000000007
 23
-5.5499999999999874
 33
0.0
  0
INSERT
  5
43B
  8
HOLDI1
  2
*U7
 10
0.0
 20
0.0
 30
0.0
  0
POINT
  5
43C
  8
DEFPOINTS
 62
     0
 10
-21.699999999999989
 20
5.7500000000000044
 30
0.0
  0
POINT
  5
43D
  8
DEFPOINTS
 62
     0
 10
-18.868405486817078
 20
-5.5499999999999901
 30
0.0
  0
POINT
  5
43E
  8
DEFPOINTS
 62
     0
 10
-36.250000000000007
 20
-5.5499999999999874
 30
0.0
  0
ENDBLK
  5
440
  8
0
  0
BLOCK
  8
0
  2
*U7
 70
     1
 10
0.0
 20
0.0
 30
0.0
  3
*U7
  1

  0
TEXT
  5
489
  8
HOLDI1
 62
     1
 10
-38.250000000000007
 20
-3.5282738095238031
 30
0.0
 40
2.5
  1
11.3
 50
90.0
 41
0.8349999999999997
  0
ENDBLK
  5
48B
  8
0
  0
BLOCK
  8
0
  2
*D8
 70
     1
 10
0.0
 20
0.0
 30
0.0
  3
*D8
  1

  0
LINE
  5
445
  8
HOLDI1
 62
     1
 10
-21.699999999999989
 20
2.7500000000000062
 30
0.0
 11
-21.699999999999989
 21
-18.2785362490613
 31
0.0
  0
LINE
  5
446
  8
HOLDI1
 62
     1
 10
-19.505916884495431
 20
-6.6932636836913426
 30
0.0
 11
-17.52748846834675
 21
-17.913488791610451
 31
0.0
  0
ARC
  5
447
  8
HOLDI1
 62
     1
 10
-21.699999999999999
 20
5.7499999999999849
 30
0.0
 40
22.028536249061279
 50
251.7156538431615
 51
270.00000000000011
  0
LINE
  5
448
  8
HOLDI1
 62
     1
 10
-28.611079879192278
 20
-15.166342514398419
 30
0.0
 11
-38.921754486501513
 21
-11.75953772668656
 31
0.0
  0
ARC
  5
449
  8
HOLDI1
 62
     1
 10
-21.699999999999999
 20
5.7499999999999849
 30
0.0
 40
22.028536249061279
 50
251.77393539042129
 51
260.88696769521079
  0
ARC
  5
44A
  8
HOLDI1
 62
     1
 10
-21.699999999999999
 20
5.7499999999999849
 30
0.0
 40
22.028536249061279
 50
289.11303230478921
 51
298.22606460957883
  0
ARC
  5
44B
  8
HOLDI1
 62
     1
 10
-21.699999999999999
 20
5.7499999999999849
 30
0.0
 40
22.028536249061279
 50
270.00000000000011
 51
279.99999999999989
  0
SOLID
  5
44C
  8
HOLDI1
 62
     1
 10
-25.14259669480527
 20
-15.41899813199287
 30
0.0
 11
-25.235279506027169
 21
-16.581977498798281
 31
0.0
 12
-21.699999999999989
 22
-16.27853624906129
 32
0.0
 13
-21.699999999999989
 23
-16.27853624906129
 33
0.0
  0
SOLID
  5
44D
  8
HOLDI1
 62
     1
 10
-14.340522137034069
 20
-15.62880973714587
 30
0.0
 11
-14.633746135806369
 21
-14.499592841392399
 31
0.0
 12
-17.874784823680621
 22
-15.943873285586021
 32
0.0
 13
-17.874784823680621
 23
-15.943873285586021
 33
0.0
  0
INSERT
  5
44E
  8
HOLDI1
  2
*U9
 10
0.0
 20
0.0
 30
0.0
  0
POINT
  5
44F
  8
DEFPOINTS
 62
     0
 10
-19.142643032933211
 20
-16.129587167476501
 30
0.0
  0
POINT
  5
450
  8
DEFPOINTS
 62
     0
 10
-21.699999999999999
 20
5.7500000000000044
 30
0.0
  0
POINT
  5
451
  8
DEFPOINTS
 62
     0
 10
-21.493054160418001
 20
4.5763518223330717
 30
0.0
  0
POINT
  5
452
  8
DEFPOINTS
 62
     0
 10
-19.853213239829291
 20
-4.7236481776669272
 30
0.0
  0
POINT
  5
453
  8
DEFPOINTS
 62
     0
 10
-21.699999999999989
 20
4.7500000000000044
 30
0.0
  0
ENDBLK
  5
455
  8
0
  0
BLOCK
  8
0
  2
*U9
 70
     1
 10
0.0
 20
0.0
 30
0.0
  3
*U9
  1

  0
TEXT
  5
48D
  8
HOLDI1
 62
     1
 10
-36.961581553828871
 20
-10.30086201594083
 30
0.0
 40
2.5
  1
10.0°
 50
341.71565384316142
 41
0.8349999999999997
  0
ENDBLK
  5
48F
  8
0
  0
BLOCK
  8
0
  2
*U10
 70
     1
 10
0.0
 20
0.0
 30
0.0
  3
*U10
  1

  0
SOLID
  5
491
  8
HOLDI1
 10
23.765832171455919
 20
-3.5383062380744841
 30
0.0
 11
23.5
 21
0.0
 31
0.0
 12
24.89902164480678
 22
-3.260830602030699
 32
0.0
 13
24.89902164480678
 23
-3.260830602030699
 33
0.0
  0
POLYLINE
  5
492
  8
HOLDI1
 66
     1
 10
0.0
 20
0.0
 30
0.0
  0
VERTEX
  5
4F9
  8
HOLDI1
 10
24.33242690813135
 20
-3.3995684200525922
 30
0.0
  0
VERTEX
  5
4FA
  8
HOLDI1
 10
28.30575082809856
 20
-19.626322251547752
 30
0.0
  0
VERTEX
  5
4FB
  8
HOLDI1
 10
23.305750828098549
 20
-19.626322251547752
 30
0.0
  0
SEQEND
  5
4FC
  8
HOLDI1
  0
ENDBLK
  5
498
  8
0
  0
BLOCK
  8
0
  2
*U11
 70
     1
 10
0.0
 20
0.0
 30
0.0
  3
*U11
  1

  0
TEXT
  5
49A
  8
HOLDI1
 62
     1
 10
-12.39246345761574
 20
-20.876322251547752
 30
0.0
 40
2.5
  1
2 HOLES 3.5mm DIA
 41
0.8349999999999997
  0
ENDBLK
  5
49C
  8
0
  0
BLOCK
  8
0
  2
*U12
 70
     1
 10
0.0
 20
0.0
 30
0.0
  3
*U12
  1

  0
SOLID
  5
49E
  8
HOLDI1
 10
20.69299586587389
 20
-8.6617312174728571
 30
0.0
 11
19.5111930965036
 21
-5.3160444431189688
 31
0.0
 12
21.714202237590278
 22
-8.0975958990633679
 32
0.0
 13
21.714202237590278
 23
-8.0975958990633679
 33
0.0
  0
POLYLINE
  5
49F
  8
HOLDI1
 66
     1
 10
0.0
 20
0.0
 30
0.0
  0
VERTEX
  5
4FD
  8
HOLDI1
 10
21.20359905173208
 20
-8.3796635582681134
 30
0.0
  0
VERTEX
  5
4FE
  8
HOLDI1
 10
24.80423732151144
 20
-14.89759396140499
 30
0.0
  0
VERTEX
  5
4FF
  8
HOLDI1
 10
19.80423732151144
 20
-14.89759396140499
 30
0.0
  0
SEQEND
  5
500
  8
HOLDI1
  0
ENDBLK
  5
4A5
  8
0
  0
BLOCK
  8
0
  2
*U13
 70
     1
 10
0.0
 20
0.0
 30
0.0
  3
*U13
  1

  0
TEXT
  5
4A7
  8
HOLDI1
 62
     1
 10
-0.8838579165837996
 20
-16.14759396140499
 30
0.0
 40
2.5
  1
1.5mm RAD
 41
0.8349999999999997
  0
ENDBLK
  5
4A9
  8
0
  0
ENDSEC
  0
SECTION
  2
ENTITIES
  0
CIRCLE
  5
C1
  8
HOLPUN
 62
     0
 10
-23.500000000000011
 20
0.0
 30
0.0
 40
1.75
  0
CIRCLE
  5
C2
  8
HOLPUN
 62
     0
 10
23.5
 20
0.0
 30
0.0
 40
1.75
  0
LINE
  5
3E9
  8
HOLOT1
 62
     0
 10
16.978329324457238
 20
-4.4999999999999432
 30
0.0
 11
-16.978329324457381
 21
-4.4999999999999432
 31
0.0
  0
LINE
  5
3EA
  8
HOLOT1
 62
     0
 10
-17.507310266588298
 20
4.5
 30
0.0
 11
17.507310266589691
 21
4.4999999999999432
 31
0.0
  0
LINE
  5
3EE
  8
HOLOT1
 62
     0
 10
-19.921488506956969
 20
-2.0812177100513041
 30
0.0
 11
-20.450469449074021
 21
0.9187822899014007
 31
0.0
  0
ARC
  5
3F0
  8
HOLOT1
 62
     0
 10
-16.978329324458901
 20
-1.4999999999999241
 30
0.0
 40
3.000000000000016
 50
191.17108271773509
 51
270.00000000002871
  0
ARC
  5
3FD
  8
HOLOT1
 62
     0
 10
-17.5073102665853
 20
1.5000000000000071
 30
0.0
 40
2.9999999999999889
 50
90.000000000057383
 51
191.1710827186547
  0
LINE
  5
407
  8
HOLOT1
 62
     0
 10
20.450469449087759
 20
0.9187822899485167
 30
0.0
 11
19.921488506970711
 21
-2.081217710004124
 31
0.0
  0
ARC
  5
409
  8
HOLOT1
 62
     0
 10
16.978329324463321
 20
-1.4999999999999361
 30
0.0
 40
3.0000000000000062
 50
269.99999999988398
 51
348.82891728318339
  0
ARC
  5
40E
  8
HOLOT1
 62
     0
 10
17.507310266589691
 20
1.4999999999999241
 30
0.0
 40
3.0000000000000111
 50
348.82891728226411
 51
90.00000000002909
  0
ENDSEC
  0
EOF
