  0
SECTION
  2
HEADER
  9
$ACADVER
  1
AC1009
  9
$INSBASE
 10
0.0
 20
0.0
 30
0.0
  9
$EXTMIN
 10
-32.014330349916321
 20
-28.25
 30
0.0
  9
$EXTMAX
 10
31.66
 20
24.630299709726931
 30
0.0
  9
$LIMMIN
 10
0.0
 20
0.0
  9
$LIMMAX
 10
420.0
 20
297.0
  9
$ORTHOMODE
 70
     0
  9
$REGENMODE
 70
     1
  9
$FILLMODE
 70
     1
  9
$QTEXTMODE
 70
     0
  9
$MIRRTEXT
 70
     1
  9
$DRAGMODE
 70
     2
  9
$LTSCALE
 40
1.0
  9
$OSMODE
 70
  2487
  9
$ATTMODE
 70
     1
  9
$TEXTSIZE
 40
2.5
  9
$TRACEWID
 40
1.0
  9
$TEXTSTYLE
  7
STANDARD
  9
$CLAYER
  8
HOLDI1
  9
$CELTYPE
  6
BYLAYER
  9
$CECOLOR
 62
   256
  9
$DIMSCALE
 40
1.0
  9
$DIMASZ
 40
3.5
  9
$DIMEXO
 40
2.0
  9
$DIMDLI
 40
3.75
  9
$DIMRND
 40
0.0005
  9
$DIMDLE
 40
0.0
  9
$DIMEXE
 40
2.0
  9
$DIMTP
 40
0.0
  9
$DIMTM
 40
0.0
  9
$DIMTXT
 40
2.5
  9
$DIMCEN
 40
2.5
  9
$DIMTSZ
 40
0.0
  9
$DIMTOL
 70
     0
  9
$DIMLIM
 70
     0
  9
$DIMTIH
 70
     0
  9
$DIMTOH
 70
     0
  9
$DIMSE1
 70
     0
  9
$DIMSE2
 70
     0
  9
$DIMTAD
 70
     1
  9
$DIMZIN
 70
     1
  9
$DIMBLK
  1

  9
$DIMASO
 70
     1
  9
$DIMSHO
 70
     1
  9
$DIMPOST
  1

  9
$DIMAPOST
  1

  9
$DIMALT
 70
     0
  9
$DIMALTD
 70
     3
  9
$DIMALTF
 40
0.03937007874016
  9
$DIMLFAC
 40
1.0
  9
$DIMTOFL
 70
     1
  9
$DIMTVP
 40
0.0
  9
$DIMTIX
 70
     0
  9
$DIMSOXD
 70
     0
  9
$DIMSAH
 70
     0
  9
$DIMBLK1
  1

  9
$DIMBLK2
  1

  9
$DIMSTYLE
  2
ISO-25
  9
$DIMCLRD
 70
     1
  9
$DIMCLRE
 70
     1
  9
$DIMCLRT
 70
     1
  9
$DIMTFAC
 40
1.0
  9
$DIMGAP
 40
2.0
  9
$LUNITS
 70
     2
  9
$LUPREC
 70
     4
  9
$SKETCHINC
 40
1.0
  9
$FILLETRAD
 40
1.0
  9
$AUNITS
 70
     0
  9
$AUPREC
 70
     0
  9
$MENU
  1
.
  9
$ELEVATION
 40
0.0
  9
$PELEVATION
 40
0.0
  9
$THICKNESS
 40
0.0
  9
$LIMCHECK
 70
     0
  9
$BLIPMODE
 70
     0
  9
$CHAMFERA
 40
10.0
  9
$CHAMFERB
 40
10.0
  9
$SKPOLY
 70
     0
  9
$TDCREATE
 40
2453063.50471632
  9
$TDUPDATE
 40
2456662.1107998728
  9
$TDINDWG
 40
0.0531611806
  9
$TDUSRTIMER
 40
0.0531611806
  9
$USRTIMER
 70
     1
  9
$ANGBASE
 50
0.0
  9
$ANGDIR
 70
     0
  9
$PDMODE
 70
     0
  9
$PDSIZE
 40
0.0
  9
$PLINEWID
 40
0.0
  9
$COORDS
 70
     2
  9
$SPLFRAME
 70
     0
  9
$SPLINETYPE
 70
     6
  9
$SPLINESEGS
 70
     8
  9
$ATTDIA
 70
     0
  9
$ATTREQ
 70
     1
  9
$HANDLING
 70
     1
  9
$HANDSEED
  5
529
  9
$SURFTAB1
 70
     6
  9
$SURFTAB2
 70
     6
  9
$SURFTYPE
 70
     6
  9
$SURFU
 70
     6
  9
$SURFV
 70
     6
  9
$UCSNAME
  2

  9
$UCSORG
 10
0.0
 20
0.0
 30
0.0
  9
$UCSXDIR
 10
1.0
 20
0.0
 30
0.0
  9
$UCSYDIR
 10
0.0
 20
1.0
 30
0.0
  9
$PUCSNAME
  2

  9
$PUCSORG
 10
0.0
 20
0.0
 30
0.0
  9
$PUCSXDIR
 10
1.0
 20
0.0
 30
0.0
  9
$PUCSYDIR
 10
0.0
 20
1.0
 30
0.0
  9
$USERI1
 70
     0
  9
$USERI2
 70
     0
  9
$USERI3
 70
     0
  9
$USERI4
 70
     0
  9
$USERI5
 70
     0
  9
$USERR1
 40
0.0
  9
$USERR2
 40
0.0
  9
$USERR3
 40
0.0
  9
$USERR4
 40
0.0
  9
$USERR5
 40
0.0
  9
$WORLDVIEW
 70
     1
  9
$SHADEDGE
 70
     3
  9
$SHADEDIF
 70
    70
  9
$TILEMODE
 70
     1
  9
$MAXACTVP
 70
    64
  9
$PLIMCHECK
 70
     0
  9
$PEXTMIN
 10
1.0000000000000000E+020
 20
1.0000000000000000E+020
 30
1.0000000000000000E+020
  9
$PEXTMAX
 10
-1.0000000000000000E+020
 20
-1.0000000000000000E+020
 30
-1.0000000000000000E+020
  9
$PLIMMIN
 10
0.0
 20
0.0
  9
$PLIMMAX
 10
420.0
 20
297.0
  9
$UNITMODE
 70
     0
  9
$VISRETAIN
 70
     1
  9
$PLINEGEN
 70
     0
  9
$PSLTSCALE
 70
     1
  0
ENDSEC
  0
SECTION
  2
TABLES
  0
TABLE
  2
VPORT
 70
     3
  0
VPORT
  2
*ACTIVE
 70
     0
 10
0.0
 20
0.0
 11
1.0
 21
1.0
 12
13.586666297257519
 22
-9.1182039258446856
 13
0.0
 23
0.0
 14
10.0
 24
10.0
 15
10.0
 25
10.0
 16
0.0
 26
0.0
 36
1.0
 17
0.0
 27
0.0
 37
0.0
 40
56.836531174750853
 41
2.3901869158878499
 42
50.0
 43
0.0
 44
0.0
 50
0.0
 51
0.0
 71
     0
 72
   100
 73
     1
 74
     2
 75
     0
 76
     0
 77
     0
 78
     0
  0
ENDTAB
  0
TABLE
  2
LTYPE
 70
     1
  0
LTYPE
  2
CONTINUOUS
 70
     0
  3
Solid line
 72
    65
 73
     0
 40
0.0
  0
ENDTAB
  0
TABLE
  2
LAYER
 70
     6
  0
LAYER
  2
0
 70
     0
 62
     7
  6
CONTINUOUS
  0
LAYER
  2
HOLDI1
 70
     0
 62
     1
  6
CONTINUOUS
  0
LAYER
  2
DEFPOINTS
 70
     0
 62
     7
  6
CONTINUOUS
  0
LAYER
  2
HOLPUN
 70
     0
 62
     3
  6
CONTINUOUS
  0
LAYER
  2
HOLINF
 70
     0
 62
     7
  6
CONTINUOUS
  0
LAYER
  2
HOLOT1
 70
     0
 62
     2
  6
CONTINUOUS
  0
ENDTAB
  0
TABLE
  2
STYLE
 70
     1
  0
STYLE
  2
STANDARD
 70
     0
 40
2.5
 41
0.8349999999999997
 50
0.0
 71
     0
 42
2.5
  3
romans.shx
  4

  0
ENDTAB
  0
TABLE
  2
VIEW
 70
     0
  0
ENDTAB
  0
TABLE
  2
UCS
 70
     0
  0
ENDTAB
  0
TABLE
  2
APPID
 70
     3
  0
APPID
  2
ACAD
 70
     0
  0
APPID
  2
TCAD
 70
     0
  0
APPID
  2
DCO15
 70
     0
  0
ENDTAB
  0
TABLE
  2
DIMSTYLE
 70
     2
  0
DIMSTYLE
  2
ISO-25
 70
     0
  3

  4

  5

  6

  7

 40
1.0
 41
3.5
 42
2.0
 43
3.75
 44
2.0
 45
0.0005
 46
0.0
 47
0.0
 48
0.0
140
2.5
141
2.5
142
0.0
143
0.03937007874016
144
1.0
145
0.0
146
1.0
147
2.0
 71
     0
 72
     0
 73
     0
 74
     0
 75
     0
 76
     0
 77
     1
 78
     1
170
     0
171
     3
172
     1
173
     0
174
     0
175
     0
176
     1
177
     1
178
     1
  0
DIMSTYLE
  2
STANDARD
 70
     0
  3

  4

  5

  6

  7

 40
1.0
 41
0.18
 42
0.0625
 43
0.38
 44
0.18
 45
0.0
 46
0.0
 47
0.0
 48
0.0
140
0.18
141
0.09
142
0.0
143
25.399999999999999
144
1.0
145
0.0
146
1.0
147
0.09
 71
     0
 72
     0
 73
     1
 74
     1
 75
     0
 76
     0
 77
     0
 78
     0
170
     0
171
     2
172
     0
173
     0
174
     0
175
     0
176
     0
177
     0
178
     0
  0
ENDTAB
  0
ENDSEC
  0
SECTION
  2
BLOCKS
  0
BLOCK
  8
0
  2
$MODEL_SPACE
 70
     0
 10
0.0
 20
0.0
 30
0.0
  3
$MODEL_SPACE
  1

  0
ENDBLK
  5
4E1
  8
0
  0
BLOCK
 67
     1
  8
0
  2
$PAPER_SPACE
 70
     0
 10
0.0
 20
0.0
 30
0.0
  3
$PAPER_SPACE
  1

  0
ENDBLK
  5
4DD
 67
     1
  8
0
  0
BLOCK
  8
0
  2
*D2
 70
     1
 10
0.0
 20
0.0
 30
0.0
  3
*D2
  1

  0
LINE
  5
2F0
  8
HOLDI1
 62
     1
 10
-16.66
 20
-2.0
 30
0.0
 11
-16.66
 21
-28.25
 31
0.0
  0
LINE
  5
2F1
  8
HOLDI1
 62
     1
 10
16.659999999999989
 20
-2.0
 30
0.0
 11
16.659999999999989
 21
-28.25
 31
0.0
  0
LINE
  5
2F2
  8
HOLDI1
 62
     1
 10
-13.16
 20
-26.25
 30
0.0
 11
13.16
 21
-26.25
 31
0.0
  0
SOLID
  5
2F3
  8
HOLDI1
 62
     1
 10
-13.16
 20
-25.666666666666671
 30
0.0
 11
-13.16
 21
-26.833333333333339
 31
0.0
 12
-16.66
 22
-26.25
 32
0.0
 13
-16.66
 23
-26.25
 33
0.0
  0
SOLID
  5
2F4
  8
HOLDI1
 62
     1
 10
13.16
 20
-25.666666666666671
 30
0.0
 11
13.16
 21
-26.833333333333339
 31
0.0
 12
16.659999999999989
 22
-26.25
 32
0.0
 13
16.659999999999989
 23
-26.25
 33
0.0
  0
INSERT
  5
2F5
  8
HOLDI1
  2
*U3
 10
0.0
 20
0.0
 30
0.0
  0
POINT
  5
2F6
  8
DEFPOINTS
 62
     0
 10
-16.66
 20
0.0
 30
0.0
  0
POINT
  5
2F7
  8
DEFPOINTS
 62
     0
 10
16.659999999999989
 20
0.0
 30
0.0
  0
POINT
  5
2F8
  8
DEFPOINTS
 62
     0
 10
16.659999999999989
 20
-26.25
 30
0.0
  0
ENDBLK
  5
7D
  8
0
  0
BLOCK
  8
0
  2
*U3
 70
     1
 10
0.0
 20
0.0
 30
0.0
  3
*U3
  1

  0
TEXT
  5
4A3
  8
HOLDI1
 62
     1
 10
-4.4732142857142891
 20
-24.25
 30
0.0
 40
2.5
  1
33.32
 41
0.8349999999999997
  0
ENDBLK
  5
4A5
  8
0
  0
BLOCK
  8
0
  2
*D4
 70
     1
 10
0.0
 20
0.0
 30
0.0
  3
*D4
  1

  0
LINE
  5
2E1
  8
HOLDI1
 62
     1
 10
-14.79999999999999
 20
1.7500000000000051
 30
0.0
 11
-14.800000000000001
 21
-18.15142689415465
 31
0.0
  0
LINE
  5
2E2
  8
HOLDI1
 62
     1
 10
-12.60591688449543
 20
-6.6932636836913408
 30
0.0
 11
-10.64956077619073
 21
-17.788310513418011
 31
0.0
  0
ARC
  5
2E3
  8
HOLDI1
 62
     1
 10
-14.79999999999999
 20
5.7499999999999902
 30
0.0
 40
21.901426894154639
 50
251.60861905123289
 51
270.0
  0
LINE
  5
2E4
  8
HOLDI1
 62
     1
 10
-21.71003801466972
 20
-15.032778318497741
 30
0.0
 11
-32.014330349916321
 21
-11.606718017048561
 31
0.0
  0
ARC
  5
2E5
  8
HOLDI1
 62
     1
 10
-14.79999999999999
 20
5.7499999999999902
 30
0.0
 40
21.901426894154639
 50
251.66793122373571
 51
260.83396561186788
  0
ARC
  5
2E6
  8
HOLDI1
 62
     1
 10
-14.79999999999999
 20
5.7499999999999902
 30
0.0
 40
21.901426894154639
 50
289.16603438813189
 51
298.33206877626401
  0
ARC
  5
2E7
  8
HOLDI1
 62
     1
 10
-14.79999999999999
 20
5.7499999999999902
 30
0.0
 40
21.901426894154639
 50
270.0
 51
279.99999999999989
  0
SOLID
  5
2E8
  8
HOLDI1
 62
     1
 10
-18.2421987640376
 20
-15.29029656334764
 30
0.0
 11
-18.335419478675679
 21
-16.45323293713319
 31
0.0
 12
-14.800000000000001
 22
-16.15142689415465
 32
0.0
 13
-14.800000000000001
 23
-16.15142689415465
 33
0.0
  0
SOLID
  5
2E9
  8
HOLDI1
 62
     1
 10
-7.462740549402306
 20
-15.501996788664609
 30
0.0
 11
-7.7564868139696701
 21
-14.37291563871841
 31
0.0
 12
-10.996857131524591
 22
-15.81869500739359
 32
0.0
 13
-10.996857131524591
 23
-15.81869500739359
 33
0.0
  0
INSERT
  5
2EA
  8
HOLDI1
  2
*U5
 10
0.0
 20
0.0
 30
0.0
  0
POINT
  5
2EB
  8
DEFPOINTS
 62
     0
 10
-12.25739952835692
 20
-16.003337280555382
 30
0.0
  0
POINT
  5
2EC
  8
DEFPOINTS
 62
     0
 10
-14.79999999999999
 20
5.7500000000000062
 30
0.0
  0
POINT
  5
2ED
  8
DEFPOINTS
 62
     0
 10
-14.59305416041799
 20
4.5763518223330752
 30
0.0
  0
POINT
  5
2EE
  8
DEFPOINTS
 62
     0
 10
-12.953213239829291
 20
-4.7236481776669237
 30
0.0
  0
POINT
  5
2EF
  8
DEFPOINTS
 62
     0
 10
-14.79999999999999
 20
3.750000000000004
 30
0.0
  0
ENDBLK
  5
A4
  8
0
  0
BLOCK
  8
0
  2
*U5
 70
     1
 10
0.0
 20
0.0
 30
0.0
  3
*U5
  1

  0
TEXT
  5
49F
  8
HOLDI1
 62
     1
 10
-30.051435873164639
 20
-10.15170666718223
 30
0.0
 40
2.5
  1
10.0°
 50
341.60861905123289
 41
0.8349999999999997
  0
ENDBLK
  5
4A1
  8
0
  0
BLOCK
  8
0
  2
*D6
 70
     1
 10
0.0
 20
0.0
 30
0.0
  3
*D6
  1

  0
LINE
  5
2D8
  8
HOLDI1
 62
     1
 10
-14.79999999999999
 20
7.7500000000000044
 30
0.0
 11
-14.79999999999999
 21
18.350000000000001
 31
0.0
  0
LINE
  5
2D9
  8
HOLDI1
 62
     1
 10
14.79999999999999
 20
7.7500000000000044
 30
0.0
 11
14.79999999999999
 21
18.350000000000001
 31
0.0
  0
LINE
  5
2DA
  8
HOLDI1
 62
     1
 10
-11.29999999999999
 20
16.350000000000001
 30
0.0
 11
11.29999999999999
 21
16.350000000000001
 31
0.0
  0
SOLID
  5
2DB
  8
HOLDI1
 62
     1
 10
-11.29999999999999
 20
16.93333333333333
 30
0.0
 11
-11.29999999999999
 21
15.766666666666669
 31
0.0
 12
-14.79999999999999
 22
16.350000000000001
 32
0.0
 13
-14.79999999999999
 23
16.350000000000001
 33
0.0
  0
SOLID
  5
2DC
  8
HOLDI1
 62
     1
 10
11.29999999999999
 20
16.93333333333333
 30
0.0
 11
11.29999999999999
 21
15.766666666666669
 31
0.0
 12
14.79999999999999
 22
16.350000000000001
 32
0.0
 13
14.79999999999999
 23
16.350000000000001
 33
0.0
  0
INSERT
  5
2DD
  8
HOLDI1
  2
*U7
 10
0.0
 20
0.0
 30
0.0
  0
POINT
  5
2DE
  8
DEFPOINTS
 62
     0
 10
-14.79999999999999
 20
5.7500000000000044
 30
0.0
  0
POINT
  5
2DF
  8
DEFPOINTS
 62
     0
 10
14.79999999999999
 20
5.7500000000000044
 30
0.0
  0
POINT
  5
2E0
  8
DEFPOINTS
 62
     0
 10
14.79999999999999
 20
16.350000000000001
 30
0.0
  0
ENDBLK
  5
B1
  8
0
  0
BLOCK
  8
0
  2
*U7
 70
     1
 10
0.0
 20
0.0
 30
0.0
  3
*U7
  1

  0
TEXT
  5
49B
  8
HOLDI1
 62
     1
 10
-3.479166666666663
 20
18.350000000000001
 30
0.0
 40
2.5
  1
29.6
 41
0.8349999999999997
  0
ENDBLK
  5
49D
  8
0
  0
BLOCK
  8
0
  2
*D8
 70
     1
 10
0.0
 20
0.0
 30
0.0
  3
*D8
  1

  0
LINE
  5
2CF
  8
HOLDI1
 62
     1
 10
15.60824640740579
 20
5.7500000000000071
 30
0.0
 11
31.66
 21
5.7500000000000018
 31
0.0
  0
LINE
  5
2D0
  8
HOLDI1
 62
     1
 10
13.96840548681708
 20
-5.5499999999999909
 30
0.0
 11
31.66
 21
-5.5499999999999963
 31
0.0
  0
LINE
  5
2D1
  8
HOLDI1
 62
     1
 10
29.66
 20
2.2500000000000031
 30
0.0
 11
29.66
 21
-2.0499999999999949
 31
0.0
  0
SOLID
  5
2D2
  8
HOLDI1
 62
     1
 10
29.076666666666672
 20
2.2500000000000031
 30
0.0
 11
30.243333333333329
 21
2.2500000000000031
 31
0.0
 12
29.66
 22
5.7500000000000018
 32
0.0
 13
29.66
 23
5.7500000000000018
 33
0.0
  0
SOLID
  5
2D3
  8
HOLDI1
 62
     1
 10
29.076666666666672
 20
-2.0499999999999949
 30
0.0
 11
30.243333333333329
 21
-2.0499999999999949
 31
0.0
 12
29.66
 22
-5.5499999999999963
 32
0.0
 13
29.66
 23
-5.5499999999999963
 33
0.0
  0
INSERT
  5
2D4
  8
HOLDI1
  2
*U9
 10
0.0
 20
0.0
 30
0.0
  0
POINT
  5
2D5
  8
DEFPOINTS
 62
     0
 10
13.60824640740579
 20
5.7500000000000071
 30
0.0
  0
POINT
  5
2D6
  8
DEFPOINTS
 62
     0
 10
11.968405486817071
 20
-5.5499999999999901
 30
0.0
  0
POINT
  5
2D7
  8
DEFPOINTS
 62
     0
 10
29.66
 20
-5.5499999999999963
 30
0.0
  0
ENDBLK
  5
1C6
  8
0
  0
BLOCK
  8
0
  2
*U9
 70
     1
 10
0.0
 20
0.0
 30
0.0
  3
*U9
  1

  0
TEXT
  5
497
  8
HOLDI1
 62
     1
 10
27.66
 20
-3.5282738095238
 30
0.0
 40
2.5
  1
11.3
 50
90.0
 41
0.8349999999999997
  0
ENDBLK
  5
499
  8
0
  0
BLOCK
  8
0
  2
*U10
 70
     1
 10
0.0
 20
0.0
 30
0.0
  3
*U10
  1

  0
SOLID
  5
4A7
  8
HOLDI1
 10
-16.857274457760301
 20
3.5427899410059802
 30
0.0
 11
-16.66
 21
0.0
 31
0.0
 12
-17.9956239273968
 22
3.2873068768131279
 32
0.0
 13
-17.9956239273968
 23
3.2873068768131279
 33
0.0
  0
POLYLINE
  5
4A8
  8
HOLDI1
 66
     1
 10
0.0
 20
0.0
 30
0.0
  0
VERTEX
  5
519
  8
HOLDI1
 10
-17.426449192578549
 20
3.4150484089095552
 30
0.0
  0
VERTEX
  5
51A
  8
HOLDI1
 10
-21.907308292325698
 20
23.380299709726931
 30
0.0
  0
VERTEX
  5
51B
  8
HOLDI1
 10
-16.907308292325691
 20
23.380299709726931
 30
0.0
  0
SEQEND
  5
51C
  8
HOLDI1
  0
ENDBLK
  5
4AE
  8
0
  0
BLOCK
  8
0
  2
*U11
 70
     1
 10
0.0
 20
0.0
 30
0.0
  3
*U11
  1

  0
TEXT
  5
4B0
  8
HOLDI1
 62
     1
 10
-15.205522578039981
 20
22.130299709726931
 30
0.0
 40
2.5
  1
2 HOLES 3.5mm DIA
 41
0.8349999999999997
  0
ENDBLK
  5
4B2
  8
0
  0
BLOCK
  8
0
  2
*U12
 70
     1
 10
0.0
 20
0.0
 30
0.0
  3
*U12
  1

  0
SOLID
  5
4B4
  8
HOLDI1
 10
-15.00610074280263
 20
8.8843623314700562
 30
0.0
 11
-14.374290850524771
 21
5.3927876096865432
 31
0.0
 12
-16.10435146920388
 22
8.4907172463105631
 32
0.0
 13
-16.10435146920388
 23
8.4907172463105631
 33
0.0
  0
POLYLINE
  5
4B5
  8
HOLDI1
 66
     1
 10
0.0
 20
0.0
 30
0.0
  0
VERTEX
  5
51D
  8
HOLDI1
 10
-15.55522610600325
 20
8.6875397888903052
 30
0.0
  0
VERTEX
  5
51E
  8
HOLDI1
 10
-17.31148261520423
 20
13.58741040761123
 30
0.0
  0
VERTEX
  5
51F
  8
HOLDI1
 10
-12.31148261520423
 20
13.58741040761123
 30
0.0
  0
SEQEND
  5
520
  8
HOLDI1
  0
ENDBLK
  5
4BB
  8
0
  0
BLOCK
  8
0
  2
*U13
 70
     1
 10
0.0
 20
0.0
 30
0.0
  3
*U13
  1

  0
TEXT
  5
4BD
  8
HOLDI1
 62
     1
 10
-10.9079111866328
 20
12.33741040761123
 30
0.0
 40
2.5
  1
1.5mm RAD
 41
0.8349999999999997
  0
ENDBLK
  5
4BF
  8
0
  0
ENDSEC
  0
SECTION
  2
ENTITIES
  0
POLYLINE
  5
23D
  8
HOLOT1
 62
     0
 66
     1
 10
0.0
 20
0.0
 30
0.0
 70
     1
  0
VERTEX
  5
510
  8
HOLOT1
 62
     0
 10
-18.16
 20
-6.25
 30
0.0
  0
VERTEX
  5
511
  8
HOLOT1
 62
     0
 10
18.16
 20
-6.25
 30
0.0
 42
0.4142135623730951
  0
VERTEX
  5
512
  8
HOLOT1
 62
     0
 10
19.66
 20
-4.75
 30
0.0
  0
VERTEX
  5
513
  8
HOLOT1
 62
     0
 10
19.66
 20
4.75
 30
0.0
 42
0.4142135623730951
  0
VERTEX
  5
514
  8
HOLOT1
 62
     0
 10
18.16
 20
6.25
 30
0.0
  0
VERTEX
  5
515
  8
HOLOT1
 62
     0
 10
-18.16
 20
6.25
 30
0.0
 42
0.4142135623730951
  0
VERTEX
  5
516
  8
HOLOT1
 62
     0
 10
-19.66
 20
4.75
 30
0.0
  0
VERTEX
  5
517
  8
HOLOT1
 62
     0
 10
-19.66
 20
-4.75
 30
0.0
 42
0.4142135623730951
  0
SEQEND
  5
518
  8
HOLOT1
 62
     0
  0
CIRCLE
  5
28C
  8
HOLPUN
 62
     0
 10
-16.660000000000011
 20
0.0
 30
0.0
 40
1.75
  0
CIRCLE
  5
28D
  8
HOLPUN
 62
     0
 10
16.659999999999989
 20
0.0
 30
0.0
 40
1.75
  0
LINE
  5
449
  8
HOLOT1
 62
     0
 10
12.61046944907118
 20
0.9187822899091029
 30
0.0
 11
12.081488506954139
 21
-2.0812177100435449
 31
0.0
  0
LINE
  5
44A
  8
HOLOT1
 62
     0
 10
-12.08148850695685
 20
-2.0812177100513041
 30
0.0
 11
-12.61046944908224
 21
0.9187822899486944
 31
0.0
  0
CIRCLE
  5
44B
  8
HOLOT1
 62
     0
 10
-16.66
 20
0.0
 30
0.0
 40
1.75
  0
LINE
  5
44D
  8
HOLOT1
 62
     0
 10
9.1383293244545563
 20
-4.4999999999921272
 30
0.0
 11
-9.1383293244573771
 21
-4.4999999999999432
 31
0.0
  0
ARC
  5
450
  8
HOLOT1
 62
     0
 10
-9.1383293244588142
 20
-1.4999999999999769
 30
0.0
 40
2.999999999999964
 50
191.17108271773441
 51
270.00000000002728
  0
ARC
  5
455
  8
HOLOT1
 62
     0
 10
9.1383293244560626
 20
-1.4999999999920981
 30
0.0
 40
3.0000000000000302
 50
269.99999999997112
 51
348.82891728226338
  0
LINE
  5
458
  8
HOLOT1
 62
     0
 10
-9.6673102665826587
 20
4.5
 30
0.0
 11
9.6673102665854707
 21
4.5000000000077591
 31
0.0
  0
ARC
  5
45A
  8
HOLOT1
 62
     0
 10
-9.6673102665841597
 20
1.499999999999988
 30
0.0
 40
3.0000000000000102
 50
89.999999999971081
 51
191.1710827177337
  0
ARC
  5
45F
  8
HOLOT1
 62
     0
 10
9.6673102665824295
 20
1.500000000007736
 30
0.0
 40
3.0000000000000231
 50
348.82891728134479
 51
89.99999999994219
  0
CIRCLE
  5
462
  8
HOLOT1
 62
     0
 10
16.659999999999989
 20
0.0
 30
0.0
 40
1.75
  0
ENDSEC
  0
EOF
