  0
SECTION
  2
HEADER
  9
$ACADVER
  1
AC1009
  9
$INSBASE
 10
0.0
 20
0.0
 30
0.0
  9
$EXTMIN
 10
326.800293
 20
266.386597
 30
0.0
  9
$EXTMAX
 10
569.01416
 20
342.386597
 30
0.0
  9
$LIMMIN
 10
0.0
 20
0.0
  9
$LIMMAX
 10
0.0
 20
0.0
  9
$ORTHOMODE
 70
     0
  9
$REGENMODE
 70
     1
  9
$FILLMODE
 70
     1
  9
$QTEXTMODE
 70
     0
  9
$MIRRTEXT
 70
     1
  9
$DRAGMODE
 70
     2
  9
$LTSCALE
 40
1.0
  9
$OSMODE
 70
     0
  9
$ATTMODE
 70
     1
  9
$TEXTSIZE
 40
0.2
  9
$TRACEWID
 40
0.05
  9
$TEXTSTYLE
  7
STANDARD
  9
$CLAYER
  8
0
  9
$CELTYPE
  6
CONTINUOUS
  9
$CECOLOR
 62
   256
  9
$DIMSCALE
 40
1.0
  9
$DIMASZ
 40
0.18
  9
$DIMEXO
 40
0.0625
  9
$DIMDLI
 40
0.38
  9
$DIMRND
 40
0.0
  9
$DIMDLE
 40
0.0
  9
$DIMEXE
 40
0.18
  9
$DIMTP
 40
0.0
  9
$DIMTM
 40
0.0
  9
$DIMTXT
 40
0.18
  9
$DIMCEN
 40
0.09
  9
$DIMTSZ
 40
0.0
  9
$DIMTOL
 70
     0
  9
$DIMLIM
 70
     0
  9
$DIMTIH
 70
     1
  9
$DIMTOH
 70
     1
  9
$DIMSE1
 70
     0
  9
$DIMSE2
 70
     0
  9
$DIMTAD
 70
     0
  9
$DIMZIN
 70
     0
  9
$DIMBLK
  1

  9
$DIMASO
 70
     1
  9
$DIMSHO
 70
     1
  9
$DIMPOST
  1

  9
$DIMAPOST
  1

  9
$DIMALT
 70
     0
  9
$DIMALTD
 70
     2
  9
$DIMALTF
 40
25.4
  9
$DIMLFAC
 40
1.0
  9
$DIMTOFL
 70
     0
  9
$DIMTVP
 40
0.0
  9
$DIMTIX
 70
     0
  9
$DIMSOXD
 70
     0
  9
$DIMSAH
 70
     0
  9
$DIMBLK1
  1

  9
$DIMBLK2
  1

  9
$DIMSTYLE
  2
STANDARD
  9
$DIMCLRD
 70
     0
  9
$DIMCLRE
 70
     0
  9
$DIMCLRT
 70
     0
  9
$DIMTFAC
 40
1.0
  9
$DIMGAP
 40
0.09
  9
$LUNITS
 70
     2
  9
$LUPREC
 70
     4
  9
$AXISMODE
 70
     0
  9
$AXISUNIT
 10
0.0
 20
0.0
  9
$SKETCHINC
 40
0.1
  9
$FILLETRAD
 40
0.0
  9
$AUNITS
 70
     0
  9
$AUPREC
 70
     0
  9
$MENU
  1
acad
  9
$ELEVATION
 40
0.0
  9
$PELEVATION
 40
0.0
  9
$THICKNESS
 40
0.0
  9
$LIMCHECK
 70
     0
  9
$BLIPMODE
 70
     1
  9
$CHAMFERA
 40
0.0
  9
$CHAMFERB
 40
0.0
  9
$SKPOLY
 70
     0
  9
$TDCREATE
 40
0.000000000
  9
$TDUPDATE
 40
0.000000000
  9
$TDINDWG
 40
0.0000000000
  9
$TDUSRTIMER
 40
0.0000000000
  9
$USRTIMER
 70
     1
  9
$ANGBASE
 50
0.0
  9
$ANGDIR
 70
     0
  9
$PDMODE
 70
     0
  9
$PDSIZE
 40
0.0
  9
$PLINEWID
 40
0.0
  9
$COORDS
 70
     0
  9
$SPLFRAME
 70
     0
  9
$SPLINETYPE
 70
     6
  9
$SPLINESEGS
 70
     8
  9
$ATTDIA
 70
     0
  9
$ATTREQ
 70
     1
  9
$HANDLING
 70
     1
  9
$HANDSEED
  5
54
  9
$SURFTAB1
 70
     6
  9
$SURFTAB2
 70
     6
  9
$SURFTYPE
 70
     6
  9
$SURFU
 70
     6
  9
$SURFV
 70
     6
  9
$UCSNAME
  2

  9
$UCSORG
 10
0.0
 20
0.0
 30
0.0
  9
$UCSXDIR
 10
1.0
 20
0.0
 30
0.0
  9
$UCSYDIR
 10
0.0
 20
1.0
 30
0.0
  9
$PUCSNAME
  2

  9
$PUCSORG
 10
0.0
 20
0.0
 30
0.0
  9
$PUCSXDIR
 10
1.0
 20
0.0
 30
0.0
  9
$PUCSYDIR
 10
0.0
 20
1.0
 30
0.0
  9
$USERI1
 70
     0
  9
$USERI2
 70
     0
  9
$USERI3
 70
     0
  9
$USERI4
 70
     0
  9
$USERI5
 70
     0
  9
$USERR1
 40
0.0
  9
$USERR2
 40
0.0
  9
$USERR3
 40
0.0
  9
$USERR4
 40
0.0
  9
$USERR5
 40
0.0
  9
$WORLDVIEW
 70
     1
  9
$SHADEDGE
 70
     3
  9
$SHADEDIF
 70
    70
  9
$TILEMODE
 70
     1
  9
$MAXACTVP
 70
    16
  9
$PINSBASE
 10
0.0
 20
0.0
 30
0.0
  9
$PLIMCHECK
 70
     0
  9
$PEXTMIN
 10
1.000000E+20
 20
1.000000E+20
 30
1.000000E+20
  9
$PEXTMAX
 10
-1.000000E+20
 20
-1.000000E+20
 30
-1.000000E+20
  9
$PLIMMIN
 10
0.0
 20
0.0
  9
$PLIMMAX
 10
12.0
 20
9.0
  9
$UNITMODE
 70
     0
  9
$VISRETAIN
 70
     0
  9
$PLINEGEN
 70
     1
  9
$PSLTSCALE
 70
     0
  9
$TREEDEPTH
 70
  3020
  9
$DWGCODEPAGE
  3
dos850
  0
ENDSEC
  0
SECTION
  2
TABLES
  0
TABLE
  2
VPORT
 70
     1
  0
VPORT
  2
*ACTIVE
 70
     0
 10
0.0
 20
0.0
 11
1.0
 21
1.0
 12
6.591288
 22
4.579184
 13
0.0
 23
0.0
 14
1.0
 24
1.0
 15
0.0
 25
0.0
 16
0.0
 26
0.0
 36
1.0
 17
0.0
 27
0.0
 37
0.0
 40
9.158369
 41
0.688564
 42
50.0
 43
0.0
 44
0.0
 50
0.0
 51
0.0
 71
     0
 72
   100
 73
     1
 74
     1
 75
     0
 76
     0
 77
     0
 78
     0
  0
ENDTAB
  0
TABLE
  2
LTYPE
 70
     1
  0
LTYPE
  2
CONTINUOUS
 70
    64
  3
Solid line
 72
    65
 73
     0
 40
0.0
  0
ENDTAB
  0
TABLE
  2
LAYER
 70
     8
  0
LAYER
  2
0
 70
     0
 62
     7
  6
CONTINUOUS
  0
LAYER
  2
MERGE
 70
     0
 62
     7
  6
CONTINUOUS
  0
LAYER
  2
STANDARD
 70
     0
 62
     7
  6
CONTINUOUS
  0
LAYER
  2
OUTLINE
 70
     0
 62
     7
  6
CONTINUOUS
  0
LAYER
  2
HIDDEN
 70
     0
 62
     7
  6
CONTINUOUS
  0
LAYER
  2
CENTER
 70
     0
 62
     7
  6
CONTINUOUS
  0
LAYER
  2
CON
 70
     0
 62
     7
  6
CONTINUOUS
  0
LAYER
  2
DIMS
 70
     0
 62
     7
  6
CONTINUOUS
  0
ENDTAB
  0
TABLE
  2
STYLE
 70
     2
  0
STYLE
  2
STANDARD
 70
     0
 40
0.0
 41
1.0
 50
0.0
 71
     0
 42
0.0
  3
txt
  4

  0
STYLE
  2
STYLE1
 70
     0
 40
0.0
 41
1.0
 50
0.0
 71
     0
 42
0.0
  3
Arial.ttf
  4

  0
ENDTAB
  0
TABLE
  2
VIEW
 70
     0
  0
ENDTAB
  0
TABLE
  2
UCS
 70
     0
  0
ENDTAB
  0
TABLE
  2
APPID
 70
     1
  0
APPID
  2
ACAD
 70
     0
  0
ENDTAB
  0
TABLE
  2
DIMSTYLE
 70
     1
  0
DIMSTYLE
  2
STANDARD
 70
     0
  3

  4

  5

  6

  7

 40
1.0
 41
0.18
 42
0.0625
 43
0.38
 44
0.18
 45
0.0
 46
0.0
 47
0.0
 48
0.0
 71
     0
 72
     0
 73
     1
 74
     1
 75
     0
 76
     0
 77
     0
 78
     0
140
0.18
141
0.09
142
0.0
143
25.4
144
1.0
145
0.0
146
1.0
147
0.09
170
     0
171
     2
172
     0
173
     0
174
     0
175
     0
176
     0
177
     0
178
     0
  0
ENDTAB
  0
ENDSEC
  0
SECTION
  2
BLOCKS
  0
ENDSEC
  0
SECTION
  2
ENTITIES
  0
LINE
  8
STANDARD
 62
     3
  5
25
 10
351.819153
 20
322.886597
 30
0.0
 11
377.781433
 21
322.886597
 31
0.0
  0
LINE
  8
STANDARD
 62
     3
  5
26
 10
351.819153
 20
285.886597
 30
0.0
 11
377.781433
 21
285.886597
 31
0.0
  0
ARC
  8
STANDARD
 62
     3
  5
27
 10
364.800293
 20
304.386597
 30
0.0
 40
22.6
 50
305.056684
 51
360.0
  0
ARC
  8
STANDARD
 62
     3
  5
28
 10
364.800293
 20
304.386597
 30
0.0
 40
22.6
 50
125.056693
 51
234.943303
  0
ARC
  8
STANDARD
 62
     3
  5
29
 10
364.800293
 20
304.386597
 30
0.0
 40
22.6
 50
0.0
 51
54.943302
  0
ARC
  8
STANDARD
 62
     3
  5
2A
 10
410.756958
 20
267.386658
 30
0.0
 40
21.0
 50
90.000003
 51
153.074047
  0
ARC
  8
STANDARD
 62
     3
  5
2B
 10
409.049591
 20
337.886597
 30
0.0
 40
17.5
 50
203.924013
 51
269.999994
  0
ARC
  8
STANDARD
 62
     3
  5
2C
 10
540.416138
 20
304.557648
 30
0.0
 40
20.129999
 50
90.000003
 51
269.999994
  0
LINE
  8
STANDARD
 62
     3
  5
2D
 10
540.416138
 20
324.687653
 30
0.0
 11
566.01416
 21
324.687653
 31
0.0
  0
ARC
  8
STANDARD
 62
     3
  5
2E
 10
566.01416
 20
327.687653
 30
0.0
 40
3.0
 50
270.000001
 51
402.100545
  0
LINE
  8
STANDARD
 62
     3
  5
2F
 10
540.416138
 20
284.427643
 30
0.0
 11
566.014038
 21
284.427643
 31
0.0
  0
ARC
  8
STANDARD
 62
     3
  5
30
 10
566.014038
 20
281.427673
 30
0.0
 40
3.0
 50
317.898943
 51
450.000006
  0
LINE
  8
STANDARD
 62
     3
  5
31
 10
409.049591
 20
320.386597
 30
0.0
 11
493.554016
 21
320.386597
 31
0.0
  0
ARC
  8
STANDARD
 62
     3
  5
32
 10
493.554016
 20
344.386597
 30
0.0
 40
24.0
 50
270.000001
 51
335.811571
  0
TEXT
  8
STANDARD
 62
     3
  5
33
 10
401.507935
 20
290.977539
 30
0.0
 40
4.5
  1
ER25
  7
STYLE1
  0
TEXT
  8
STANDARD
 62
     3
  5
34
 10
401.749542
 20
312.963562
 30
0.0
 40
4.5
  1
ER20
  7
STYLE1
  0
TEXT
  8
STANDARD
 62
     3
  5
35
 10
492.579407
 20
312.782928
 30
0.0
 40
4.5
  1
ER32
  7
STYLE1
  0
TEXT
  8
STANDARD
 62
     3
  5
36
 10
346.905243
 20
326.251831
 30
0.0
 40
4.5
  1
CLARKSON 'S'
  7
STYLE1
  0
TEXT
  8
STANDARD
 62
     3
  5
37
 10
528.108887
 20
327.218262
 30
0.0
 40
4.5
  1
CLARKSON 'C'
  7
STYLE1
  0
LINE
  8
STANDARD
 62
     3
  5
38
 10
515.446899
 20
334.552856
 30
0.0
 11
511.67099
 21
336.702209
 31
0.0
  0
LINE
  8
STANDARD
 62
     3
  5
39
 10
511.67099
 20
336.702209
 30
0.0
 11
513.73761
 21
339.322449
 31
0.0
  0
ARC
  8
STANDARD
 62
     3
  5
3A
 10
515.307922
 20
338.083893
 30
0.0
 40
2.0
 50
60.349892
 51
141.736015
  0
LINE
  8
STANDARD
 62
     3
  5
3B
 10
519.491089
 20
338.00415
 30
0.0
 11
516.297363
 21
339.822083
 31
0.0
  0
ARC
  8
STANDARD
 62
     3
  5
3C
 10
540.416138
 20
304.557648
 30
0.0
 40
37.5
 50
42.100514
 51
117.163836
  0
ARC
  8
STANDARD
 62
     3
  5
3D
 10
521.469849
 20
341.480377
 30
0.0
 40
4.0
 50
240.350341
 51
297.164244
  0
LINE
  8
STANDARD
 62
     3
  5
3E
 10
393.053131
 20
330.789917
 30
0.0
 11
397.12085
 21
332.718933
 31
0.0
  0
LINE
  8
STANDARD
 62
     3
  5
3F
 10
397.12085
 20
332.718933
 30
0.0
 11
395.658875
 21
335.452667
 31
0.0
  0
ARC
  8
STANDARD
 62
     3
  5
40
 10
393.895203
 20
334.509491
 30
0.0
 40
2.0
 50
28.136976
 51
115.371667
  0
LINE
  8
STANDARD
 62
     3
  5
41
 10
390.616699
 20
335.168213
 30
0.0
 11
393.038208
 21
336.316559
 31
0.0
  0
ARC
  8
STANDARD
 62
     3
  5
42
 10
388.902771
 20
338.78241
 30
0.0
 40
4.0
 50
234.979818
 51
295.371278
  0
LINE
  8
STANDARD
 62
     3
  5
43
 10
392.033508
 20
276.896271
 30
0.0
 11
395.947052
 21
275.172607
 31
0.0
  0
LINE
  8
STANDARD
 62
     3
  5
44
 10
395.947052
 20
275.172607
 30
0.0
 11
394.29129
 21
272.366241
 31
0.0
  0
ARC
  8
STANDARD
 62
     3
  5
45
 10
392.568787
 20
273.382507
 30
0.0
 40
2.0
 50
246.229959
 51
329.459659
  0
LINE
  8
STANDARD
 62
     3
  5
46
 10
389.121002
 20
272.715576
 30
0.0
 11
391.762634
 21
271.552094
 31
0.0
  0
ARC
  8
STANDARD
 62
     3
  5
47
 10
364.800293
 20
304.386597
 30
0.0
 40
38.0
 50
54.979556
 51
302.729724
  0
ARC
  8
STANDARD
 62
     3
  5
48
 10
387.508698
 20
269.054932
 30
0.0
 40
4.0
 50
66.22925
 51
122.729685
  0
LINE
  8
STANDARD
 62
     3
  5
49
 10
410.756958
 20
288.386597
 30
0.0
 11
498.679321
 21
288.386597
 31
0.0
  0
ARC
  8
STANDARD
 62
     3
  5
4A
 10
498.679321
 20
274.386597
 30
0.0
 40
14.0
 50
31.76208
 51
90.000003
  0
LINE
  8
STANDARD
 62
     3
  5
4B
 10
510.582703
 20
281.756104
 30
0.0
 11
508.232605
 21
279.97171
 31
0.0
  0
ARC
  8
STANDARD
 62
     3
  5
4C
 10
540.416138
 20
304.557648
 30
0.0
 40
40.5
 50
217.3773
 51
219.588079
  0
ARC
  8
STANDARD
 62
     3
  5
4D
 10
510.360901
 20
279.704315
 30
0.0
 40
1.5
 50
219.587809
 51
307.205844
  0
LINE
  8
STANDARD
 62
     3
  5
4E
 10
511.459991
 20
278.655365
 30
0.0
 11
511.267944
 21
278.509583
 31
0.0
  0
ARC
  8
STANDARD
 62
     3
  5
4F
 10
540.416138
 20
304.557648
 30
0.0
 40
37.5
 50
224.010903
 51
317.89938
  0
ARC
  8
STANDARD
 62
     3
  5
50
 10
512.367065
 20
277.460663
 30
0.0
 40
1.5
 50
44.010812
 51
127.206772
  0
TEXT
  8
STANDARD
 62
     3
  5
51
 10
492.408142
 20
290.883667
 30
0.0
 40
4.5
  1
ER16
  7
STYLE1
  0
ENDSEC
  0
EOF
