  0
SECTION
  2
HEADER
  9
$ACADVER
  1
AC1009
  9
$INSBASE
 10
0.0
 20
0.0
 30
0.0
  9
$EXTMIN
 10
1232.4478600263481
 20
927.98721939557595
 30
-0.0015258207003583
  9
$EXTMAX
 10
1304.5359138377639
 20
1006.044800126326
 30
0.0000000349246037
  9
$LIMMIN
 10
0.0
 20
0.0
  9
$LIMMAX
 10
420.0
 20
297.0
  9
$ORTHOMODE
 70
     1
  9
$REGENMODE
 70
     1
  9
$FILLMODE
 70
     1
  9
$QTEXTMODE
 70
     0
  9
$MIRRTEXT
 70
     0
  9
$DRAGMODE
 70
     2
  9
$LTSCALE
 40
1.0
  9
$OSMODE
 70
   959
  9
$ATTMODE
 70
     1
  9
$TEXTSIZE
 40
2.5
  9
$TRACEWID
 40
1.0
  9
$TEXTSTYLE
  7
STANDARD
  9
$CLAYER
  8
0
  9
$CELTYPE
  6
BYLAYER
  9
$CECOLOR
 62
   256
  9
$DIMSCALE
 40
1.0
  9
$DIMASZ
 40
2.5
  9
$DIMEXO
 40
0.625
  9
$DIMDLI
 40
3.75
  9
$DIMRND
 40
0.0
  9
$DIMDLE
 40
0.0
  9
$DIMEXE
 40
1.25
  9
$DIMTP
 40
0.0
  9
$DIMTM
 40
0.0
  9
$DIMTXT
 40
2.5
  9
$DIMCEN
 40
2.5
  9
$DIMTSZ
 40
0.0
  9
$DIMTOL
 70
     0
  9
$DIMLIM
 70
     0
  9
$DIMTIH
 70
     0
  9
$DIMTOH
 70
     0
  9
$DIMSE1
 70
     0
  9
$DIMSE2
 70
     0
  9
$DIMTAD
 70
     1
  9
$DIMZIN
 70
     8
  9
$DIMBLK
  1

  9
$DIMASO
 70
     1
  9
$DIMSHO
 70
     1
  9
$DIMPOST
  1

  9
$DIMAPOST
  1

  9
$DIMALT
 70
     0
  9
$DIMALTD
 70
     3
  9
$DIMALTF
 40
0.03937007874016
  9
$DIMLFAC
 40
1.0
  9
$DIMTOFL
 70
     1
  9
$DIMTVP
 40
0.0
  9
$DIMTIX
 70
     0
  9
$DIMSOXD
 70
     0
  9
$DIMSAH
 70
     0
  9
$DIMBLK1
  1

  9
$DIMBLK2
  1

  9
$DIMSTYLE
  2
ISO-25
  9
$DIMCLRD
 70
     0
  9
$DIMCLRE
 70
     0
  9
$DIMCLRT
 70
     0
  9
$DIMTFAC
 40
1.0
  9
$DIMGAP
 40
0.625
  9
$LUNITS
 70
     2
  9
$LUPREC
 70
     4
  9
$SKETCHINC
 40
1.0
  9
$FILLETRAD
 40
0.0
  9
$AUNITS
 70
     0
  9
$AUPREC
 70
     0
  9
$MENU
  1
.
  9
$ELEVATION
 40
0.0
  9
$PELEVATION
 40
0.0
  9
$THICKNESS
 40
0.0
  9
$LIMCHECK
 70
     0
  9
$BLIPMODE
 70
     0
  9
$CHAMFERA
 40
0.0
  9
$CHAMFERB
 40
0.0
  9
$SKPOLY
 70
     0
  9
$TDCREATE
 40
2456919.7506349771
  9
$TDUPDATE
 40
2457989.6277552322
  9
$TDINDWG
 40
0.0875123264
  9
$TDUSRTIMER
 40
0.0875122222
  9
$USRTIMER
 70
     1
  9
$ANGBASE
 50
0.0
  9
$ANGDIR
 70
     0
  9
$PDMODE
 70
     0
  9
$PDSIZE
 40
0.0
  9
$PLINEWID
 40
0.0
  9
$COORDS
 70
     1
  9
$SPLFRAME
 70
     0
  9
$SPLINETYPE
 70
     6
  9
$SPLINESEGS
 70
     8
  9
$ATTDIA
 70
     1
  9
$ATTREQ
 70
     1
  9
$HANDLING
 70
     1
  9
$HANDSEED
  5
801
  9
$SURFTAB1
 70
     6
  9
$SURFTAB2
 70
     6
  9
$SURFTYPE
 70
     6
  9
$SURFU
 70
     6
  9
$SURFV
 70
     6
  9
$UCSNAME
  2

  9
$UCSORG
 10
0.0
 20
0.0
 30
0.0
  9
$UCSXDIR
 10
1.0
 20
0.0
 30
0.0
  9
$UCSYDIR
 10
0.0
 20
1.0
 30
0.0
  9
$PUCSNAME
  2

  9
$PUCSORG
 10
0.0
 20
0.0
 30
0.0
  9
$PUCSXDIR
 10
1.0
 20
0.0
 30
0.0
  9
$PUCSYDIR
 10
0.0
 20
1.0
 30
0.0
  9
$USERI1
 70
     0
  9
$USERI2
 70
     0
  9
$USERI3
 70
     0
  9
$USERI4
 70
     0
  9
$USERI5
 70
     0
  9
$USERR1
 40
0.0
  9
$USERR2
 40
0.0
  9
$USERR3
 40
0.0
  9
$USERR4
 40
0.0
  9
$USERR5
 40
0.0
  9
$WORLDVIEW
 70
     1
  9
$SHADEDGE
 70
     3
  9
$SHADEDIF
 70
    70
  9
$TILEMODE
 70
     1
  9
$MAXACTVP
 70
    64
  9
$PLIMCHECK
 70
     0
  9
$PEXTMIN
 10
4.5572076530248751
 20
3.8280892452714852
 30
0.0
  9
$PEXTMAX
 10
280.27206723846962
 20
192.5735875414673
 30
0.0
  9
$PLIMMIN
 10
-7.14373779296875
 20
-7.1437497138977051
  9
$PLIMMAX
 10
289.8245849609375
 20
202.82957792282099
  9
$UNITMODE
 70
     0
  9
$VISRETAIN
 70
     1
  9
$PLINEGEN
 70
     0
  9
$PSLTSCALE
 70
     1
  0
ENDSEC
  0
SECTION
  2
TABLES
  0
TABLE
  2
VPORT
 70
     1
  0
VPORT
  2
*ACTIVE
 70
     0
 10
0.0
 20
0.0
 11
1.0
 21
1.0
 12
1268.4918869320561
 22
967.01600976095119
 13
0.0
 23
0.0
 14
10.0
 24
10.0
 15
10.0
 25
10.0
 16
0.0
 26
0.0
 36
1.0
 17
0.0
 27
0.0
 37
0.0
 40
78.555291128608587
 41
1.701063829787234
 42
50.0
 43
0.0
 44
0.0
 50
0.0
 51
0.0
 71
     0
 72
  1000
 73
     1
 74
     3
 75
     0
 76
     0
 77
     0
 78
     0
  0
ENDTAB
  0
TABLE
  2
LTYPE
 70
     2
  0
LTYPE
  2
CONTINUOUS
 70
     0
  3
Solid line
 72
    65
 73
     0
 40
0.0
  0
ENDTAB
  0
TABLE
  2
LAYER
 70
     4
  0
LAYER
  2
0
 70
     0
 62
     7
  6
CONTINUOUS
  0
LAYER
  2
LAYER1
 70
     0
 62
  -210
  6
CONTINUOUS
  0
LAYER
  2
DEFPOINTS
 70
     0
 62
     7
  6
CONTINUOUS
  0
LAYER
  2
FELIRAT
 70
     0
 62
     7
  6
CONTINUOUS
  0
ENDTAB
  0
TABLE
  2
STYLE
 70
     2
  0
STYLE
  2
STANDARD
 70
     0
 40
0.0
 41
1.0
 50
0.0
 71
     0
 42
2.5
  3
txt
  4

  0
STYLE
  2
ANNOTATIVE
 70
     0
 40
0.0
 41
1.0
 50
0.0
 71
     0
 42
2.5
  3
txt
  4

  0
ENDTAB
  0
TABLE
  2
VIEW
 70
     2
  0
ENDTAB
  0
TABLE
  2
UCS
 70
     0
  0
ENDTAB
  0
TABLE
  2
APPID
 70
    15
  0
APPID
  2
ACAD
 70
     0
  0
APPID
  2
ACAD_PSEXT
 70
     0
  0
APPID
  2
ACADANNOPO
 70
     0
  0
APPID
  2
ACADANNOTATIVE
 70
     0
  0
APPID
  2
ACAD_DSTYLE_DIMJAG
 70
     0
  0
APPID
  2
ACAD_DSTYLE_DIMTALN
 70
     0
  0
APPID
  2
ACAD_MLEADERVER
 70
     0
  0
APPID
  2
ACAD_NAV_VCDISPLAY
 70
     0
  0
APPID
  2
ACAD_DIMASSOC_CALC_DIMLFAC
 70
     0
  0
APPID
  2
ACAD_DIMASSOC_DIMLFAC
 70
     0
  0
APPID
  2
ACAD_DIMASSOC_OVERRIDDEN_D
 70
     0
  0
APPID
  2
ACAECLAYERSTANDARD
 70
     0
  0
APPID
  2
ACCMTRANSPARENCY
 70
     0
  0
APPID
  2
ACAD_EXEMPT_FROM_CAD_STANDARDS
 70
     0
  0
APPID
  2
ACDBDYNAMICBLOCKTRUENAME2
 70
     0
  0
ENDTAB
  0
TABLE
  2
DIMSTYLE
 70
     4
  0
DIMSTYLE
  2
STANDARD
 70
     0
  3

  4

  5

  6

  7

 40
1.0
 41
0.18
 42
0.0625
 43
0.38
 44
0.18
 45
0.0
 46
0.0
 47
0.0
 48
0.0
140
0.18
141
0.09
142
0.0
143
25.399999999999999
144
1.0
145
0.0
146
1.0
147
0.09
 71
     0
 72
     0
 73
     1
 74
     1
 75
     0
 76
     0
 77
     0
 78
     0
170
     0
171
     2
172
     0
173
     0
174
     0
175
     0
176
     0
177
     0
178
     0
  0
DIMSTYLE
  2
ANNOTATIVE
 70
     0
  3

  4

  5

  6

  7

 40
0.0
 41
2.5
 42
0.625
 43
3.75
 44
1.25
 45
0.0
 46
0.0
 47
0.0
 48
0.0
140
2.5
141
2.5
142
0.0
143
0.03937007874016
144
1.0
145
0.0
146
1.0
147
0.625
 71
     0
 72
     0
 73
     0
 74
     0
 75
     0
 76
     0
 77
     1
 78
     8
170
     0
171
     3
172
     1
173
     0
174
     0
175
     0
176
     0
177
     0
178
     0
  0
DIMSTYLE
  2
ISO-25
 70
     0
  3

  4

  5

  6

  7

 40
1.0
 41
2.5
 42
0.625
 43
3.75
 44
1.25
 45
0.0
 46
0.0
 47
0.0
 48
0.0
140
2.5
141
2.5
142
0.0
143
0.03937007874016
144
1.0
145
0.0
146
1.0
147
0.625
 71
     0
 72
     0
 73
     0
 74
     0
 75
     0
 76
     0
 77
     1
 78
     8
170
     0
171
     3
172
     1
173
     0
174
     0
175
     0
176
     0
177
     0
178
     0
  0
ENDTAB
  0
ENDSEC
  0
SECTION
  2
BLOCKS
  0
BLOCK
  8
0
  2
$MODEL_SPACE
 70
     0
 10
0.0
 20
0.0
 30
0.0
  3
$MODEL_SPACE
  1

  0
ENDBLK
  5
21
  8
0
  0
BLOCK
 67
     1
  8
0
  2
$PAPER_SPACE
 70
     0
 10
0.0
 20
0.0
 30
0.0
  3
$PAPER_SPACE
  1

  0
ENDBLK
  5
6A6
 67
     1
  8
0
  0
BLOCK
  8
0
  2
*U0
 70
     1
 10
0.0
 20
0.0
 30
0.0
  3
*U0
  1

  0
LINE
  5
533
  8
LAYER1
 10
-5.0510391510497348
 20
-0.3041486522090508
 30
0.0
 11
5.0510391510497348
 21
-0.3041486522090508
 31
0.0
  0
LINE
  5
534
  8
LAYER1
 10
0.0
 20
5.7301598971451986
 30
0.0
 11
0.0
 21
-5.7301598971450849
 31
0.0
  0
ENDBLK
  5
52E
  8
0
  0
BLOCK
  8
0
  2
*U1
 70
     1
 10
0.0
 20
0.0
 30
0.0
  3
*U1
  1

  0
INSERT
  5
542
  8
LAYER1
  6
BYBLOCK
 62
     0
  2
*U0
 10
1248.1692796697259
 20
946.96421451724825
 30
0.0
  0
INSERT
  5
543
  8
LAYER1
  6
BYBLOCK
 62
     0
  2
*U0
 10
1240.871261651735
 20
959.82740478543167
 30
0.0
 50
330.00000000000011
  0
INSERT
  5
544
  8
LAYER1
  6
BYBLOCK
 62
     0
  2
*U0
 10
1240.9825877849701
 20
974.61626334038692
 30
0.0
 41
0.9999999999999998
 42
0.9999999999999998
 43
0.9999999999999998
 50
300.0
  0
INSERT
  5
545
  8
LAYER1
  6
BYBLOCK
 62
     0
  2
*U0
 10
1248.473428321935
 20
987.36812747533554
 30
0.0
 41
0.9999999999999996
 42
0.9999999999999996
 43
0.9999999999999996
 50
270.00000000000011
  0
INSERT
  5
546
  8
LAYER1
  6
BYBLOCK
 62
     0
  2
*U0
 10
1261.336618590118
 20
994.66614549332633
 30
0.0
 41
0.9999999999999994
 42
0.9999999999999994
 43
0.9999999999999994
 50
240.0
  0
INSERT
  5
547
  8
LAYER1
  6
BYBLOCK
 62
     0
  2
*U0
 10
1276.125477145074
 20
994.55481936009107
 30
0.0
 41
0.9999999999999992
 42
0.9999999999999992
 43
0.9999999999999992
 50
210.0
  0
INSERT
  5
548
  8
LAYER1
  6
BYBLOCK
 62
     0
  2
*U0
 10
1288.8773412800219
 20
987.06397882312672
 30
0.0
 41
0.9999999999999989
 42
0.9999999999999989
 43
0.9999999999999989
 50
180.0
  0
INSERT
  5
549
  8
LAYER1
  6
BYBLOCK
 62
     0
  2
*U0
 10
1296.1753592980131
 20
974.20078855494296
 30
0.0
 41
0.9999999999999987
 42
0.9999999999999987
 43
0.9999999999999987
 50
150.00000000000011
  0
INSERT
  5
54A
  8
LAYER1
  6
BYBLOCK
 62
     0
  2
*U0
 10
1296.064033164778
 20
959.41192999998782
 30
0.0
 41
0.9999999999999985
 42
0.9999999999999985
 43
0.9999999999999985
 50
120.0000000000001
  0
INSERT
  5
54B
  8
LAYER1
  6
BYBLOCK
 62
     0
  2
*U0
 10
1288.5731926278129
 20
946.6600658650392
 30
0.0
 41
0.9999999999999985
 42
0.9999999999999985
 43
0.9999999999999985
 50
90.000000000000171
  0
ENDBLK
  5
531
  8
0
  0
BLOCK
  8
0
  2
*U4
 70
     1
 10
0.0
 20
0.0
 30
0.0
  3
*U4
  1

  0
TEXT
  5
7C7
  8
FELIRAT
 10
1259.7784264366751
 20
930.70175928471929
 30
0.0
 40
5.0
  1
[perc]
  0
ENDBLK
  5
7C9
  8
0
  0
BLOCK
  8
0
  2
*U5
 70
     1
 10
0.0
 20
0.0
 30
0.0
  3
*U5
  1

  0
TEXT
  5
7CB
  8
FELIRAT
 10
1246.4878335578569
 20
944.14983394143735
 30
0.0
 40
5.0
  1
1
  0
ENDBLK
  5
7CD
  8
0
  0
BLOCK
  8
0
  2
*U6
 70
     1
 10
0.0
 20
0.0
 30
0.0
  3
*U6
  1

  0
TEXT
  5
7D2
  8
FELIRAT
 10
1238.858682550733
 20
957.05377240249015
 30
0.0
 40
5.0
  1
2
  0
ENDBLK
  5
7D4
  8
0
  0
BLOCK
  8
0
  2
*U7
 70
     1
 10
0.0
 20
0.0
 30
0.0
  3
*U7
  1

  0
TEXT
  5
7D6
  8
FELIRAT
 10
1238.7887644061209
 20
971.998295426288
 30
0.0
 40
5.0
  1
3
  0
ENDBLK
  5
7D8
  8
0
  0
BLOCK
  8
0
  2
*U8
 70
     1
 10
0.0
 20
0.0
 30
0.0
  3
*U8
  1

  0
TEXT
  5
7DA
  8
FELIRAT
 10
1246.351407909835
 20
984.86812747533554
 30
0.0
 40
5.0
  1
4
  0
ENDBLK
  5
7DC
  8
0
  0
BLOCK
  8
0
  2
*U9
 70
     1
 10
0.0
 20
0.0
 30
0.0
  3
*U9
  1

  0
TEXT
  5
7DE
  8
FELIRAT
 10
1259.1257420052671
 20
992.36085283443765
 30
0.0
 40
5.0
  1
5
  0
ENDBLK
  5
7E0
  8
0
  0
BLOCK
  8
0
  2
*U10
 70
     1
 10
0.0
 20
0.0
 30
0.0
  3
*U10
  1

  0
TEXT
  5
7E2
  8
FELIRAT
 10
1274.0600331054629
 20
992.35062091083626
 30
0.0
 40
5.0
  1
6
  0
ENDBLK
  5
7E4
  8
0
  0
BLOCK
  8
0
  2
*U11
 70
     1
 10
0.0
 20
0.0
 30
0.0
  3
*U11
  1

  0
TEXT
  5
7E6
  8
FELIRAT
 10
1286.9281598339101
 20
984.86812747533577
 30
0.0
 40
5.0
  1
7
  0
ENDBLK
  5
7E8
  8
0
  0
BLOCK
  8
0
  2
*U12
 70
     1
 10
0.0
 20
0.0
 30
0.0
  3
*U12
  1

  0
TEXT
  5
7EA
  8
FELIRAT
 10
1294.397010704608
 20
971.99659010568803
 30
0.0
 40
5.0
  1
8
  0
ENDBLK
  5
7EC
  8
0
  0
BLOCK
  8
0
  2
*U13
 70
     1
 10
0.0
 20
0.0
 30
0.0
  3
*U13
  1

  0
TEXT
  5
7EE
  8
FELIRAT
 10
1294.393600063408
 20
957.09640541749752
 30
0.0
 40
5.0
  1
9
  0
ENDBLK
  5
7F0
  8
0
  0
BLOCK
  8
0
  2
*U14
 70
     1
 10
0.0
 20
0.0
 30
0.0
  3
*U14
  1

  0
TEXT
  5
7F2
  8
FELIRAT
 10
1284.779455877567
 20
944.19246695644426
 30
0.0
 40
5.0
  1
10
  0
ENDBLK
  5
7F4
  8
0
  0
ENDSEC
  0
SECTION
  2
ENTITIES
  0
CIRCLE
  5
4A2
  8
0
 10
1268.5233104748741
 20
967.01409667018743
 30
0.0
 40
20.0
  0
CIRCLE
  5
4AD
  8
0
 10
1268.5233104748741
 20
967.01409667018743
 30
0.0
 40
21.694249386446909
  0
POLYLINE
  5
4AF
  8
0
 66
     1
 10
0.0
 20
0.0
 30
0.0
 70
     1
  0
VERTEX
  5
7C1
  8
0
 10
1232.5233104748741
 20
1006.014096670192
 30
0.0
  0
VERTEX
  5
7C2
  8
0
 10
1304.5233104748741
 20
1006.014096670192
 30
0.0
  0
VERTEX
  5
7C3
  8
0
 10
1304.5233104748741
 20
928.01409667019186
 30
0.0
  0
VERTEX
  5
7C4
  8
0
 10
1232.5233104748741
 20
928.01409667019186
 30
0.0
  0
SEQEND
  5
7C5
  8
0
  0
INSERT
  5
4B0
  8
0
  2
*U4
 10
0.0
 20
0.0
 30
0.0
  0
LINE
  5
4FB
  8
0
 10
1254.381174851143
 20
952.87196104645625
 30
0.0
 11
1253.1831596209649
 21
951.67394581627855
 31
0.0
  0
LINE
  5
4FC
  8
0
 10
1249.2047939490931
 20
961.83771576813695
 30
0.0
 11
1247.5682747105491
 21
961.39921175977099
 31
0.0
  0
LINE
  5
4FD
  8
0
 10
1249.2047939490931
 20
972.19047757223746
 30
0.0
 11
1247.5682747105491
 21
972.62898158060329
 31
0.0
  0
LINE
  5
4FE
  8
0
 10
1254.381174851143
 20
981.15623229391826
 30
0.0
 11
1253.1831596209649
 21
982.35424752409608
 31
0.0
  0
LINE
  5
4FF
  8
0
 10
1263.346929572823
 20
986.33261319596875
 30
0.0
 11
1262.908425564458
 21
987.96913243451218
 31
0.0
  0
LINE
  5
500
  8
0
 10
1273.699691376924
 20
986.33261319596875
 30
0.0
 11
1274.1381953852899
 21
987.96913243451218
 31
0.0
  0
LINE
  5
501
  8
0
 10
1282.6654460986049
 20
981.15623229391826
 30
0.0
 11
1283.8634613287829
 21
982.35424752409608
 31
0.0
  0
LINE
  5
502
  8
0
 10
1287.841827000655
 20
972.19047757223768
 30
0.0
 11
1289.478346239199
 21
972.62898158060329
 31
0.0
  0
LINE
  5
503
  8
0
 10
1287.841827000655
 20
961.83771576813695
 30
0.0
 11
1289.478346239199
 21
961.39921175977145
 31
0.0
  0
LINE
  5
504
  8
0
 10
1282.6654460986049
 20
952.87196104645625
 30
0.0
 11
1283.863461328782
 21
951.67394581627866
 31
0.0
  0
LINE
  5
505
  8
LAYER1
 10
1268.5233104748741
 20
967.01409667018743
 30
0.0
 11
1232.5233104748741
 21
931.01409667018686
 31
0.0
  0
INSERT
  5
506
  8
0
  2
*U5
 10
0.0
 20
0.0
 30
0.0
  0
INSERT
  5
532
  8
LAYER1
  2
*U1
 10
0.0
 20
0.0
 30
0.0
  0
INSERT
  5
54C
  8
0
  2
*U6
 10
0.0
 20
0.0
 30
0.0
  0
INSERT
  5
54D
  8
0
  2
*U7
 10
0.0
 20
0.0
 30
0.0
  0
INSERT
  5
54E
  8
0
  2
*U8
 10
0.0
 20
0.0
 30
0.0
  0
INSERT
  5
54F
  8
0
  2
*U9
 10
0.0
 20
0.0
 30
0.0
  0
INSERT
  5
550
  8
0
  2
*U10
 10
0.0
 20
0.0
 30
0.0
  0
INSERT
  5
551
  8
0
  2
*U11
 10
0.0
 20
0.0
 30
0.0
  0
INSERT
  5
552
  8
0
  2
*U12
 10
0.0
 20
0.0
 30
0.0
  0
INSERT
  5
553
  8
0
  2
*U13
 10
0.0
 20
0.0
 30
0.0
  0
INSERT
  5
554
  8
0
  2
*U14
 10
0.0
 20
0.0
 30
0.0
  0
CIRCLE
  5
762
  8
0
 10
1268.5233104748741
 20
967.01409667018743
 30
0.0
 40
11.5
  0
VIEWPORT
  5
6A0
 67
     1
  8
0
 10
174.13311546838051
 20
125.5902848762414
 30
0.0
 40
331.43488765724709
 41
194.83977135572999
 68
     1
 69
     1
1001
ACAD
1000
MVIEW
1002
{
1070
    16
1010
0.0
1020
0.0
1030
0.0
1010
0.0
1020
0.0
1030
1.0
1040
0.0
1040
194.83977135572999
1040
174.13311546838051
1040
125.5902848762414
1040
50.0
1040
0.0
1040
0.0
1070
     0
1070
  1000
1070
     1
1070
     1
1070
     0
1070
     0
1070
     0
1070
     0
1040
0.0
1040
0.0
1040
0.0
1040
10.0
1040
10.0
1040
10.0
1040
10.0
1070
     0
1002
{
1002
}
1002
}
  0
VIEWPORT
  5
6A3
 67
     1
  8
0
 10
142.41463744574719
 20
98.200838393369423
 30
0.0
 40
275.71485958544469
 41
188.7454982961959
 68
     2
 69
     2
1001
ACAD
1000
MVIEW
1002
{
1070
    16
1010
0.0
1020
0.0
1030
0.0
1010
0.0
1020
0.0
1030
1.0
1040
0.0
1040
188.74549860439251
1040
1475.3219277378139
1040
923.98656455958928
1040
50.0
1040
0.0
1040
0.0
1070
     0
1070
  1000
1070
     1
1070
     3
1070
     0
1070
     0
1070
     0
1070
     0
1040
0.0
1040
0.0
1040
0.0
1040
10.0
1040
10.0
1040
10.0
1040
10.0
1070
     0
1002
{
1002
}
1002
}
  0
ENDSEC
  0
EOF
