  0
SECTION
  2
HEADER
  9
$ACADVER
  1
AC1015
  9
$ACADMAINTVER
 70
     6
  9
$DWGCODEPAGE
  3
DOS850
  9
$INSBASE
 10
0.0
 20
0.0
 30
0.0
  9
$EXTMIN
 10
52.2041
 20
361.4549
 30
1.000000E+20
  9
$EXTMAX
 10
211.9412
 20
467.3829
 30
-1.000000E+20
  9
$LIMMIN
 10
0.0
 20
0.0
  9
$LIMMAX
 10
0.0
 20
0.0
  9
$ORTHOMODE
 70
     0
  9
$REGENMODE
 70
     1
  9
$FILLMODE
 70
     1
  9
$QTEXTMODE
 70
     0
  9
$MIRRTEXT
 70
     1
  9
$LTSCALE
 40
1.0
  9
$ATTMODE
 70
     1
  9
$TEXTSIZE
 40
0.2
  9
$TRACEWID
 40
0.05
  9
$TEXTSTYLE
  7
Standard
  9
$CLAYER
  8
0
  9
$CELTYPE
  6
Continuous
  9
$CECOLOR
 62
   256
  9
$CELTSCALE
 40
1.0
  9
$DISPSILH
 70
     0
  9
$DIMSCALE
 40
1.0
  9
$DIMASZ
 40
0.18
  9
$DIMEXO
 40
0.0625
  9
$DIMDLI
 40
0.38
  9
$DIMRND
 40
0.0
  9
$DIMDLE
 40
0.0
  9
$DIMEXE
 40
0.18
  9
$DIMTP
 40
0.0
  9
$DIMTM
 40
0.0
  9
$DIMTXT
 40
0.18
  9
$DIMCEN
 40
0.09
  9
$DIMTSZ
 40
0.0
  9
$DIMTOL
 70
     0
  9
$DIMLIM
 70
     0
  9
$DIMTIH
 70
     1
  9
$DIMTOH
 70
     1
  9
$DIMSE1
 70
     0
  9
$DIMSE2
 70
     0
  9
$DIMTAD
 70
     0
  9
$DIMZIN
 70
     0
  9
$DIMBLK
  1

  9
$DIMASO
 70
     1
  9
$DIMSHO
 70
     1
  9
$DIMPOST
  1

  9
$DIMAPOST
  1

  9
$DIMALT
 70
     0
  9
$DIMALTD
 70
     2
  9
$DIMALTF
 40
25.4
  9
$DIMLFAC
 40
1.0
  9
$DIMTOFL
 70
     0
  9
$DIMTVP
 40
0.0
  9
$DIMTIX
 70
     0
  9
$DIMSOXD
 70
     0
  9
$DIMSAH
 70
     0
  9
$DIMBLK1
  1

  9
$DIMBLK2
  1

  9
$DIMSTYLE
  2
Standard
  9
$DIMCLRD
 70
     0
  9
$DIMCLRE
 70
     0
  9
$DIMCLRT
 70
     0
  9
$DIMTFAC
 40
1.0
  9
$DIMGAP
 40
0.09
  9
$DIMJUST
 70
     0
  9
$DIMSD1
 70
     0
  9
$DIMSD2
 70
     0
  9
$DIMTOLJ
 70
     1
  9
$DIMTZIN
 70
     0
  9
$DIMALTZ
 70
     0
  9
$DIMALTTZ
 70
     0
  9
$DIMUPT
 70
     0
  9
$DIMDEC
 70
     4
  9
$DIMTDEC
 70
     4
  9
$DIMALTU
 70
     2
  9
$DIMALTTD
 70
     2
  9
$DIMTXSTY
  7
Standard
  9
$DIMAUNIT
 70
     0
  9
$DIMADEC
 70
     0
  9
$DIMALTRND
 40
0.0
  9
$DIMAZIN
 70
     0
  9
$DIMDSEP
 70
     0
  9
$DIMATFIT
 70
     3
  9
$DIMFRAC
 70
     0
  9
$DIMLDRBLK
  1

  9
$DIMLUNIT
 70
     2
  9
$DIMLWD
 70
     0
  9
$DIMLWE
 70
     0
  9
$DIMTMOVE
 70
     0
  9
$LUNITS
 70
     2
  9
$LUPREC
 70
     4
  9
$SKETCHINC
 40
0.1
  9
$FILLETRAD
 40
0.0
  9
$AUNITS
 70
     0
  9
$AUPREC
 70
     0
  9
$MENU
  1
acad
  9
$ELEVATION
 40
0.0
  9
$PELEVATION
 40
0.0
  9
$THICKNESS
 40
0.0
  9
$LIMCHECK
 70
     0
  9
$CHAMFERA
 40
0.0
  9
$CHAMFERB
 40
0.0
  9
$CHAMFERC
 40
0.0
  9
$CHAMFERD
 40
0.0
  9
$SKPOLY
 70
     0
  9
$TDCREATE
 40
0.000000000
  9
$TDUCREATE
 40
0.000000000
  9
$TDUPDATE
 40
0.000000000
  9
$TDUUPDATE
 40
0.000000000
  9
$TDINDWG
 40
0.0000000000
  9
$TDUSRTIMER
 40
0.0000000000
  9
$USRTIMER
 70
     1
  9
$ANGBASE
 50
0.0
  9
$ANGDIR
 70
     0
  9
$PDMODE
 70
     0
  9
$PDSIZE
 40
0.0
  9
$PLINEWID
 40
0.0
  9
$SPLFRAME
 70
     0
  9
$SPLINETYPE
 70
     6
  9
$SPLINESEGS
 70
     8
  9
$HANDSEED
  5
15E
  9
$SURFTAB1
 70
     6
  9
$SURFTAB2
 70
     6
  9
$SURFTYPE
 70
     6
  9
$SURFU
 70
     6
  9
$SURFV
 70
     6
  9
$UCSBASE
  2

  9
$UCSNAME
  2

  9
$UCSORG
 10
0.0
 20
0.0
 30
0.0
  9
$UCSXDIR
 10
1.0
 20
0.0
 30
0.0
  9
$UCSYDIR
 10
0.0
 20
1.0
 30
0.0
  9
$UCSORTHOREF
  2

  9
$UCSORTHOVIEW
 70
     0
  9
$UCSORGTOP
 10
0.0
 20
0.0
 30
0.0
  9
$UCSORGBOTTOM
 10
0.0
 20
0.0
 30
0.0
  9
$UCSORGLEFT
 10
0.0
 20
0.0
 30
0.0
  9
$UCSORGRIGHT
 10
0.0
 20
0.0
 30
0.0
  9
$UCSORGFRONT
 10
0.0
 20
0.0
 30
0.0
  9
$UCSORGBACK
 10
0.0
 20
0.0
 30
0.0
  9
$PUCSBASE
  2

  9
$PUCSNAME
  2

  9
$PUCSORG
 10
0.0
 20
0.0
 30
0.0
  9
$PUCSXDIR
 10
1.0
 20
0.0
 30
0.0
  9
$PUCSYDIR
 10
0.0
 20
1.0
 30
0.0
  9
$PUCSORTHOREF
  2

  9
$PUCSORTHOVIEW
 70
     0
  9
$PUCSORGTOP
 10
0.0
 20
0.0
 30
0.0
  9
$PUCSORGBOTTOM
 10
0.0
 20
0.0
 30
0.0
  9
$PUCSORGLEFT
 10
0.0
 20
0.0
 30
0.0
  9
$PUCSORGRIGHT
 10
0.0
 20
0.0
 30
0.0
  9
$PUCSORGFRONT
 10
0.0
 20
0.0
 30
0.0
  9
$PUCSORGBACK
 10
0.0
 20
0.0
 30
0.0
  9
$USERI1
 70
     0
  9
$USERI2
 70
     0
  9
$USERI3
 70
     0
  9
$USERI4
 70
     0
  9
$USERI5
 70
     0
  9
$USERR1
 40
0.0
  9
$USERR2
 40
0.0
  9
$USERR3
 40
0.0
  9
$USERR4
 40
0.0
  9
$USERR5
 40
0.0
  9
$WORLDVIEW
 70
     1
  9
$SHADEDGE
 70
     3
  9
$SHADEDIF
 70
    70
  9
$TILEMODE
 70
     1
  9
$MAXACTVP
 70
    16
  9
$PINSBASE
 10
0.0
 20
0.0
 30
0.0
  9
$PLIMCHECK
 70
     0
  9
$PEXTMIN
 10
1.000000E+20
 20
1.000000E+20
 30
1.000000E+20
  9
$PEXTMAX
 10
-1.000000E+20
 20
-1.000000E+20
 30
-1.000000E+20
  9
$PLIMMIN
 10
0.0
 20
0.0
  9
$PLIMMAX
 10
12.0
 20
9.0
  9
$UNITMODE
 70
     0
  9
$VISRETAIN
 70
     0
  9
$PLINEGEN
 70
     1
  9
$PSLTSCALE
 70
     0
  9
$TREEDEPTH
 70
  3020
  9
$CMLSTYLE
  2
Standard
  9
$CMLJUST
 70
     0
  9
$CMLSCALE
 40
1.0
  9
$PROXYGRAPHICS
 70
     0
  9
$MEASUREMENT
 70
     0
  9
$CELWEIGHT
370
     0
  9
$ENDCAPS
280
     0
  9
$JOINSTYLE
280
     0
  9
$LWDISPLAY
290
     0
  9
$INSUNITS
 70
     4
  9
$HYPERLINKBASE
  1

  9
$XEDIT
290
     1
  9
$CEPSNTYPE
380
     0
  9
$PSTYLEMODE
290
     1
  9
$FINGERPRINTGUID
  2

  9
$VERSIONGUID
  2

  9
$EXTNAMES
290
     1
  9
$PSVPSCALE
 40
0.0
  0
ENDSEC
  0
SECTION
  2
CLASSES
  0
CLASS
  1
LWPOLYLINE
  2
AcDbPolyline
  3
AutoCAD 2000
 90
    32768
280
     0
281
     1
  0
CLASS
  1
IMAGE
  2
AcDbRasterImage
  3
ISM
 90
    32895
280
     0
281
     1
  0
CLASS
  1
OLE2FRAME
  2
AcDbOle2Frame
  3
AutoCAD 2000
 90
    32768
280
     0
281
     1
  0
CLASS
  1
HATCH
  2
AcDbHatch
  3
AutoCAD 2000
 90
    32768
280
     0
281
     1
  0
CLASS
  1
DICTIONARYVAR
  2
AcDbDictionaryVar
  3
AutoCAD 2000
 90
    32768
280
     0
281
     0
  0
CLASS
  1
RASTERVARIABLES
  2
AcDbRasterVariables
  3
ISM
 90
    32768
280
     0
281
     0
  0
CLASS
  1
IMAGEDEF
  2
AcDbRasterImageDef
  3
ISM
 90
    32768
280
     0
281
     0
  0
CLASS
  1
IMAGEDEF_REACTOR
  2
AcDbRasterImageDefReactor
  3
ISM
 90
    32769
280
     0
281
     0
  0
CLASS
  1
IDBUFFER
  2
AcDbIdBuffer
  3
AutoCAD 2000
 90
    32768
280
     0
281
     0
  0
CLASS
  1
SPATIAL_FILTER
  2
AcDbSpatialFilter
  3
AutoCAD 2000
 90
    32768
280
     0
281
     0
  0
CLASS
  1
XRECORD
  2
AcDbXrecord
  3
AutoCAD 2000
 90
    32768
280
     0
281
     0
  0
CLASS
  1
SORTENTSTABLE
  2
AcDbSortentsTable
  3
AutoCAD 2000
 90
    32768
280
     0
281
     0
  0
CLASS
  1
LAYER_INDEX
  2
AcDbLayerIndex
  3
AutoCAD 2000
 90
    32768
280
     0
281
     0
  0
CLASS
  1
SPATIAL_INDEX
  2
AcDbSpatialIndex
  3
AutoCAD 2000
 90
    32768
280
     0
281
     0
  0
CLASS
  1
OBJECT_PTR
  2
CAseDLPNTableRecord
  3
"ASE-LPNTableRecord"
 90
    32769
280
     0
281
     0
  0
CLASS
  1
LAYOUT
  2
AcDbLayout
  3
AutoCAD 2000
 90
        0
280
     0
281
     0
  0
CLASS
  1
PLOTSETTINGS
  2
AcDbPlotSettings
  3
AutoCAD 2000
 90
    32768
280
     0
281
     0
  0
CLASS
  1
ACDBDICTIONARYWDFLT
  2
AcDbDictionaryWithDefault
  3
AutoCAD 2000
 90
        0
280
     0
281
     0
  0
CLASS
  1
ACDBPLACEHOLDER
  2
AcDbPlaceHolder
  3
AutoCAD 2000
 90
        0
280
     0
281
     0
  0
CLASS
  1
VBA_PROJECT
  2
AcDbVbaProject
  3
acadvba
 90
    32768
280
     0
281
     0
  0
CLASS
  1
WIPEOUT
  2
AcDbWipeout
  3
WipeOut|AutoCAD Express Tool|expresstools@autodesk.com
 90
    32895
280
     0
281
     1
  0
CLASS
  1
WIPEOUTVARIABLES
  2
AcDbWipeoutVariables
  3
WipeOut|AutoCAD Express Tool|expresstools@autodesk.com
 90
        0
280
     0
281
     0
  0
CLASS
  1
RTEXT
  2
RText
  3
RText|AutoCAD Express Tool|expresstools@autodesk.com
 90
    32768
280
     0
281
     1
  0
CLASS
  1
ARCALIGNEDTEXT
  2
AcDbArcAlignedText
  3
ATEXT|AutoCAD Express Tool|expresstools@autodesk.com
 90
    32768
280
     0
281
     1
  0
ENDSEC
  0
SECTION
  2
TABLES
  0
TABLE
  2
VPORT
  5
7
100
AcDbSymbolTable
 70
     1
  0
VPORT
  5
15
100
AcDbSymbolTableRecord
100
AcDbViewportTableRecord
  2
*ACTIVE
 70
     0
 10
0.0
 20
0.0
 11
1.0
 21
1.0
 12
6.591288
 22
4.579184
 13
0.0
 23
0.0
 14
1.0
 24
1.0
 15
0.0
 25
0.0
 16
0.0
 26
0.0
 36
1.0
 17
0.0
 27
0.0
 37
0.0
 40
9.158369
 41
0.688564
 42
50.0
 43
0.0
 44
0.0
 50
0.0
 51
0.0
 71
     0
 72
   100
 73
     1
 74
     1
 75
     0
 76
     0
 77
     0
 78
     0
281
     0
 65
     0
110
0.0
120
0.0
130
0.0
111
1.0
121
0.0
131
0.0
112
0.0
122
1.0
132
0.0
345
0
346
0
 79
     0
146
0.0
  0
ENDTAB
  0
TABLE
  2
LTYPE
  5
4
100
AcDbSymbolTable
 70
     3
  0
LTYPE
  5
11
100
AcDbSymbolTableRecord
100
AcDbLinetypeTableRecord
  2
ByBlock
 70
    64
  3

 72
    65
 73
     0
 40
0.0
  0
LTYPE
  5
12
100
AcDbSymbolTableRecord
100
AcDbLinetypeTableRecord
  2
ByLayer
 70
    64
  3

 72
    65
 73
     0
 40
0.0
  0
LTYPE
  5
13
100
AcDbSymbolTableRecord
100
AcDbLinetypeTableRecord
  2
Continuous
 70
    64
  3
Solid line
 72
    65
 73
     0
 40
0.0
  0
ENDTAB
  0
TABLE
  2
LAYER
  5
2
100
AcDbSymbolTable
 70
     3
  0
LAYER
  5
14
100
AcDbSymbolTableRecord
100
AcDbLayerTableRecord
  2
0
 70
     0
 62
     7
  6
Continuous
290
     1
370
    -3
390
1D
  0
LAYER
  5
24
100
AcDbSymbolTableRecord
100
AcDbLayerTableRecord
  2
Text
 70
     0
 62
     7
  6
Continuous
290
     1
370
    -3
390
1F
  0
LAYER
  5
25
100
AcDbSymbolTableRecord
100
AcDbLayerTableRecord
  2
P
 70
     0
 62
     7
  6
Continuous
290
     1
370
    -3
390
1F
  0
ENDTAB
  0
TABLE
  2
STYLE
  5
3
100
AcDbSymbolTable
 70
     1
  0
STYLE
  5
17
100
AcDbSymbolTableRecord
100
AcDbTextStyleTableRecord
  2
Standard
 70
     0
 40
0.0
 41
1.0
 50
0.0
 71
     0
 42
0.0
  3
txt
  4

  0
ENDTAB
  0
TABLE
  2
VIEW
  5
5
100
AcDbSymbolTable
 70
     0
  0
ENDTAB
  0
TABLE
  2
UCS
  5
6
100
AcDbSymbolTable
 70
     0
  0
ENDTAB
  0
TABLE
  2
APPID
  5
8
100
AcDbSymbolTable
 70
     1
  0
APPID
  5
16
100
AcDbSymbolTableRecord
100
AcDbRegAppTableRecord
  2
ACAD
 70
     0
  0
ENDTAB
  0
TABLE
  2
DIMSTYLE
  5
9
100
AcDbSymbolTable
 70
     1
100
AcDbDimStyleTable
 71
     0
  0
DIMSTYLE
105
18
100
AcDbSymbolTableRecord
100
AcDbDimStyleTableRecord
  2
Standard
 70
     0
  3

  4

 40
1.0
 41
0.18
 42
0.0625
 43
0.38
 44
0.18
 45
0.0
 46
0.0
 47
0.0
 48
0.0
 71
     0
 72
     0
 73
     1
 74
     1
 75
     0
 76
     0
 77
     0
 78
     0
 79
     0
140
0.18
141
0.09
142
0.0
143
25.4
144
1.0
145
0.0
146
1.0
147
0.09
148
0.0
170
     0
171
     2
172
     0
173
     0
174
     0
175
     0
176
     0
177
     0
178
     0
179
     0
271
     4
272
     4
273
     2
274
     2
275
     0
276
     0
277
     2
278
    46
279
     0
280
     0
281
     0
282
     0
283
     1
284
     0
285
     0
286
     0
288
     0
340
17
341
0
342
0
343
0
344
0
371
    -2
372
    -2
  0
ENDTAB
  0
TABLE
  2
BLOCK_RECORD
  5
1
100
AcDbSymbolTable
 70
     0
  0
BLOCK_RECORD
  5
A
100
AcDbSymbolTableRecord
100
AcDbBlockTableRecord
  2
*MODEL_SPACE
340
20
  0
BLOCK_RECORD
  5
B
100
AcDbSymbolTableRecord
100
AcDbBlockTableRecord
  2
*PAPER_SPACE
340
21
  0
ENDTAB
  0
ENDSEC
  0
SECTION
  2
BLOCKS
  0
BLOCK
  5
D
100
AcDbEntity
  8
0
100
AcDbBlockBegin
  2
*MODEL_SPACE
 70
     0
 10
0.0
 20
0.0
 30
0.0
  3
*MODEL_SPACE
  1

  0
ENDBLK
  5
E
100
AcDbEntity
  8
0
100
AcDbBlockEnd
  0
BLOCK
  5
F
100
AcDbEntity
 67
     1
  8
0
100
AcDbBlockBegin
  2
*PAPER_SPACE
 70
     0
 10
0.0
 20
0.0
 30
0.0
  3
*PAPER_SPACE
  1

  0
ENDBLK
  5
10
100
AcDbEntity
 67
     1
  8
0
100
AcDbBlockEnd
  0
ENDSEC
  0
SECTION
  2
ENTITIES
  0
SPLINE
  5
26
100
AcDbEntity
  8
P
100
AcDbSpline
210
0.0
220
0.0
230
1.0
 70
     0
 71
     3
 72
     8
 73
     4
 74
     0
 42
0.0000000001
 43
0.0000000001
 40
0.0
 40
0.0
 40
0.0
 40
0.0
 40
1.0
 40
1.0
 40
1.0
 40
1.0
 10
161.66650000000001
 20
361.86610000000002
 30
0.0
 10
161.66650000000001
 20
361.86610000000002
 30
0.0
 10
168.81790000000001
 20
361.86610000000002
 30
0.0
 10
168.81790000000001
 20
361.86610000000002
 30
0.0
  0
SPLINE
  5
27
100
AcDbEntity
  8
P
100
AcDbSpline
210
0.0
220
0.0
230
1.0
 70
     0
 71
     3
 72
     8
 73
     4
 74
     0
 42
0.0000000001
 43
0.0000000001
 40
0.0
 40
0.0
 40
0.0
 40
0.0
 40
1.0
 40
1.0
 40
1.0
 40
1.0
 10
168.81790000000001
 20
364.70280000000002
 30
0.0
 10
168.81790000000001
 20
364.70280000000002
 30
0.0
 10
168.81790000000001
 20
361.86610000000002
 30
0.0
 10
168.81790000000001
 20
361.86610000000002
 30
0.0
  0
SPLINE
  5
28
100
AcDbEntity
  8
P
100
AcDbSpline
210
0.0
220
0.0
230
1.0
 70
     0
 71
     3
 72
     8
 73
     4
 74
     0
 42
0.0000000001
 43
0.0000000001
 40
0.0
 40
0.0
 40
0.0
 40
0.0
 40
1.0
 40
1.0
 40
1.0
 40
1.0
 10
168.81790000000001
 20
364.70280000000002
 30
0.0
 10
168.81790000000001
 20
364.70280000000002
 30
0.0
 10
176.02809999999999
 20
364.70280000000002
 30
0.0
 10
176.02809999999999
 20
364.70280000000002
 30
0.0
  0
SPLINE
  5
29
100
AcDbEntity
  8
P
100
AcDbSpline
210
0.0
220
0.0
230
1.0
 70
     0
 71
     3
 72
     8
 73
     4
 74
     0
 42
0.0000000001
 43
0.0000000001
 40
0.0
 40
0.0
 40
0.0
 40
0.0
 40
1.0
 40
1.0
 40
1.0
 40
1.0
 10
176.02809999999999
 20
364.70280000000002
 30
0.0
 10
176.02809999999999
 20
364.70280000000002
 30
0.0
 10
176.02809999999999
 20
361.86610000000002
 30
0.0
 10
176.02809999999999
 20
361.86610000000002
 30
0.0
  0
SPLINE
  5
2A
100
AcDbEntity
  8
P
100
AcDbSpline
210
0.0
220
0.0
230
1.0
 70
     0
 71
     3
 72
     8
 73
     4
 74
     0
 42
0.0000000001
 43
0.0000000001
 40
0.0
 40
0.0
 40
0.0
 40
0.0
 40
1.0
 40
1.0
 40
1.0
 40
1.0
 10
176.02809999999999
 20
361.86610000000002
 30
0.0
 10
176.02809999999999
 20
361.86610000000002
 30
0.0
 10
183.17920000000001
 20
361.86610000000002
 30
0.0
 10
183.17920000000001
 20
361.86610000000002
 30
0.0
  0
SPLINE
  5
2B
100
AcDbEntity
  8
P
100
AcDbSpline
210
0.0
220
0.0
230
1.0
 70
     0
 71
     3
 72
     8
 73
     4
 74
     0
 42
0.0000000001
 43
0.0000000001
 40
0.0
 40
0.0
 40
0.0
 40
0.0
 40
1.0
 40
1.0
 40
1.0
 40
1.0
 10
183.17920000000001
 20
364.70280000000002
 30
0.0
 10
183.17920000000001
 20
364.70280000000002
 30
0.0
 10
183.17920000000001
 20
361.86610000000002
 30
0.0
 10
183.17920000000001
 20
361.86610000000002
 30
0.0
  0
SPLINE
  5
2C
100
AcDbEntity
  8
P
100
AcDbSpline
210
0.0
220
0.0
230
1.0
 70
     0
 71
     3
 72
     8
 73
     4
 74
     0
 42
0.0000000001
 43
0.0000000001
 40
0.0
 40
0.0
 40
0.0
 40
0.0
 40
1.0
 40
1.0
 40
1.0
 40
1.0
 10
183.17920000000001
 20
364.70280000000002
 30
0.0
 10
183.17920000000001
 20
364.70280000000002
 30
0.0
 10
190.33029999999999
 20
364.70280000000002
 30
0.0
 10
190.33029999999999
 20
364.70280000000002
 30
0.0
  0
SPLINE
  5
2D
100
AcDbEntity
  8
P
100
AcDbSpline
210
0.0
220
0.0
230
1.0
 70
     0
 71
     3
 72
     8
 73
     4
 74
     0
 42
0.0000000001
 43
0.0000000001
 40
0.0
 40
0.0
 40
0.0
 40
0.0
 40
1.0
 40
1.0
 40
1.0
 40
1.0
 10
190.33029999999999
 20
364.70280000000002
 30
0.0
 10
190.33029999999999
 20
364.70280000000002
 30
0.0
 10
190.33029999999999
 20
361.86610000000002
 30
0.0
 10
190.33029999999999
 20
361.86610000000002
 30
0.0
  0
SPLINE
  5
2E
100
AcDbEntity
  8
P
100
AcDbSpline
210
0.0
220
0.0
230
1.0
 70
     0
 71
     3
 72
     8
 73
     4
 74
     0
 42
0.0000000001
 43
0.0000000001
 40
0.0
 40
0.0
 40
0.0
 40
0.0
 40
1.0
 40
1.0
 40
1.0
 40
1.0
 10
190.33029999999999
 20
361.86610000000002
 30
0.0
 10
190.33029999999999
 20
361.86610000000002
 30
0.0
 10
197.5411
 20
361.86610000000002
 30
0.0
 10
197.5411
 20
361.86610000000002
 30
0.0
  0
SPLINE
  5
2F
100
AcDbEntity
  8
P
100
AcDbSpline
210
0.0
220
0.0
230
1.0
 70
     0
 71
     3
 72
     8
 73
     4
 74
     0
 42
0.0000000001
 43
0.0000000001
 40
0.0
 40
0.0
 40
0.0
 40
0.0
 40
1.0
 40
1.0
 40
1.0
 40
1.0
 10
197.5411
 20
364.70280000000002
 30
0.0
 10
197.5411
 20
364.70280000000002
 30
0.0
 10
197.5411
 20
361.86610000000002
 30
0.0
 10
197.5411
 20
361.86610000000002
 30
0.0
  0
SPLINE
  5
30
100
AcDbEntity
  8
P
100
AcDbSpline
210
0.0
220
0.0
230
1.0
 70
     0
 71
     3
 72
     8
 73
     4
 74
     0
 42
0.0000000001
 43
0.0000000001
 40
0.0
 40
0.0
 40
0.0
 40
0.0
 40
1.0
 40
1.0
 40
1.0
 40
1.0
 10
197.5411
 20
364.70280000000002
 30
0.0
 10
197.5411
 20
364.70280000000002
 30
0.0
 10
204.69220000000001
 20
364.70280000000002
 30
0.0
 10
204.69220000000001
 20
364.70280000000002
 30
0.0
  0
SPLINE
  5
31
100
AcDbEntity
  8
P
100
AcDbSpline
210
0.0
220
0.0
230
1.0
 70
     0
 71
     3
 72
     8
 73
     4
 74
     0
 42
0.0000000001
 43
0.0000000001
 40
0.0
 40
0.0
 40
0.0
 40
0.0
 40
1.0
 40
1.0
 40
1.0
 40
1.0
 10
204.69220000000001
 20
364.70280000000002
 30
0.0
 10
204.69220000000001
 20
364.70280000000002
 30
0.0
 10
204.69220000000001
 20
361.86610000000002
 30
0.0
 10
204.69220000000001
 20
361.86610000000002
 30
0.0
  0
SPLINE
  5
32
100
AcDbEntity
  8
P
100
AcDbSpline
210
0.0
220
0.0
230
1.0
 70
     0
 71
     3
 72
     8
 73
     4
 74
     0
 42
0.0000000001
 43
0.0000000001
 40
0.0
 40
0.0
 40
0.0
 40
0.0
 40
1.0
 40
1.0
 40
1.0
 40
1.0
 10
204.69220000000001
 20
361.86610000000002
 30
0.0
 10
204.69220000000001
 20
361.86610000000002
 30
0.0
 10
209.06630000000001
 20
361.86610000000002
 30
0.0
 10
209.06630000000001
 20
361.86610000000002
 30
0.0
  0
SPLINE
  5
33
100
AcDbEntity
  8
P
100
AcDbSpline
210
0.0
220
0.0
230
1.0
 70
     0
 71
     3
 72
     8
 73
     4
 74
     0
 42
0.0000000001
 43
0.0000000001
 40
0.0
 40
0.0
 40
0.0
 40
0.0
 40
1.0
 40
1.0
 40
1.0
 40
1.0
 10
161.66650000000001
 20
412.16180000000003
 30
0.0
 10
161.66650000000001
 20
412.16180000000003
 30
0.0
 10
168.81790000000001
 20
412.16180000000003
 30
0.0
 10
168.81790000000001
 20
412.16180000000003
 30
0.0
  0
SPLINE
  5
34
100
AcDbEntity
  8
P
100
AcDbSpline
210
0.0
220
0.0
230
1.0
 70
     0
 71
     3
 72
     8
 73
     4
 74
     0
 42
0.0000000001
 43
0.0000000001
 40
0.0
 40
0.0
 40
0.0
 40
0.0
 40
1.0
 40
1.0
 40
1.0
 40
1.0
 10
168.81790000000001
 20
412.16180000000003
 30
0.0
 10
168.81790000000001
 20
412.16180000000003
 30
0.0
 10
168.81790000000001
 20
409.32479999999998
 30
0.0
 10
168.81790000000001
 20
409.32479999999998
 30
0.0
  0
SPLINE
  5
35
100
AcDbEntity
  8
P
100
AcDbSpline
210
0.0
220
0.0
230
1.0
 70
     0
 71
     3
 72
     8
 73
     4
 74
     0
 42
0.0000000001
 43
0.0000000001
 40
0.0
 40
0.0
 40
0.0
 40
0.0
 40
1.0
 40
1.0
 40
1.0
 40
1.0
 10
168.81790000000001
 20
409.32479999999998
 30
0.0
 10
168.81790000000001
 20
409.32479999999998
 30
0.0
 10
176.02809999999999
 20
409.32479999999998
 30
0.0
 10
176.02809999999999
 20
409.32479999999998
 30
0.0
  0
SPLINE
  5
36
100
AcDbEntity
  8
P
100
AcDbSpline
210
0.0
220
0.0
230
1.0
 70
     0
 71
     3
 72
     8
 73
     4
 74
     0
 42
0.0000000001
 43
0.0000000001
 40
0.0
 40
0.0
 40
0.0
 40
0.0
 40
1.0
 40
1.0
 40
1.0
 40
1.0
 10
176.02809999999999
 20
412.16180000000003
 30
0.0
 10
176.02809999999999
 20
412.16180000000003
 30
0.0
 10
176.02809999999999
 20
409.32479999999998
 30
0.0
 10
176.02809999999999
 20
409.32479999999998
 30
0.0
  0
SPLINE
  5
37
100
AcDbEntity
  8
P
100
AcDbSpline
210
0.0
220
0.0
230
1.0
 70
     0
 71
     3
 72
     8
 73
     4
 74
     0
 42
0.0000000001
 43
0.0000000001
 40
0.0
 40
0.0
 40
0.0
 40
0.0
 40
1.0
 40
1.0
 40
1.0
 40
1.0
 10
176.02809999999999
 20
412.16180000000003
 30
0.0
 10
176.02809999999999
 20
412.16180000000003
 30
0.0
 10
183.17920000000001
 20
412.16180000000003
 30
0.0
 10
183.17920000000001
 20
412.16180000000003
 30
0.0
  0
SPLINE
  5
38
100
AcDbEntity
  8
P
100
AcDbSpline
210
0.0
220
0.0
230
1.0
 70
     0
 71
     3
 72
     8
 73
     4
 74
     0
 42
0.0000000001
 43
0.0000000001
 40
0.0
 40
0.0
 40
0.0
 40
0.0
 40
1.0
 40
1.0
 40
1.0
 40
1.0
 10
183.17920000000001
 20
412.16180000000003
 30
0.0
 10
183.17920000000001
 20
412.16180000000003
 30
0.0
 10
183.17920000000001
 20
409.32479999999998
 30
0.0
 10
183.17920000000001
 20
409.32479999999998
 30
0.0
  0
SPLINE
  5
39
100
AcDbEntity
  8
P
100
AcDbSpline
210
0.0
220
0.0
230
1.0
 70
     0
 71
     3
 72
     8
 73
     4
 74
     0
 42
0.0000000001
 43
0.0000000001
 40
0.0
 40
0.0
 40
0.0
 40
0.0
 40
1.0
 40
1.0
 40
1.0
 40
1.0
 10
183.17920000000001
 20
409.32479999999998
 30
0.0
 10
183.17920000000001
 20
409.32479999999998
 30
0.0
 10
190.33029999999999
 20
409.32479999999998
 30
0.0
 10
190.33029999999999
 20
409.32479999999998
 30
0.0
  0
SPLINE
  5
3A
100
AcDbEntity
  8
P
100
AcDbSpline
210
0.0
220
0.0
230
1.0
 70
     0
 71
     3
 72
     8
 73
     4
 74
     0
 42
0.0000000001
 43
0.0000000001
 40
0.0
 40
0.0
 40
0.0
 40
0.0
 40
1.0
 40
1.0
 40
1.0
 40
1.0
 10
190.33029999999999
 20
412.16180000000003
 30
0.0
 10
190.33029999999999
 20
412.16180000000003
 30
0.0
 10
190.33029999999999
 20
409.32479999999998
 30
0.0
 10
190.33029999999999
 20
409.32479999999998
 30
0.0
  0
SPLINE
  5
3B
100
AcDbEntity
  8
P
100
AcDbSpline
210
0.0
220
0.0
230
1.0
 70
     0
 71
     3
 72
     8
 73
     4
 74
     0
 42
0.0000000001
 43
0.0000000001
 40
0.0
 40
0.0
 40
0.0
 40
0.0
 40
1.0
 40
1.0
 40
1.0
 40
1.0
 10
190.33029999999999
 20
412.16180000000003
 30
0.0
 10
190.33029999999999
 20
412.16180000000003
 30
0.0
 10
197.5411
 20
412.16180000000003
 30
0.0
 10
197.5411
 20
412.16180000000003
 30
0.0
  0
SPLINE
  5
3C
100
AcDbEntity
  8
P
100
AcDbSpline
210
0.0
220
0.0
230
1.0
 70
     0
 71
     3
 72
     8
 73
     4
 74
     0
 42
0.0000000001
 43
0.0000000001
 40
0.0
 40
0.0
 40
0.0
 40
0.0
 40
1.0
 40
1.0
 40
1.0
 40
1.0
 10
197.5411
 20
412.16180000000003
 30
0.0
 10
197.5411
 20
412.16180000000003
 30
0.0
 10
197.5411
 20
409.32479999999998
 30
0.0
 10
197.5411
 20
409.32479999999998
 30
0.0
  0
SPLINE
  5
3D
100
AcDbEntity
  8
P
100
AcDbSpline
210
0.0
220
0.0
230
1.0
 70
     0
 71
     3
 72
     8
 73
     4
 74
     0
 42
0.0000000001
 43
0.0000000001
 40
0.0
 40
0.0
 40
0.0
 40
0.0
 40
1.0
 40
1.0
 40
1.0
 40
1.0
 10
197.5411
 20
409.32479999999998
 30
0.0
 10
197.5411
 20
409.32479999999998
 30
0.0
 10
204.69220000000001
 20
409.32479999999998
 30
0.0
 10
204.69220000000001
 20
409.32479999999998
 30
0.0
  0
SPLINE
  5
3E
100
AcDbEntity
  8
P
100
AcDbSpline
210
0.0
220
0.0
230
1.0
 70
     0
 71
     3
 72
     8
 73
     4
 74
     0
 42
0.0000000001
 43
0.0000000001
 40
0.0
 40
0.0
 40
0.0
 40
0.0
 40
1.0
 40
1.0
 40
1.0
 40
1.0
 10
204.69220000000001
 20
412.16180000000003
 30
0.0
 10
204.69220000000001
 20
412.16180000000003
 30
0.0
 10
204.69220000000001
 20
409.32479999999998
 30
0.0
 10
204.69220000000001
 20
409.32479999999998
 30
0.0
  0
SPLINE
  5
3F
100
AcDbEntity
  8
P
100
AcDbSpline
210
0.0
220
0.0
230
1.0
 70
     0
 71
     3
 72
     8
 73
     4
 74
     0
 42
0.0000000001
 43
0.0000000001
 40
0.0
 40
0.0
 40
0.0
 40
0.0
 40
1.0
 40
1.0
 40
1.0
 40
1.0
 10
204.69220000000001
 20
412.16180000000003
 30
0.0
 10
204.69220000000001
 20
412.16180000000003
 30
0.0
 10
209.06630000000001
 20
412.16180000000003
 30
0.0
 10
209.06630000000001
 20
412.16180000000003
 30
0.0
  0
SPLINE
  5
40
100
AcDbEntity
  8
P
100
AcDbSpline
210
0.0
220
0.0
230
1.0
 70
     0
 71
     3
 72
     8
 73
     4
 74
     0
 42
0.0000000001
 43
0.0000000001
 40
0.0
 40
0.0
 40
0.0
 40
0.0
 40
1.0
 40
1.0
 40
1.0
 40
1.0
 10
161.66650000000001
 20
361.86610000000002
 30
0.0
 10
161.66650000000001
 20
361.86610000000002
 30
0.0
 10
161.66650000000001
 20
369.07659999999998
 30
0.0
 10
161.66650000000001
 20
369.07659999999998
 30
0.0
  0
SPLINE
  5
41
100
AcDbEntity
  8
P
100
AcDbSpline
210
0.0
220
0.0
230
1.0
 70
     0
 71
     3
 72
     8
 73
     4
 74
     0
 42
0.0000000001
 43
0.0000000001
 40
0.0
 40
0.0
 40
0.0
 40
0.0
 40
1.0
 40
1.0
 40
1.0
 40
1.0
 10
164.44380000000001
 20
369.07659999999998
 30
0.0
 10
164.44380000000001
 20
369.07659999999998
 30
0.0
 10
161.66650000000001
 20
369.07659999999998
 30
0.0
 10
161.66650000000001
 20
369.07659999999998
 30
0.0
  0
SPLINE
  5
42
100
AcDbEntity
  8
P
100
AcDbSpline
210
0.0
220
0.0
230
1.0
 70
     0
 71
     3
 72
     8
 73
     4
 74
     0
 42
0.0000000001
 43
0.0000000001
 40
0.0
 40
0.0
 40
0.0
 40
0.0
 40
1.0
 40
1.0
 40
1.0
 40
1.0
 10
164.44380000000001
 20
369.07659999999998
 30
0.0
 10
164.44380000000001
 20
369.07659999999998
 30
0.0
 10
164.44380000000001
 20
376.22800000000001
 30
0.0
 10
164.44380000000001
 20
376.22800000000001
 30
0.0
  0
SPLINE
  5
43
100
AcDbEntity
  8
P
100
AcDbSpline
210
0.0
220
0.0
230
1.0
 70
     0
 71
     3
 72
     8
 73
     4
 74
     0
 42
0.0000000001
 43
0.0000000001
 40
0.0
 40
0.0
 40
0.0
 40
0.0
 40
1.0
 40
1.0
 40
1.0
 40
1.0
 10
164.44380000000001
 20
376.22800000000001
 30
0.0
 10
164.44380000000001
 20
376.22800000000001
 30
0.0
 10
161.66650000000001
 20
376.22800000000001
 30
0.0
 10
161.66650000000001
 20
376.22800000000001
 30
0.0
  0
SPLINE
  5
44
100
AcDbEntity
  8
P
100
AcDbSpline
210
0.0
220
0.0
230
1.0
 70
     0
 71
     3
 72
     8
 73
     4
 74
     0
 42
0.0000000001
 43
0.0000000001
 40
0.0
 40
0.0
 40
0.0
 40
0.0
 40
1.0
 40
1.0
 40
1.0
 40
1.0
 10
161.66650000000001
 20
376.22800000000001
 30
0.0
 10
161.66650000000001
 20
376.22800000000001
 30
0.0
 10
161.66650000000001
 20
383.43849999999998
 30
0.0
 10
161.66650000000001
 20
383.43849999999998
 30
0.0
  0
SPLINE
  5
45
100
AcDbEntity
  8
P
100
AcDbSpline
210
0.0
220
0.0
230
1.0
 70
     0
 71
     3
 72
     8
 73
     4
 74
     0
 42
0.0000000001
 43
0.0000000001
 40
0.0
 40
0.0
 40
0.0
 40
0.0
 40
1.0
 40
1.0
 40
1.0
 40
1.0
 10
164.44380000000001
 20
383.43849999999998
 30
0.0
 10
164.44380000000001
 20
383.43849999999998
 30
0.0
 10
161.66650000000001
 20
383.43849999999998
 30
0.0
 10
161.66650000000001
 20
383.43849999999998
 30
0.0
  0
SPLINE
  5
46
100
AcDbEntity
  8
P
100
AcDbSpline
210
0.0
220
0.0
230
1.0
 70
     0
 71
     3
 72
     8
 73
     4
 74
     0
 42
0.0000000001
 43
0.0000000001
 40
0.0
 40
0.0
 40
0.0
 40
0.0
 40
1.0
 40
1.0
 40
1.0
 40
1.0
 10
164.44380000000001
 20
383.43849999999998
 30
0.0
 10
164.44380000000001
 20
383.43849999999998
 30
0.0
 10
164.44380000000001
 20
390.58960000000002
 30
0.0
 10
164.44380000000001
 20
390.58960000000002
 30
0.0
  0
SPLINE
  5
47
100
AcDbEntity
  8
P
100
AcDbSpline
210
0.0
220
0.0
230
1.0
 70
     0
 71
     3
 72
     8
 73
     4
 74
     0
 42
0.0000000001
 43
0.0000000001
 40
0.0
 40
0.0
 40
0.0
 40
0.0
 40
1.0
 40
1.0
 40
1.0
 40
1.0
 10
164.44380000000001
 20
390.58960000000002
 30
0.0
 10
164.44380000000001
 20
390.58960000000002
 30
0.0
 10
161.66650000000001
 20
390.58960000000002
 30
0.0
 10
161.66650000000001
 20
390.58960000000002
 30
0.0
  0
SPLINE
  5
48
100
AcDbEntity
  8
P
100
AcDbSpline
210
0.0
220
0.0
230
1.0
 70
     0
 71
     3
 72
     8
 73
     4
 74
     0
 42
0.0000000001
 43
0.0000000001
 40
0.0
 40
0.0
 40
0.0
 40
0.0
 40
1.0
 40
1.0
 40
1.0
 40
1.0
 10
161.66650000000001
 20
390.58960000000002
 30
0.0
 10
161.66650000000001
 20
390.58960000000002
 30
0.0
 10
161.66650000000001
 20
397.7998
 30
0.0
 10
161.66650000000001
 20
397.7998
 30
0.0
  0
SPLINE
  5
49
100
AcDbEntity
  8
P
100
AcDbSpline
210
0.0
220
0.0
230
1.0
 70
     0
 71
     3
 72
     8
 73
     4
 74
     0
 42
0.0000000001
 43
0.0000000001
 40
0.0
 40
0.0
 40
0.0
 40
0.0
 40
1.0
 40
1.0
 40
1.0
 40
1.0
 10
164.44380000000001
 20
397.7998
 30
0.0
 10
164.44380000000001
 20
397.7998
 30
0.0
 10
161.66650000000001
 20
397.7998
 30
0.0
 10
161.66650000000001
 20
397.7998
 30
0.0
  0
SPLINE
  5
4A
100
AcDbEntity
  8
P
100
AcDbSpline
210
0.0
220
0.0
230
1.0
 70
     0
 71
     3
 72
     8
 73
     4
 74
     0
 42
0.0000000001
 43
0.0000000001
 40
0.0
 40
0.0
 40
0.0
 40
0.0
 40
1.0
 40
1.0
 40
1.0
 40
1.0
 10
164.44380000000001
 20
397.7998
 30
0.0
 10
164.44380000000001
 20
397.7998
 30
0.0
 10
164.44380000000001
 20
404.95119999999997
 30
0.0
 10
164.44380000000001
 20
404.95119999999997
 30
0.0
  0
SPLINE
  5
4B
100
AcDbEntity
  8
P
100
AcDbSpline
210
0.0
220
0.0
230
1.0
 70
     0
 71
     3
 72
     8
 73
     4
 74
     0
 42
0.0000000001
 43
0.0000000001
 40
0.0
 40
0.0
 40
0.0
 40
0.0
 40
1.0
 40
1.0
 40
1.0
 40
1.0
 10
164.44380000000001
 20
404.95119999999997
 30
0.0
 10
164.44380000000001
 20
404.95119999999997
 30
0.0
 10
161.66650000000001
 20
404.95119999999997
 30
0.0
 10
161.66650000000001
 20
404.95119999999997
 30
0.0
  0
SPLINE
  5
4C
100
AcDbEntity
  8
P
100
AcDbSpline
210
0.0
220
0.0
230
1.0
 70
     0
 71
     3
 72
     8
 73
     4
 74
     0
 42
0.0000000001
 43
0.0000000001
 40
0.0
 40
0.0
 40
0.0
 40
0.0
 40
1.0
 40
1.0
 40
1.0
 40
1.0
 10
161.66650000000001
 20
404.95119999999997
 30
0.0
 10
161.66650000000001
 20
404.95119999999997
 30
0.0
 10
161.66650000000001
 20
412.16180000000003
 30
0.0
 10
161.66650000000001
 20
412.16180000000003
 30
0.0
  0
SPLINE
  5
4D
100
AcDbEntity
  8
P
100
AcDbSpline
210
0.0
220
0.0
230
1.0
 70
     0
 71
     3
 72
     8
 73
     4
 74
     0
 42
0.0000000001
 43
0.0000000001
 40
0.0
 40
0.0
 40
0.0
 40
0.0
 40
1.0
 40
1.0
 40
1.0
 40
1.0
 10
209.06630000000001
 20
361.86610000000002
 30
0.0
 10
209.06630000000001
 20
361.86610000000002
 30
0.0
 10
209.06630000000001
 20
369.07659999999998
 30
0.0
 10
209.06630000000001
 20
369.07659999999998
 30
0.0
  0
SPLINE
  5
4E
100
AcDbEntity
  8
P
100
AcDbSpline
210
0.0
220
0.0
230
1.0
 70
     0
 71
     3
 72
     8
 73
     4
 74
     0
 42
0.0000000001
 43
0.0000000001
 40
0.0
 40
0.0
 40
0.0
 40
0.0
 40
1.0
 40
1.0
 40
1.0
 40
1.0
 10
211.90309999999999
 20
369.07659999999998
 30
0.0
 10
211.90309999999999
 20
369.07659999999998
 30
0.0
 10
209.06630000000001
 20
369.07659999999998
 30
0.0
 10
209.06630000000001
 20
369.07659999999998
 30
0.0
  0
SPLINE
  5
4F
100
AcDbEntity
  8
P
100
AcDbSpline
210
0.0
220
0.0
230
1.0
 70
     0
 71
     3
 72
     8
 73
     4
 74
     0
 42
0.0000000001
 43
0.0000000001
 40
0.0
 40
0.0
 40
0.0
 40
0.0
 40
1.0
 40
1.0
 40
1.0
 40
1.0
 10
211.90309999999999
 20
369.07659999999998
 30
0.0
 10
211.90309999999999
 20
369.07659999999998
 30
0.0
 10
211.90309999999999
 20
376.22800000000001
 30
0.0
 10
211.90309999999999
 20
376.22800000000001
 30
0.0
  0
SPLINE
  5
50
100
AcDbEntity
  8
P
100
AcDbSpline
210
0.0
220
0.0
230
1.0
 70
     0
 71
     3
 72
     8
 73
     4
 74
     0
 42
0.0000000001
 43
0.0000000001
 40
0.0
 40
0.0
 40
0.0
 40
0.0
 40
1.0
 40
1.0
 40
1.0
 40
1.0
 10
211.90309999999999
 20
376.22800000000001
 30
0.0
 10
211.90309999999999
 20
376.22800000000001
 30
0.0
 10
209.06630000000001
 20
376.22800000000001
 30
0.0
 10
209.06630000000001
 20
376.22800000000001
 30
0.0
  0
SPLINE
  5
51
100
AcDbEntity
  8
P
100
AcDbSpline
210
0.0
220
0.0
230
1.0
 70
     0
 71
     3
 72
     8
 73
     4
 74
     0
 42
0.0000000001
 43
0.0000000001
 40
0.0
 40
0.0
 40
0.0
 40
0.0
 40
1.0
 40
1.0
 40
1.0
 40
1.0
 10
209.06630000000001
 20
376.22800000000001
 30
0.0
 10
209.06630000000001
 20
376.22800000000001
 30
0.0
 10
209.06630000000001
 20
383.43849999999998
 30
0.0
 10
209.06630000000001
 20
383.43849999999998
 30
0.0
  0
SPLINE
  5
52
100
AcDbEntity
  8
P
100
AcDbSpline
210
0.0
220
0.0
230
1.0
 70
     0
 71
     3
 72
     8
 73
     4
 74
     0
 42
0.0000000001
 43
0.0000000001
 40
0.0
 40
0.0
 40
0.0
 40
0.0
 40
1.0
 40
1.0
 40
1.0
 40
1.0
 10
211.90309999999999
 20
383.43849999999998
 30
0.0
 10
211.90309999999999
 20
383.43849999999998
 30
0.0
 10
209.06630000000001
 20
383.43849999999998
 30
0.0
 10
209.06630000000001
 20
383.43849999999998
 30
0.0
  0
SPLINE
  5
53
100
AcDbEntity
  8
P
100
AcDbSpline
210
0.0
220
0.0
230
1.0
 70
     0
 71
     3
 72
     8
 73
     4
 74
     0
 42
0.0000000001
 43
0.0000000001
 40
0.0
 40
0.0
 40
0.0
 40
0.0
 40
1.0
 40
1.0
 40
1.0
 40
1.0
 10
211.90309999999999
 20
383.43849999999998
 30
0.0
 10
211.90309999999999
 20
383.43849999999998
 30
0.0
 10
211.90309999999999
 20
390.58960000000002
 30
0.0
 10
211.90309999999999
 20
390.58960000000002
 30
0.0
  0
SPLINE
  5
54
100
AcDbEntity
  8
P
100
AcDbSpline
210
0.0
220
0.0
230
1.0
 70
     0
 71
     3
 72
     8
 73
     4
 74
     0
 42
0.0000000001
 43
0.0000000001
 40
0.0
 40
0.0
 40
0.0
 40
0.0
 40
1.0
 40
1.0
 40
1.0
 40
1.0
 10
211.90309999999999
 20
390.58960000000002
 30
0.0
 10
211.90309999999999
 20
390.58960000000002
 30
0.0
 10
209.06630000000001
 20
390.58960000000002
 30
0.0
 10
209.06630000000001
 20
390.58960000000002
 30
0.0
  0
SPLINE
  5
55
100
AcDbEntity
  8
P
100
AcDbSpline
210
0.0
220
0.0
230
1.0
 70
     0
 71
     3
 72
     8
 73
     4
 74
     0
 42
0.0000000001
 43
0.0000000001
 40
0.0
 40
0.0
 40
0.0
 40
0.0
 40
1.0
 40
1.0
 40
1.0
 40
1.0
 10
209.06630000000001
 20
390.58960000000002
 30
0.0
 10
209.06630000000001
 20
390.58960000000002
 30
0.0
 10
209.06630000000001
 20
397.7998
 30
0.0
 10
209.06630000000001
 20
397.7998
 30
0.0
  0
SPLINE
  5
56
100
AcDbEntity
  8
P
100
AcDbSpline
210
0.0
220
0.0
230
1.0
 70
     0
 71
     3
 72
     8
 73
     4
 74
     0
 42
0.0000000001
 43
0.0000000001
 40
0.0
 40
0.0
 40
0.0
 40
0.0
 40
1.0
 40
1.0
 40
1.0
 40
1.0
 10
211.90309999999999
 20
397.7998
 30
0.0
 10
211.90309999999999
 20
397.7998
 30
0.0
 10
209.06630000000001
 20
397.7998
 30
0.0
 10
209.06630000000001
 20
397.7998
 30
0.0
  0
SPLINE
  5
57
100
AcDbEntity
  8
P
100
AcDbSpline
210
0.0
220
0.0
230
1.0
 70
     0
 71
     3
 72
     8
 73
     4
 74
     0
 42
0.0000000001
 43
0.0000000001
 40
0.0
 40
0.0
 40
0.0
 40
0.0
 40
1.0
 40
1.0
 40
1.0
 40
1.0
 10
211.90309999999999
 20
397.7998
 30
0.0
 10
211.90309999999999
 20
397.7998
 30
0.0
 10
211.90309999999999
 20
404.95119999999997
 30
0.0
 10
211.90309999999999
 20
404.95119999999997
 30
0.0
  0
SPLINE
  5
58
100
AcDbEntity
  8
P
100
AcDbSpline
210
0.0
220
0.0
230
1.0
 70
     0
 71
     3
 72
     8
 73
     4
 74
     0
 42
0.0000000001
 43
0.0000000001
 40
0.0
 40
0.0
 40
0.0
 40
0.0
 40
1.0
 40
1.0
 40
1.0
 40
1.0
 10
211.90309999999999
 20
404.95119999999997
 30
0.0
 10
211.90309999999999
 20
404.95119999999997
 30
0.0
 10
209.06630000000001
 20
404.95119999999997
 30
0.0
 10
209.06630000000001
 20
404.95119999999997
 30
0.0
  0
SPLINE
  5
59
100
AcDbEntity
  8
P
100
AcDbSpline
210
0.0
220
0.0
230
1.0
 70
     0
 71
     3
 72
     8
 73
     4
 74
     0
 42
0.0000000001
 43
0.0000000001
 40
0.0
 40
0.0
 40
0.0
 40
0.0
 40
1.0
 40
1.0
 40
1.0
 40
1.0
 10
209.06630000000001
 20
404.95119999999997
 30
0.0
 10
209.06630000000001
 20
404.95119999999997
 30
0.0
 10
209.06630000000001
 20
412.16180000000003
 30
0.0
 10
209.06630000000001
 20
412.16180000000003
 30
0.0
  0
SPLINE
  5
5A
100
AcDbEntity
  8
P
100
AcDbSpline
210
0.0
220
0.0
230
1.0
 70
     0
 71
     3
 72
     8
 73
     4
 74
     0
 42
0.0000000001
 43
0.0000000001
 40
0.0
 40
0.0
 40
0.0
 40
0.0
 40
1.0
 40
1.0
 40
1.0
 40
1.0
 10
52.844900000000003
 20
417.10899999999998
 30
0.0
 10
52.844900000000003
 20
417.10899999999998
 30
0.0
 10
60.055100000000003
 20
417.10899999999998
 30
0.0
 10
60.055100000000003
 20
417.10899999999998
 30
0.0
  0
SPLINE
  5
5B
100
AcDbEntity
  8
P
100
AcDbSpline
210
0.0
220
0.0
230
1.0
 70
     0
 71
     3
 72
     8
 73
     4
 74
     0
 42
0.0000000001
 43
0.0000000001
 40
0.0
 40
0.0
 40
0.0
 40
0.0
 40
1.0
 40
1.0
 40
1.0
 40
1.0
 10
60.055100000000003
 20
419.88670000000002
 30
0.0
 10
60.055100000000003
 20
419.88670000000002
 30
0.0
 10
60.055100000000003
 20
417.10899999999998
 30
0.0
 10
60.055100000000003
 20
417.10899999999998
 30
0.0
  0
SPLINE
  5
5C
100
AcDbEntity
  8
P
100
AcDbSpline
210
0.0
220
0.0
230
1.0
 70
     0
 71
     3
 72
     8
 73
     4
 74
     0
 42
0.0000000001
 43
0.0000000001
 40
0.0
 40
0.0
 40
0.0
 40
0.0
 40
1.0
 40
1.0
 40
1.0
 40
1.0
 10
60.055100000000003
 20
419.88670000000002
 30
0.0
 10
60.055100000000003
 20
419.88670000000002
 30
0.0
 10
67.206699999999998
 20
419.88670000000002
 30
0.0
 10
67.206699999999998
 20
419.88670000000002
 30
0.0
  0
SPLINE
  5
5D
100
AcDbEntity
  8
P
100
AcDbSpline
210
0.0
220
0.0
230
1.0
 70
     0
 71
     3
 72
     8
 73
     4
 74
     0
 42
0.0000000001
 43
0.0000000001
 40
0.0
 40
0.0
 40
0.0
 40
0.0
 40
1.0
 40
1.0
 40
1.0
 40
1.0
 10
67.206699999999998
 20
419.88670000000002
 30
0.0
 10
67.206699999999998
 20
419.88670000000002
 30
0.0
 10
67.206699999999998
 20
417.10899999999998
 30
0.0
 10
67.206699999999998
 20
417.10899999999998
 30
0.0
  0
SPLINE
  5
5E
100
AcDbEntity
  8
P
100
AcDbSpline
210
0.0
220
0.0
230
1.0
 70
     0
 71
     3
 72
     8
 73
     4
 74
     0
 42
0.0000000001
 43
0.0000000001
 40
0.0
 40
0.0
 40
0.0
 40
0.0
 40
1.0
 40
1.0
 40
1.0
 40
1.0
 10
67.206699999999998
 20
417.10899999999998
 30
0.0
 10
67.206699999999998
 20
417.10899999999998
 30
0.0
 10
74.417299999999997
 20
417.10899999999998
 30
0.0
 10
74.417299999999997
 20
417.10899999999998
 30
0.0
  0
SPLINE
  5
5F
100
AcDbEntity
  8
P
100
AcDbSpline
210
0.0
220
0.0
230
1.0
 70
     0
 71
     3
 72
     8
 73
     4
 74
     0
 42
0.0000000001
 43
0.0000000001
 40
0.0
 40
0.0
 40
0.0
 40
0.0
 40
1.0
 40
1.0
 40
1.0
 40
1.0
 10
74.417299999999997
 20
419.88670000000002
 30
0.0
 10
74.417299999999997
 20
419.88670000000002
 30
0.0
 10
74.417299999999997
 20
417.10899999999998
 30
0.0
 10
74.417299999999997
 20
417.10899999999998
 30
0.0
  0
SPLINE
  5
60
100
AcDbEntity
  8
P
100
AcDbSpline
210
0.0
220
0.0
230
1.0
 70
     0
 71
     3
 72
     8
 73
     4
 74
     0
 42
0.0000000001
 43
0.0000000001
 40
0.0
 40
0.0
 40
0.0
 40
0.0
 40
1.0
 40
1.0
 40
1.0
 40
1.0
 10
74.417299999999997
 20
419.88670000000002
 30
0.0
 10
74.417299999999997
 20
419.88670000000002
 30
0.0
 10
81.568399999999997
 20
419.88670000000002
 30
0.0
 10
81.568399999999997
 20
419.88670000000002
 30
0.0
  0
SPLINE
  5
61
100
AcDbEntity
  8
P
100
AcDbSpline
210
0.0
220
0.0
230
1.0
 70
     0
 71
     3
 72
     8
 73
     4
 74
     0
 42
0.0000000001
 43
0.0000000001
 40
0.0
 40
0.0
 40
0.0
 40
0.0
 40
1.0
 40
1.0
 40
1.0
 40
1.0
 10
81.568399999999997
 20
419.88670000000002
 30
0.0
 10
81.568399999999997
 20
419.88670000000002
 30
0.0
 10
81.568399999999997
 20
417.10899999999998
 30
0.0
 10
81.568399999999997
 20
417.10899999999998
 30
0.0
  0
SPLINE
  5
62
100
AcDbEntity
  8
P
100
AcDbSpline
210
0.0
220
0.0
230
1.0
 70
     0
 71
     3
 72
     8
 73
     4
 74
     0
 42
0.0000000001
 43
0.0000000001
 40
0.0
 40
0.0
 40
0.0
 40
0.0
 40
1.0
 40
1.0
 40
1.0
 40
1.0
 10
81.568399999999997
 20
417.10899999999998
 30
0.0
 10
81.568399999999997
 20
417.10899999999998
 30
0.0
 10
88.779200000000003
 20
417.10899999999998
 30
0.0
 10
88.779200000000003
 20
417.10899999999998
 30
0.0
  0
SPLINE
  5
63
100
AcDbEntity
  8
P
100
AcDbSpline
210
0.0
220
0.0
230
1.0
 70
     0
 71
     3
 72
     8
 73
     4
 74
     0
 42
0.0000000001
 43
0.0000000001
 40
0.0
 40
0.0
 40
0.0
 40
0.0
 40
1.0
 40
1.0
 40
1.0
 40
1.0
 10
88.779200000000003
 20
419.88670000000002
 30
0.0
 10
88.779200000000003
 20
419.88670000000002
 30
0.0
 10
88.779200000000003
 20
417.10899999999998
 30
0.0
 10
88.779200000000003
 20
417.10899999999998
 30
0.0
  0
SPLINE
  5
64
100
AcDbEntity
  8
P
100
AcDbSpline
210
0.0
220
0.0
230
1.0
 70
     0
 71
     3
 72
     8
 73
     4
 74
     0
 42
0.0000000001
 43
0.0000000001
 40
0.0
 40
0.0
 40
0.0
 40
0.0
 40
1.0
 40
1.0
 40
1.0
 40
1.0
 10
88.779200000000003
 20
419.88670000000002
 30
0.0
 10
88.779200000000003
 20
419.88670000000002
 30
0.0
 10
95.930499999999995
 20
419.88670000000002
 30
0.0
 10
95.930499999999995
 20
419.88670000000002
 30
0.0
  0
SPLINE
  5
65
100
AcDbEntity
  8
P
100
AcDbSpline
210
0.0
220
0.0
230
1.0
 70
     0
 71
     3
 72
     8
 73
     4
 74
     0
 42
0.0000000001
 43
0.0000000001
 40
0.0
 40
0.0
 40
0.0
 40
0.0
 40
1.0
 40
1.0
 40
1.0
 40
1.0
 10
95.930499999999995
 20
419.88670000000002
 30
0.0
 10
95.930499999999995
 20
419.88670000000002
 30
0.0
 10
95.930499999999995
 20
417.10899999999998
 30
0.0
 10
95.930499999999995
 20
417.10899999999998
 30
0.0
  0
SPLINE
  5
66
100
AcDbEntity
  8
P
100
AcDbSpline
210
0.0
220
0.0
230
1.0
 70
     0
 71
     3
 72
     8
 73
     4
 74
     0
 42
0.0000000001
 43
0.0000000001
 40
0.0
 40
0.0
 40
0.0
 40
0.0
 40
1.0
 40
1.0
 40
1.0
 40
1.0
 10
95.930499999999995
 20
417.10899999999998
 30
0.0
 10
95.930499999999995
 20
417.10899999999998
 30
0.0
 10
100.3036
 20
417.10899999999998
 30
0.0
 10
100.3036
 20
417.10899999999998
 30
0.0
  0
SPLINE
  5
67
100
AcDbEntity
  8
P
100
AcDbSpline
210
0.0
220
0.0
230
1.0
 70
     0
 71
     3
 72
     8
 73
     4
 74
     0
 42
0.0000000001
 43
0.0000000001
 40
0.0
 40
0.0
 40
0.0
 40
0.0
 40
1.0
 40
1.0
 40
1.0
 40
1.0
 10
52.844900000000003
 20
467.34480000000002
 30
0.0
 10
52.844900000000003
 20
467.34480000000002
 30
0.0
 10
60.055100000000003
 20
467.34480000000002
 30
0.0
 10
60.055100000000003
 20
467.34480000000002
 30
0.0
  0
SPLINE
  5
68
100
AcDbEntity
  8
P
100
AcDbSpline
210
0.0
220
0.0
230
1.0
 70
     0
 71
     3
 72
     8
 73
     4
 74
     0
 42
0.0000000001
 43
0.0000000001
 40
0.0
 40
0.0
 40
0.0
 40
0.0
 40
1.0
 40
1.0
 40
1.0
 40
1.0
 10
60.055100000000003
 20
467.34480000000002
 30
0.0
 10
60.055100000000003
 20
467.34480000000002
 30
0.0
 10
60.055100000000003
 20
464.5086
 30
0.0
 10
60.055100000000003
 20
464.5086
 30
0.0
  0
SPLINE
  5
69
100
AcDbEntity
  8
P
100
AcDbSpline
210
0.0
220
0.0
230
1.0
 70
     0
 71
     3
 72
     8
 73
     4
 74
     0
 42
0.0000000001
 43
0.0000000001
 40
0.0
 40
0.0
 40
0.0
 40
0.0
 40
1.0
 40
1.0
 40
1.0
 40
1.0
 10
60.055100000000003
 20
464.5086
 30
0.0
 10
60.055100000000003
 20
464.5086
 30
0.0
 10
67.206699999999998
 20
464.5086
 30
0.0
 10
67.206699999999998
 20
464.5086
 30
0.0
  0
SPLINE
  5
6A
100
AcDbEntity
  8
P
100
AcDbSpline
210
0.0
220
0.0
230
1.0
 70
     0
 71
     3
 72
     8
 73
     4
 74
     0
 42
0.0000000001
 43
0.0000000001
 40
0.0
 40
0.0
 40
0.0
 40
0.0
 40
1.0
 40
1.0
 40
1.0
 40
1.0
 10
67.206699999999998
 20
467.34480000000002
 30
0.0
 10
67.206699999999998
 20
467.34480000000002
 30
0.0
 10
67.206699999999998
 20
464.5086
 30
0.0
 10
67.206699999999998
 20
464.5086
 30
0.0
  0
SPLINE
  5
6B
100
AcDbEntity
  8
P
100
AcDbSpline
210
0.0
220
0.0
230
1.0
 70
     0
 71
     3
 72
     8
 73
     4
 74
     0
 42
0.0000000001
 43
0.0000000001
 40
0.0
 40
0.0
 40
0.0
 40
0.0
 40
1.0
 40
1.0
 40
1.0
 40
1.0
 10
67.206699999999998
 20
467.34480000000002
 30
0.0
 10
67.206699999999998
 20
467.34480000000002
 30
0.0
 10
74.417299999999997
 20
467.34480000000002
 30
0.0
 10
74.417299999999997
 20
467.34480000000002
 30
0.0
  0
SPLINE
  5
6C
100
AcDbEntity
  8
P
100
AcDbSpline
210
0.0
220
0.0
230
1.0
 70
     0
 71
     3
 72
     8
 73
     4
 74
     0
 42
0.0000000001
 43
0.0000000001
 40
0.0
 40
0.0
 40
0.0
 40
0.0
 40
1.0
 40
1.0
 40
1.0
 40
1.0
 10
74.417299999999997
 20
467.34480000000002
 30
0.0
 10
74.417299999999997
 20
467.34480000000002
 30
0.0
 10
74.417299999999997
 20
464.5086
 30
0.0
 10
74.417299999999997
 20
464.5086
 30
0.0
  0
SPLINE
  5
6D
100
AcDbEntity
  8
P
100
AcDbSpline
210
0.0
220
0.0
230
1.0
 70
     0
 71
     3
 72
     8
 73
     4
 74
     0
 42
0.0000000001
 43
0.0000000001
 40
0.0
 40
0.0
 40
0.0
 40
0.0
 40
1.0
 40
1.0
 40
1.0
 40
1.0
 10
74.417299999999997
 20
464.5086
 30
0.0
 10
74.417299999999997
 20
464.5086
 30
0.0
 10
81.568399999999997
 20
464.5086
 30
0.0
 10
81.568399999999997
 20
464.5086
 30
0.0
  0
SPLINE
  5
6E
100
AcDbEntity
  8
P
100
AcDbSpline
210
0.0
220
0.0
230
1.0
 70
     0
 71
     3
 72
     8
 73
     4
 74
     0
 42
0.0000000001
 43
0.0000000001
 40
0.0
 40
0.0
 40
0.0
 40
0.0
 40
1.0
 40
1.0
 40
1.0
 40
1.0
 10
81.568399999999997
 20
467.34480000000002
 30
0.0
 10
81.568399999999997
 20
467.34480000000002
 30
0.0
 10
81.568399999999997
 20
464.5086
 30
0.0
 10
81.568399999999997
 20
464.5086
 30
0.0
  0
SPLINE
  5
6F
100
AcDbEntity
  8
P
100
AcDbSpline
210
0.0
220
0.0
230
1.0
 70
     0
 71
     3
 72
     8
 73
     4
 74
     0
 42
0.0000000001
 43
0.0000000001
 40
0.0
 40
0.0
 40
0.0
 40
0.0
 40
1.0
 40
1.0
 40
1.0
 40
1.0
 10
81.568399999999997
 20
467.34480000000002
 30
0.0
 10
81.568399999999997
 20
467.34480000000002
 30
0.0
 10
88.779200000000003
 20
467.34480000000002
 30
0.0
 10
88.779200000000003
 20
467.34480000000002
 30
0.0
  0
SPLINE
  5
70
100
AcDbEntity
  8
P
100
AcDbSpline
210
0.0
220
0.0
230
1.0
 70
     0
 71
     3
 72
     8
 73
     4
 74
     0
 42
0.0000000001
 43
0.0000000001
 40
0.0
 40
0.0
 40
0.0
 40
0.0
 40
1.0
 40
1.0
 40
1.0
 40
1.0
 10
88.779200000000003
 20
467.34480000000002
 30
0.0
 10
88.779200000000003
 20
467.34480000000002
 30
0.0
 10
88.779200000000003
 20
464.5086
 30
0.0
 10
88.779200000000003
 20
464.5086
 30
0.0
  0
SPLINE
  5
71
100
AcDbEntity
  8
P
100
AcDbSpline
210
0.0
220
0.0
230
1.0
 70
     0
 71
     3
 72
     8
 73
     4
 74
     0
 42
0.0000000001
 43
0.0000000001
 40
0.0
 40
0.0
 40
0.0
 40
0.0
 40
1.0
 40
1.0
 40
1.0
 40
1.0
 10
88.779200000000003
 20
464.5086
 30
0.0
 10
88.779200000000003
 20
464.5086
 30
0.0
 10
95.930499999999995
 20
464.5086
 30
0.0
 10
95.930499999999995
 20
464.5086
 30
0.0
  0
SPLINE
  5
72
100
AcDbEntity
  8
P
100
AcDbSpline
210
0.0
220
0.0
230
1.0
 70
     0
 71
     3
 72
     8
 73
     4
 74
     0
 42
0.0000000001
 43
0.0000000001
 40
0.0
 40
0.0
 40
0.0
 40
0.0
 40
1.0
 40
1.0
 40
1.0
 40
1.0
 10
95.930499999999995
 20
467.34480000000002
 30
0.0
 10
95.930499999999995
 20
467.34480000000002
 30
0.0
 10
95.930499999999995
 20
464.5086
 30
0.0
 10
95.930499999999995
 20
464.5086
 30
0.0
  0
SPLINE
  5
73
100
AcDbEntity
  8
P
100
AcDbSpline
210
0.0
220
0.0
230
1.0
 70
     0
 71
     3
 72
     8
 73
     4
 74
     0
 42
0.0000000001
 43
0.0000000001
 40
0.0
 40
0.0
 40
0.0
 40
0.0
 40
1.0
 40
1.0
 40
1.0
 40
1.0
 10
95.930499999999995
 20
467.34480000000002
 30
0.0
 10
95.930499999999995
 20
467.34480000000002
 30
0.0
 10
100.3036
 20
467.34480000000002
 30
0.0
 10
100.3036
 20
467.34480000000002
 30
0.0
  0
SPLINE
  5
74
100
AcDbEntity
  8
P
100
AcDbSpline
210
0.0
220
0.0
230
1.0
 70
     0
 71
     3
 72
     8
 73
     4
 74
     0
 42
0.0000000001
 43
0.0000000001
 40
0.0
 40
0.0
 40
0.0
 40
0.0
 40
1.0
 40
1.0
 40
1.0
 40
1.0
 10
52.844900000000003
 20
417.10899999999998
 30
0.0
 10
52.844900000000003
 20
417.10899999999998
 30
0.0
 10
52.844900000000003
 20
424.25979999999998
 30
0.0
 10
52.844900000000003
 20
424.25979999999998
 30
0.0
  0
SPLINE
  5
75
100
AcDbEntity
  8
P
100
AcDbSpline
210
0.0
220
0.0
230
1.0
 70
     0
 71
     3
 72
     8
 73
     4
 74
     0
 42
0.0000000001
 43
0.0000000001
 40
0.0
 40
0.0
 40
0.0
 40
0.0
 40
1.0
 40
1.0
 40
1.0
 40
1.0
 10
55.6813
 20
424.25979999999998
 30
0.0
 10
55.6813
 20
424.25979999999998
 30
0.0
 10
52.844900000000003
 20
424.25979999999998
 30
0.0
 10
52.844900000000003
 20
424.25979999999998
 30
0.0
  0
SPLINE
  5
76
100
AcDbEntity
  8
P
100
AcDbSpline
210
0.0
220
0.0
230
1.0
 70
     0
 71
     3
 72
     8
 73
     4
 74
     0
 42
0.0000000001
 43
0.0000000001
 40
0.0
 40
0.0
 40
0.0
 40
0.0
 40
1.0
 40
1.0
 40
1.0
 40
1.0
 10
55.6813
 20
424.25979999999998
 30
0.0
 10
55.6813
 20
424.25979999999998
 30
0.0
 10
55.6813
 20
431.47070000000002
 30
0.0
 10
55.6813
 20
431.47070000000002
 30
0.0
  0
SPLINE
  5
77
100
AcDbEntity
  8
P
100
AcDbSpline
210
0.0
220
0.0
230
1.0
 70
     0
 71
     3
 72
     8
 73
     4
 74
     0
 42
0.0000000001
 43
0.0000000001
 40
0.0
 40
0.0
 40
0.0
 40
0.0
 40
1.0
 40
1.0
 40
1.0
 40
1.0
 10
55.6813
 20
431.47070000000002
 30
0.0
 10
55.6813
 20
431.47070000000002
 30
0.0
 10
52.844900000000003
 20
431.47070000000002
 30
0.0
 10
52.844900000000003
 20
431.47070000000002
 30
0.0
  0
SPLINE
  5
78
100
AcDbEntity
  8
P
100
AcDbSpline
210
0.0
220
0.0
230
1.0
 70
     0
 71
     3
 72
     8
 73
     4
 74
     0
 42
0.0000000001
 43
0.0000000001
 40
0.0
 40
0.0
 40
0.0
 40
0.0
 40
1.0
 40
1.0
 40
1.0
 40
1.0
 10
52.844900000000003
 20
431.47070000000002
 30
0.0
 10
52.844900000000003
 20
431.47070000000002
 30
0.0
 10
52.844900000000003
 20
438.62150000000003
 30
0.0
 10
52.844900000000003
 20
438.62150000000003
 30
0.0
  0
SPLINE
  5
79
100
AcDbEntity
  8
P
100
AcDbSpline
210
0.0
220
0.0
230
1.0
 70
     0
 71
     3
 72
     8
 73
     4
 74
     0
 42
0.0000000001
 43
0.0000000001
 40
0.0
 40
0.0
 40
0.0
 40
0.0
 40
1.0
 40
1.0
 40
1.0
 40
1.0
 10
55.6813
 20
438.62150000000003
 30
0.0
 10
55.6813
 20
438.62150000000003
 30
0.0
 10
52.844900000000003
 20
438.62150000000003
 30
0.0
 10
52.844900000000003
 20
438.62150000000003
 30
0.0
  0
SPLINE
  5
7A
100
AcDbEntity
  8
P
100
AcDbSpline
210
0.0
220
0.0
230
1.0
 70
     0
 71
     3
 72
     8
 73
     4
 74
     0
 42
0.0000000001
 43
0.0000000001
 40
0.0
 40
0.0
 40
0.0
 40
0.0
 40
1.0
 40
1.0
 40
1.0
 40
1.0
 10
55.6813
 20
438.62150000000003
 30
0.0
 10
55.6813
 20
438.62150000000003
 30
0.0
 10
55.6813
 20
445.8322
 30
0.0
 10
55.6813
 20
445.8322
 30
0.0
  0
SPLINE
  5
7B
100
AcDbEntity
  8
P
100
AcDbSpline
210
0.0
220
0.0
230
1.0
 70
     0
 71
     3
 72
     8
 73
     4
 74
     0
 42
0.0000000001
 43
0.0000000001
 40
0.0
 40
0.0
 40
0.0
 40
0.0
 40
1.0
 40
1.0
 40
1.0
 40
1.0
 10
55.6813
 20
445.8322
 30
0.0
 10
55.6813
 20
445.8322
 30
0.0
 10
52.844900000000003
 20
445.8322
 30
0.0
 10
52.844900000000003
 20
445.8322
 30
0.0
  0
SPLINE
  5
7C
100
AcDbEntity
  8
P
100
AcDbSpline
210
0.0
220
0.0
230
1.0
 70
     0
 71
     3
 72
     8
 73
     4
 74
     0
 42
0.0000000001
 43
0.0000000001
 40
0.0
 40
0.0
 40
0.0
 40
0.0
 40
1.0
 40
1.0
 40
1.0
 40
1.0
 10
52.844900000000003
 20
445.8322
 30
0.0
 10
52.844900000000003
 20
445.8322
 30
0.0
 10
52.844900000000003
 20
452.98340000000002
 30
0.0
 10
52.844900000000003
 20
452.98340000000002
 30
0.0
  0
SPLINE
  5
7D
100
AcDbEntity
  8
P
100
AcDbSpline
210
0.0
220
0.0
230
1.0
 70
     0
 71
     3
 72
     8
 73
     4
 74
     0
 42
0.0000000001
 43
0.0000000001
 40
0.0
 40
0.0
 40
0.0
 40
0.0
 40
1.0
 40
1.0
 40
1.0
 40
1.0
 10
55.6813
 20
452.98340000000002
 30
0.0
 10
55.6813
 20
452.98340000000002
 30
0.0
 10
52.844900000000003
 20
452.98340000000002
 30
0.0
 10
52.844900000000003
 20
452.98340000000002
 30
0.0
  0
SPLINE
  5
7E
100
AcDbEntity
  8
P
100
AcDbSpline
210
0.0
220
0.0
230
1.0
 70
     0
 71
     3
 72
     8
 73
     4
 74
     0
 42
0.0000000001
 43
0.0000000001
 40
0.0
 40
0.0
 40
0.0
 40
0.0
 40
1.0
 40
1.0
 40
1.0
 40
1.0
 10
55.6813
 20
452.98340000000002
 30
0.0
 10
55.6813
 20
452.98340000000002
 30
0.0
 10
55.6813
 20
460.13479999999998
 30
0.0
 10
55.6813
 20
460.13479999999998
 30
0.0
  0
SPLINE
  5
7F
100
AcDbEntity
  8
P
100
AcDbSpline
210
0.0
220
0.0
230
1.0
 70
     0
 71
     3
 72
     8
 73
     4
 74
     0
 42
0.0000000001
 43
0.0000000001
 40
0.0
 40
0.0
 40
0.0
 40
0.0
 40
1.0
 40
1.0
 40
1.0
 40
1.0
 10
55.6813
 20
460.13479999999998
 30
0.0
 10
55.6813
 20
460.13479999999998
 30
0.0
 10
52.844900000000003
 20
460.13479999999998
 30
0.0
 10
52.844900000000003
 20
460.13479999999998
 30
0.0
  0
SPLINE
  5
80
100
AcDbEntity
  8
P
100
AcDbSpline
210
0.0
220
0.0
230
1.0
 70
     0
 71
     3
 72
     8
 73
     4
 74
     0
 42
0.0000000001
 43
0.0000000001
 40
0.0
 40
0.0
 40
0.0
 40
0.0
 40
1.0
 40
1.0
 40
1.0
 40
1.0
 10
52.844900000000003
 20
460.13479999999998
 30
0.0
 10
52.844900000000003
 20
460.13479999999998
 30
0.0
 10
52.844900000000003
 20
467.34480000000002
 30
0.0
 10
52.844900000000003
 20
467.34480000000002
 30
0.0
  0
SPLINE
  5
81
100
AcDbEntity
  8
P
100
AcDbSpline
210
0.0
220
0.0
230
1.0
 70
     0
 71
     3
 72
     8
 73
     4
 74
     0
 42
0.0000000001
 43
0.0000000001
 40
0.0
 40
0.0
 40
0.0
 40
0.0
 40
1.0
 40
1.0
 40
1.0
 40
1.0
 10
100.3036
 20
417.10899999999998
 30
0.0
 10
100.3036
 20
417.10899999999998
 30
0.0
 10
100.3036
 20
424.25979999999998
 30
0.0
 10
100.3036
 20
424.25979999999998
 30
0.0
  0
SPLINE
  5
82
100
AcDbEntity
  8
P
100
AcDbSpline
210
0.0
220
0.0
230
1.0
 70
     0
 71
     3
 72
     8
 73
     4
 74
     0
 42
0.0000000001
 43
0.0000000001
 40
0.0
 40
0.0
 40
0.0
 40
0.0
 40
1.0
 40
1.0
 40
1.0
 40
1.0
 10
103.0812
 20
424.25979999999998
 30
0.0
 10
103.0812
 20
424.25979999999998
 30
0.0
 10
100.3036
 20
424.25979999999998
 30
0.0
 10
100.3036
 20
424.25979999999998
 30
0.0
  0
SPLINE
  5
83
100
AcDbEntity
  8
P
100
AcDbSpline
210
0.0
220
0.0
230
1.0
 70
     0
 71
     3
 72
     8
 73
     4
 74
     0
 42
0.0000000001
 43
0.0000000001
 40
0.0
 40
0.0
 40
0.0
 40
0.0
 40
1.0
 40
1.0
 40
1.0
 40
1.0
 10
103.0812
 20
424.25979999999998
 30
0.0
 10
103.0812
 20
424.25979999999998
 30
0.0
 10
103.0812
 20
431.47070000000002
 30
0.0
 10
103.0812
 20
431.47070000000002
 30
0.0
  0
SPLINE
  5
84
100
AcDbEntity
  8
P
100
AcDbSpline
210
0.0
220
0.0
230
1.0
 70
     0
 71
     3
 72
     8
 73
     4
 74
     0
 42
0.0000000001
 43
0.0000000001
 40
0.0
 40
0.0
 40
0.0
 40
0.0
 40
1.0
 40
1.0
 40
1.0
 40
1.0
 10
103.0812
 20
431.47070000000002
 30
0.0
 10
103.0812
 20
431.47070000000002
 30
0.0
 10
100.3036
 20
431.47070000000002
 30
0.0
 10
100.3036
 20
431.47070000000002
 30
0.0
  0
SPLINE
  5
85
100
AcDbEntity
  8
P
100
AcDbSpline
210
0.0
220
0.0
230
1.0
 70
     0
 71
     3
 72
     8
 73
     4
 74
     0
 42
0.0000000001
 43
0.0000000001
 40
0.0
 40
0.0
 40
0.0
 40
0.0
 40
1.0
 40
1.0
 40
1.0
 40
1.0
 10
100.3036
 20
431.47070000000002
 30
0.0
 10
100.3036
 20
431.47070000000002
 30
0.0
 10
100.3036
 20
438.62150000000003
 30
0.0
 10
100.3036
 20
438.62150000000003
 30
0.0
  0
SPLINE
  5
86
100
AcDbEntity
  8
P
100
AcDbSpline
210
0.0
220
0.0
230
1.0
 70
     0
 71
     3
 72
     8
 73
     4
 74
     0
 42
0.0000000001
 43
0.0000000001
 40
0.0
 40
0.0
 40
0.0
 40
0.0
 40
1.0
 40
1.0
 40
1.0
 40
1.0
 10
103.0812
 20
438.62150000000003
 30
0.0
 10
103.0812
 20
438.62150000000003
 30
0.0
 10
100.3036
 20
438.62150000000003
 30
0.0
 10
100.3036
 20
438.62150000000003
 30
0.0
  0
SPLINE
  5
87
100
AcDbEntity
  8
P
100
AcDbSpline
210
0.0
220
0.0
230
1.0
 70
     0
 71
     3
 72
     8
 73
     4
 74
     0
 42
0.0000000001
 43
0.0000000001
 40
0.0
 40
0.0
 40
0.0
 40
0.0
 40
1.0
 40
1.0
 40
1.0
 40
1.0
 10
103.0812
 20
438.62150000000003
 30
0.0
 10
103.0812
 20
438.62150000000003
 30
0.0
 10
103.0812
 20
445.8322
 30
0.0
 10
103.0812
 20
445.8322
 30
0.0
  0
SPLINE
  5
88
100
AcDbEntity
  8
P
100
AcDbSpline
210
0.0
220
0.0
230
1.0
 70
     0
 71
     3
 72
     8
 73
     4
 74
     0
 42
0.0000000001
 43
0.0000000001
 40
0.0
 40
0.0
 40
0.0
 40
0.0
 40
1.0
 40
1.0
 40
1.0
 40
1.0
 10
103.0812
 20
445.8322
 30
0.0
 10
103.0812
 20
445.8322
 30
0.0
 10
100.3036
 20
445.8322
 30
0.0
 10
100.3036
 20
445.8322
 30
0.0
  0
SPLINE
  5
89
100
AcDbEntity
  8
P
100
AcDbSpline
210
0.0
220
0.0
230
1.0
 70
     0
 71
     3
 72
     8
 73
     4
 74
     0
 42
0.0000000001
 43
0.0000000001
 40
0.0
 40
0.0
 40
0.0
 40
0.0
 40
1.0
 40
1.0
 40
1.0
 40
1.0
 10
100.3036
 20
445.8322
 30
0.0
 10
100.3036
 20
445.8322
 30
0.0
 10
100.3036
 20
452.98340000000002
 30
0.0
 10
100.3036
 20
452.98340000000002
 30
0.0
  0
SPLINE
  5
8A
100
AcDbEntity
  8
P
100
AcDbSpline
210
0.0
220
0.0
230
1.0
 70
     0
 71
     3
 72
     8
 73
     4
 74
     0
 42
0.0000000001
 43
0.0000000001
 40
0.0
 40
0.0
 40
0.0
 40
0.0
 40
1.0
 40
1.0
 40
1.0
 40
1.0
 10
103.0812
 20
452.98340000000002
 30
0.0
 10
103.0812
 20
452.98340000000002
 30
0.0
 10
100.3036
 20
452.98340000000002
 30
0.0
 10
100.3036
 20
452.98340000000002
 30
0.0
  0
SPLINE
  5
8B
100
AcDbEntity
  8
P
100
AcDbSpline
210
0.0
220
0.0
230
1.0
 70
     0
 71
     3
 72
     8
 73
     4
 74
     0
 42
0.0000000001
 43
0.0000000001
 40
0.0
 40
0.0
 40
0.0
 40
0.0
 40
1.0
 40
1.0
 40
1.0
 40
1.0
 10
103.0812
 20
452.98340000000002
 30
0.0
 10
103.0812
 20
452.98340000000002
 30
0.0
 10
103.0812
 20
460.13479999999998
 30
0.0
 10
103.0812
 20
460.13479999999998
 30
0.0
  0
SPLINE
  5
8C
100
AcDbEntity
  8
P
100
AcDbSpline
210
0.0
220
0.0
230
1.0
 70
     0
 71
     3
 72
     8
 73
     4
 74
     0
 42
0.0000000001
 43
0.0000000001
 40
0.0
 40
0.0
 40
0.0
 40
0.0
 40
1.0
 40
1.0
 40
1.0
 40
1.0
 10
103.0812
 20
460.13479999999998
 30
0.0
 10
103.0812
 20
460.13479999999998
 30
0.0
 10
100.3036
 20
460.13479999999998
 30
0.0
 10
100.3036
 20
460.13479999999998
 30
0.0
  0
SPLINE
  5
8D
100
AcDbEntity
  8
P
100
AcDbSpline
210
0.0
220
0.0
230
1.0
 70
     0
 71
     3
 72
     8
 73
     4
 74
     0
 42
0.0000000001
 43
0.0000000001
 40
0.0
 40
0.0
 40
0.0
 40
0.0
 40
1.0
 40
1.0
 40
1.0
 40
1.0
 10
100.3036
 20
460.13479999999998
 30
0.0
 10
100.3036
 20
460.13479999999998
 30
0.0
 10
100.3036
 20
467.34480000000002
 30
0.0
 10
100.3036
 20
467.34480000000002
 30
0.0
  0
SPLINE
  5
8E
100
AcDbEntity
  8
P
100
AcDbSpline
210
0.0
220
0.0
230
1.0
 70
     0
 71
     3
 72
     8
 73
     4
 74
     0
 42
0.0000000001
 43
0.0000000001
 40
0.0
 40
0.0
 40
0.0
 40
0.0
 40
1.0
 40
1.0
 40
1.0
 40
1.0
 10
109.4743
 20
419.88670000000002
 30
0.0
 10
109.4743
 20
419.88670000000002
 30
0.0
 10
113.848
 20
419.88670000000002
 30
0.0
 10
113.848
 20
419.88670000000002
 30
0.0
  0
SPLINE
  5
8F
100
AcDbEntity
  8
P
100
AcDbSpline
210
0.0
220
0.0
230
1.0
 70
     0
 71
     3
 72
     8
 73
     4
 74
     0
 42
0.0000000001
 43
0.0000000001
 40
0.0
 40
0.0
 40
0.0
 40
0.0
 40
1.0
 40
1.0
 40
1.0
 40
1.0
 10
113.848
 20
419.88670000000002
 30
0.0
 10
113.848
 20
419.88670000000002
 30
0.0
 10
113.848
 20
417.10899999999998
 30
0.0
 10
113.848
 20
417.10899999999998
 30
0.0
  0
SPLINE
  5
90
100
AcDbEntity
  8
P
100
AcDbSpline
210
0.0
220
0.0
230
1.0
 70
     0
 71
     3
 72
     8
 73
     4
 74
     0
 42
0.0000000001
 43
0.0000000001
 40
0.0
 40
0.0
 40
0.0
 40
0.0
 40
1.0
 40
1.0
 40
1.0
 40
1.0
 10
113.848
 20
417.10899999999998
 30
0.0
 10
113.848
 20
417.10899999999998
 30
0.0
 10
121.0586
 20
417.10899999999998
 30
0.0
 10
121.0586
 20
417.10899999999998
 30
0.0
  0
SPLINE
  5
91
100
AcDbEntity
  8
P
100
AcDbSpline
210
0.0
220
0.0
230
1.0
 70
     0
 71
     3
 72
     8
 73
     4
 74
     0
 42
0.0000000001
 43
0.0000000001
 40
0.0
 40
0.0
 40
0.0
 40
0.0
 40
1.0
 40
1.0
 40
1.0
 40
1.0
 10
121.0586
 20
419.88670000000002
 30
0.0
 10
121.0586
 20
419.88670000000002
 30
0.0
 10
121.0586
 20
417.10899999999998
 30
0.0
 10
121.0586
 20
417.10899999999998
 30
0.0
  0
SPLINE
  5
92
100
AcDbEntity
  8
P
100
AcDbSpline
210
0.0
220
0.0
230
1.0
 70
     0
 71
     3
 72
     8
 73
     4
 74
     0
 42
0.0000000001
 43
0.0000000001
 40
0.0
 40
0.0
 40
0.0
 40
0.0
 40
1.0
 40
1.0
 40
1.0
 40
1.0
 10
121.0586
 20
419.88670000000002
 30
0.0
 10
121.0586
 20
419.88670000000002
 30
0.0
 10
128.2097
 20
419.88670000000002
 30
0.0
 10
128.2097
 20
419.88670000000002
 30
0.0
  0
SPLINE
  5
93
100
AcDbEntity
  8
P
100
AcDbSpline
210
0.0
220
0.0
230
1.0
 70
     0
 71
     3
 72
     8
 73
     4
 74
     0
 42
0.0000000001
 43
0.0000000001
 40
0.0
 40
0.0
 40
0.0
 40
0.0
 40
1.0
 40
1.0
 40
1.0
 40
1.0
 10
128.2097
 20
419.88670000000002
 30
0.0
 10
128.2097
 20
419.88670000000002
 30
0.0
 10
128.2097
 20
417.10899999999998
 30
0.0
 10
128.2097
 20
417.10899999999998
 30
0.0
  0
SPLINE
  5
94
100
AcDbEntity
  8
P
100
AcDbSpline
210
0.0
220
0.0
230
1.0
 70
     0
 71
     3
 72
     8
 73
     4
 74
     0
 42
0.0000000001
 43
0.0000000001
 40
0.0
 40
0.0
 40
0.0
 40
0.0
 40
1.0
 40
1.0
 40
1.0
 40
1.0
 10
128.2097
 20
417.10899999999998
 30
0.0
 10
128.2097
 20
417.10899999999998
 30
0.0
 10
135.36099999999999
 20
417.10899999999998
 30
0.0
 10
135.36099999999999
 20
417.10899999999998
 30
0.0
  0
SPLINE
  5
95
100
AcDbEntity
  8
P
100
AcDbSpline
210
0.0
220
0.0
230
1.0
 70
     0
 71
     3
 72
     8
 73
     4
 74
     0
 42
0.0000000001
 43
0.0000000001
 40
0.0
 40
0.0
 40
0.0
 40
0.0
 40
1.0
 40
1.0
 40
1.0
 40
1.0
 10
135.36099999999999
 20
419.88670000000002
 30
0.0
 10
135.36099999999999
 20
419.88670000000002
 30
0.0
 10
135.36099999999999
 20
417.10899999999998
 30
0.0
 10
135.36099999999999
 20
417.10899999999998
 30
0.0
  0
SPLINE
  5
96
100
AcDbEntity
  8
P
100
AcDbSpline
210
0.0
220
0.0
230
1.0
 70
     0
 71
     3
 72
     8
 73
     4
 74
     0
 42
0.0000000001
 43
0.0000000001
 40
0.0
 40
0.0
 40
0.0
 40
0.0
 40
1.0
 40
1.0
 40
1.0
 40
1.0
 10
135.36099999999999
 20
419.88670000000002
 30
0.0
 10
135.36099999999999
 20
419.88670000000002
 30
0.0
 10
142.57140000000001
 20
419.88670000000002
 30
0.0
 10
142.57140000000001
 20
419.88670000000002
 30
0.0
  0
SPLINE
  5
97
100
AcDbEntity
  8
P
100
AcDbSpline
210
0.0
220
0.0
230
1.0
 70
     0
 71
     3
 72
     8
 73
     4
 74
     0
 42
0.0000000001
 43
0.0000000001
 40
0.0
 40
0.0
 40
0.0
 40
0.0
 40
1.0
 40
1.0
 40
1.0
 40
1.0
 10
142.57140000000001
 20
419.88670000000002
 30
0.0
 10
142.57140000000001
 20
419.88670000000002
 30
0.0
 10
142.57140000000001
 20
417.10899999999998
 30
0.0
 10
142.57140000000001
 20
417.10899999999998
 30
0.0
  0
SPLINE
  5
98
100
AcDbEntity
  8
P
100
AcDbSpline
210
0.0
220
0.0
230
1.0
 70
     0
 71
     3
 72
     8
 73
     4
 74
     0
 42
0.0000000001
 43
0.0000000001
 40
0.0
 40
0.0
 40
0.0
 40
0.0
 40
1.0
 40
1.0
 40
1.0
 40
1.0
 10
142.57140000000001
 20
417.10899999999998
 30
0.0
 10
142.57140000000001
 20
417.10899999999998
 30
0.0
 10
149.7226
 20
417.10899999999998
 30
0.0
 10
149.7226
 20
417.10899999999998
 30
0.0
  0
SPLINE
  5
99
100
AcDbEntity
  8
P
100
AcDbSpline
210
0.0
220
0.0
230
1.0
 70
     0
 71
     3
 72
     8
 73
     4
 74
     0
 42
0.0000000001
 43
0.0000000001
 40
0.0
 40
0.0
 40
0.0
 40
0.0
 40
1.0
 40
1.0
 40
1.0
 40
1.0
 10
149.7226
 20
419.88670000000002
 30
0.0
 10
149.7226
 20
419.88670000000002
 30
0.0
 10
149.7226
 20
417.10899999999998
 30
0.0
 10
149.7226
 20
417.10899999999998
 30
0.0
  0
SPLINE
  5
9A
100
AcDbEntity
  8
P
100
AcDbSpline
210
0.0
220
0.0
230
1.0
 70
     0
 71
     3
 72
     8
 73
     4
 74
     0
 42
0.0000000001
 43
0.0000000001
 40
0.0
 40
0.0
 40
0.0
 40
0.0
 40
1.0
 40
1.0
 40
1.0
 40
1.0
 10
149.7226
 20
419.88670000000002
 30
0.0
 10
149.7226
 20
419.88670000000002
 30
0.0
 10
154.09649999999999
 20
419.88670000000002
 30
0.0
 10
154.09649999999999
 20
419.88670000000002
 30
0.0
  0
SPLINE
  5
9B
100
AcDbEntity
  8
P
100
AcDbSpline
210
0.0
220
0.0
230
1.0
 70
     0
 71
     3
 72
     8
 73
     4
 74
     0
 42
0.0000000001
 43
0.0000000001
 40
0.0
 40
0.0
 40
0.0
 40
0.0
 40
1.0
 40
1.0
 40
1.0
 40
1.0
 10
109.4743
 20
464.5086
 30
0.0
 10
109.4743
 20
464.5086
 30
0.0
 10
113.848
 20
464.5086
 30
0.0
 10
113.848
 20
464.5086
 30
0.0
  0
SPLINE
  5
9C
100
AcDbEntity
  8
P
100
AcDbSpline
210
0.0
220
0.0
230
1.0
 70
     0
 71
     3
 72
     8
 73
     4
 74
     0
 42
0.0000000001
 43
0.0000000001
 40
0.0
 40
0.0
 40
0.0
 40
0.0
 40
1.0
 40
1.0
 40
1.0
 40
1.0
 10
113.848
 20
467.34480000000002
 30
0.0
 10
113.848
 20
467.34480000000002
 30
0.0
 10
113.848
 20
464.5086
 30
0.0
 10
113.848
 20
464.5086
 30
0.0
  0
SPLINE
  5
9D
100
AcDbEntity
  8
P
100
AcDbSpline
210
0.0
220
0.0
230
1.0
 70
     0
 71
     3
 72
     8
 73
     4
 74
     0
 42
0.0000000001
 43
0.0000000001
 40
0.0
 40
0.0
 40
0.0
 40
0.0
 40
1.0
 40
1.0
 40
1.0
 40
1.0
 10
113.848
 20
467.34480000000002
 30
0.0
 10
113.848
 20
467.34480000000002
 30
0.0
 10
121.0586
 20
467.34480000000002
 30
0.0
 10
121.0586
 20
467.34480000000002
 30
0.0
  0
SPLINE
  5
9E
100
AcDbEntity
  8
P
100
AcDbSpline
210
0.0
220
0.0
230
1.0
 70
     0
 71
     3
 72
     8
 73
     4
 74
     0
 42
0.0000000001
 43
0.0000000001
 40
0.0
 40
0.0
 40
0.0
 40
0.0
 40
1.0
 40
1.0
 40
1.0
 40
1.0
 10
121.0586
 20
467.34480000000002
 30
0.0
 10
121.0586
 20
467.34480000000002
 30
0.0
 10
121.0586
 20
464.5086
 30
0.0
 10
121.0586
 20
464.5086
 30
0.0
  0
SPLINE
  5
9F
100
AcDbEntity
  8
P
100
AcDbSpline
210
0.0
220
0.0
230
1.0
 70
     0
 71
     3
 72
     8
 73
     4
 74
     0
 42
0.0000000001
 43
0.0000000001
 40
0.0
 40
0.0
 40
0.0
 40
0.0
 40
1.0
 40
1.0
 40
1.0
 40
1.0
 10
121.0586
 20
464.5086
 30
0.0
 10
121.0586
 20
464.5086
 30
0.0
 10
128.2097
 20
464.5086
 30
0.0
 10
128.2097
 20
464.5086
 30
0.0
  0
SPLINE
  5
A0
100
AcDbEntity
  8
P
100
AcDbSpline
210
0.0
220
0.0
230
1.0
 70
     0
 71
     3
 72
     8
 73
     4
 74
     0
 42
0.0000000001
 43
0.0000000001
 40
0.0
 40
0.0
 40
0.0
 40
0.0
 40
1.0
 40
1.0
 40
1.0
 40
1.0
 10
128.2097
 20
467.34480000000002
 30
0.0
 10
128.2097
 20
467.34480000000002
 30
0.0
 10
128.2097
 20
464.5086
 30
0.0
 10
128.2097
 20
464.5086
 30
0.0
  0
SPLINE
  5
A1
100
AcDbEntity
  8
P
100
AcDbSpline
210
0.0
220
0.0
230
1.0
 70
     0
 71
     3
 72
     8
 73
     4
 74
     0
 42
0.0000000001
 43
0.0000000001
 40
0.0
 40
0.0
 40
0.0
 40
0.0
 40
1.0
 40
1.0
 40
1.0
 40
1.0
 10
128.2097
 20
467.34480000000002
 30
0.0
 10
128.2097
 20
467.34480000000002
 30
0.0
 10
135.36099999999999
 20
467.34480000000002
 30
0.0
 10
135.36099999999999
 20
467.34480000000002
 30
0.0
  0
SPLINE
  5
A2
100
AcDbEntity
  8
P
100
AcDbSpline
210
0.0
220
0.0
230
1.0
 70
     0
 71
     3
 72
     8
 73
     4
 74
     0
 42
0.0000000001
 43
0.0000000001
 40
0.0
 40
0.0
 40
0.0
 40
0.0
 40
1.0
 40
1.0
 40
1.0
 40
1.0
 10
135.36099999999999
 20
467.34480000000002
 30
0.0
 10
135.36099999999999
 20
467.34480000000002
 30
0.0
 10
135.36099999999999
 20
464.5086
 30
0.0
 10
135.36099999999999
 20
464.5086
 30
0.0
  0
SPLINE
  5
A3
100
AcDbEntity
  8
P
100
AcDbSpline
210
0.0
220
0.0
230
1.0
 70
     0
 71
     3
 72
     8
 73
     4
 74
     0
 42
0.0000000001
 43
0.0000000001
 40
0.0
 40
0.0
 40
0.0
 40
0.0
 40
1.0
 40
1.0
 40
1.0
 40
1.0
 10
135.36099999999999
 20
464.5086
 30
0.0
 10
135.36099999999999
 20
464.5086
 30
0.0
 10
142.57140000000001
 20
464.5086
 30
0.0
 10
142.57140000000001
 20
464.5086
 30
0.0
  0
SPLINE
  5
A4
100
AcDbEntity
  8
P
100
AcDbSpline
210
0.0
220
0.0
230
1.0
 70
     0
 71
     3
 72
     8
 73
     4
 74
     0
 42
0.0000000001
 43
0.0000000001
 40
0.0
 40
0.0
 40
0.0
 40
0.0
 40
1.0
 40
1.0
 40
1.0
 40
1.0
 10
142.57140000000001
 20
467.34480000000002
 30
0.0
 10
142.57140000000001
 20
467.34480000000002
 30
0.0
 10
142.57140000000001
 20
464.5086
 30
0.0
 10
142.57140000000001
 20
464.5086
 30
0.0
  0
SPLINE
  5
A5
100
AcDbEntity
  8
P
100
AcDbSpline
210
0.0
220
0.0
230
1.0
 70
     0
 71
     3
 72
     8
 73
     4
 74
     0
 42
0.0000000001
 43
0.0000000001
 40
0.0
 40
0.0
 40
0.0
 40
0.0
 40
1.0
 40
1.0
 40
1.0
 40
1.0
 10
142.57140000000001
 20
467.34480000000002
 30
0.0
 10
142.57140000000001
 20
467.34480000000002
 30
0.0
 10
149.7226
 20
467.34480000000002
 30
0.0
 10
149.7226
 20
467.34480000000002
 30
0.0
  0
SPLINE
  5
A6
100
AcDbEntity
  8
P
100
AcDbSpline
210
0.0
220
0.0
230
1.0
 70
     0
 71
     3
 72
     8
 73
     4
 74
     0
 42
0.0000000001
 43
0.0000000001
 40
0.0
 40
0.0
 40
0.0
 40
0.0
 40
1.0
 40
1.0
 40
1.0
 40
1.0
 10
149.7226
 20
467.34480000000002
 30
0.0
 10
149.7226
 20
467.34480000000002
 30
0.0
 10
149.7226
 20
464.5086
 30
0.0
 10
149.7226
 20
464.5086
 30
0.0
  0
SPLINE
  5
A7
100
AcDbEntity
  8
P
100
AcDbSpline
210
0.0
220
0.0
230
1.0
 70
     0
 71
     3
 72
     8
 73
     4
 74
     0
 42
0.0000000001
 43
0.0000000001
 40
0.0
 40
0.0
 40
0.0
 40
0.0
 40
1.0
 40
1.0
 40
1.0
 40
1.0
 10
149.7226
 20
464.5086
 30
0.0
 10
149.7226
 20
464.5086
 30
0.0
 10
154.09649999999999
 20
464.5086
 30
0.0
 10
154.09649999999999
 20
464.5086
 30
0.0
  0
SPLINE
  5
A8
100
AcDbEntity
  8
P
100
AcDbSpline
210
0.0
220
0.0
230
1.0
 70
     0
 71
     3
 72
     8
 73
     4
 74
     0
 42
0.0000000001
 43
0.0000000001
 40
0.0
 40
0.0
 40
0.0
 40
0.0
 40
1.0
 40
1.0
 40
1.0
 40
1.0
 10
109.4743
 20
419.88670000000002
 30
0.0
 10
109.4743
 20
419.88670000000002
 30
0.0
 10
109.4743
 20
424.25979999999998
 30
0.0
 10
109.4743
 20
424.25979999999998
 30
0.0
  0
SPLINE
  5
A9
100
AcDbEntity
  8
P
100
AcDbSpline
210
0.0
220
0.0
230
1.0
 70
     0
 71
     3
 72
     8
 73
     4
 74
     0
 42
0.0000000001
 43
0.0000000001
 40
0.0
 40
0.0
 40
0.0
 40
0.0
 40
1.0
 40
1.0
 40
1.0
 40
1.0
 10
109.4743
 20
424.25979999999998
 30
0.0
 10
109.4743
 20
424.25979999999998
 30
0.0
 10
106.6965
 20
424.25979999999998
 30
0.0
 10
106.6965
 20
424.25979999999998
 30
0.0
  0
SPLINE
  5
AA
100
AcDbEntity
  8
P
100
AcDbSpline
210
0.0
220
0.0
230
1.0
 70
     0
 71
     3
 72
     8
 73
     4
 74
     0
 42
0.0000000001
 43
0.0000000001
 40
0.0
 40
0.0
 40
0.0
 40
0.0
 40
1.0
 40
1.0
 40
1.0
 40
1.0
 10
106.6965
 20
424.25979999999998
 30
0.0
 10
106.6965
 20
424.25979999999998
 30
0.0
 10
106.6965
 20
431.47070000000002
 30
0.0
 10
106.6965
 20
431.47070000000002
 30
0.0
  0
SPLINE
  5
AB
100
AcDbEntity
  8
P
100
AcDbSpline
210
0.0
220
0.0
230
1.0
 70
     0
 71
     3
 72
     8
 73
     4
 74
     0
 42
0.0000000001
 43
0.0000000001
 40
0.0
 40
0.0
 40
0.0
 40
0.0
 40
1.0
 40
1.0
 40
1.0
 40
1.0
 10
109.4743
 20
431.47070000000002
 30
0.0
 10
109.4743
 20
431.47070000000002
 30
0.0
 10
106.6965
 20
431.47070000000002
 30
0.0
 10
106.6965
 20
431.47070000000002
 30
0.0
  0
SPLINE
  5
AC
100
AcDbEntity
  8
P
100
AcDbSpline
210
0.0
220
0.0
230
1.0
 70
     0
 71
     3
 72
     8
 73
     4
 74
     0
 42
0.0000000001
 43
0.0000000001
 40
0.0
 40
0.0
 40
0.0
 40
0.0
 40
1.0
 40
1.0
 40
1.0
 40
1.0
 10
109.4743
 20
431.47070000000002
 30
0.0
 10
109.4743
 20
431.47070000000002
 30
0.0
 10
109.4743
 20
438.62150000000003
 30
0.0
 10
109.4743
 20
438.62150000000003
 30
0.0
  0
SPLINE
  5
AD
100
AcDbEntity
  8
P
100
AcDbSpline
210
0.0
220
0.0
230
1.0
 70
     0
 71
     3
 72
     8
 73
     4
 74
     0
 42
0.0000000001
 43
0.0000000001
 40
0.0
 40
0.0
 40
0.0
 40
0.0
 40
1.0
 40
1.0
 40
1.0
 40
1.0
 10
109.4743
 20
438.62150000000003
 30
0.0
 10
109.4743
 20
438.62150000000003
 30
0.0
 10
106.6965
 20
438.62150000000003
 30
0.0
 10
106.6965
 20
438.62150000000003
 30
0.0
  0
SPLINE
  5
AE
100
AcDbEntity
  8
P
100
AcDbSpline
210
0.0
220
0.0
230
1.0
 70
     0
 71
     3
 72
     8
 73
     4
 74
     0
 42
0.0000000001
 43
0.0000000001
 40
0.0
 40
0.0
 40
0.0
 40
0.0
 40
1.0
 40
1.0
 40
1.0
 40
1.0
 10
106.6965
 20
438.62150000000003
 30
0.0
 10
106.6965
 20
438.62150000000003
 30
0.0
 10
106.6965
 20
445.8322
 30
0.0
 10
106.6965
 20
445.8322
 30
0.0
  0
SPLINE
  5
AF
100
AcDbEntity
  8
P
100
AcDbSpline
210
0.0
220
0.0
230
1.0
 70
     0
 71
     3
 72
     8
 73
     4
 74
     0
 42
0.0000000001
 43
0.0000000001
 40
0.0
 40
0.0
 40
0.0
 40
0.0
 40
1.0
 40
1.0
 40
1.0
 40
1.0
 10
109.4743
 20
445.8322
 30
0.0
 10
109.4743
 20
445.8322
 30
0.0
 10
106.6965
 20
445.8322
 30
0.0
 10
106.6965
 20
445.8322
 30
0.0
  0
SPLINE
  5
B0
100
AcDbEntity
  8
P
100
AcDbSpline
210
0.0
220
0.0
230
1.0
 70
     0
 71
     3
 72
     8
 73
     4
 74
     0
 42
0.0000000001
 43
0.0000000001
 40
0.0
 40
0.0
 40
0.0
 40
0.0
 40
1.0
 40
1.0
 40
1.0
 40
1.0
 10
109.4743
 20
445.8322
 30
0.0
 10
109.4743
 20
445.8322
 30
0.0
 10
109.4743
 20
452.98340000000002
 30
0.0
 10
109.4743
 20
452.98340000000002
 30
0.0
  0
SPLINE
  5
B1
100
AcDbEntity
  8
P
100
AcDbSpline
210
0.0
220
0.0
230
1.0
 70
     0
 71
     3
 72
     8
 73
     4
 74
     0
 42
0.0000000001
 43
0.0000000001
 40
0.0
 40
0.0
 40
0.0
 40
0.0
 40
1.0
 40
1.0
 40
1.0
 40
1.0
 10
109.4743
 20
452.98340000000002
 30
0.0
 10
109.4743
 20
452.98340000000002
 30
0.0
 10
106.6965
 20
452.98340000000002
 30
0.0
 10
106.6965
 20
452.98340000000002
 30
0.0
  0
SPLINE
  5
B2
100
AcDbEntity
  8
P
100
AcDbSpline
210
0.0
220
0.0
230
1.0
 70
     0
 71
     3
 72
     8
 73
     4
 74
     0
 42
0.0000000001
 43
0.0000000001
 40
0.0
 40
0.0
 40
0.0
 40
0.0
 40
1.0
 40
1.0
 40
1.0
 40
1.0
 10
106.6965
 20
452.98340000000002
 30
0.0
 10
106.6965
 20
452.98340000000002
 30
0.0
 10
106.6965
 20
460.13479999999998
 30
0.0
 10
106.6965
 20
460.13479999999998
 30
0.0
  0
SPLINE
  5
B3
100
AcDbEntity
  8
P
100
AcDbSpline
210
0.0
220
0.0
230
1.0
 70
     0
 71
     3
 72
     8
 73
     4
 74
     0
 42
0.0000000001
 43
0.0000000001
 40
0.0
 40
0.0
 40
0.0
 40
0.0
 40
1.0
 40
1.0
 40
1.0
 40
1.0
 10
109.4743
 20
460.13479999999998
 30
0.0
 10
109.4743
 20
460.13479999999998
 30
0.0
 10
106.6965
 20
460.13479999999998
 30
0.0
 10
106.6965
 20
460.13479999999998
 30
0.0
  0
SPLINE
  5
B4
100
AcDbEntity
  8
P
100
AcDbSpline
210
0.0
220
0.0
230
1.0
 70
     0
 71
     3
 72
     8
 73
     4
 74
     0
 42
0.0000000001
 43
0.0000000001
 40
0.0
 40
0.0
 40
0.0
 40
0.0
 40
1.0
 40
1.0
 40
1.0
 40
1.0
 10
109.4743
 20
460.13479999999998
 30
0.0
 10
109.4743
 20
460.13479999999998
 30
0.0
 10
109.4743
 20
464.5086
 30
0.0
 10
109.4743
 20
464.5086
 30
0.0
  0
SPLINE
  5
B5
100
AcDbEntity
  8
P
100
AcDbSpline
210
0.0
220
0.0
230
1.0
 70
     0
 71
     3
 72
     8
 73
     4
 74
     0
 42
0.0000000001
 43
0.0000000001
 40
0.0
 40
0.0
 40
0.0
 40
0.0
 40
1.0
 40
1.0
 40
1.0
 40
1.0
 10
154.09649999999999
 20
419.88670000000002
 30
0.0
 10
154.09649999999999
 20
419.88670000000002
 30
0.0
 10
154.09649999999999
 20
424.25979999999998
 30
0.0
 10
154.09649999999999
 20
424.25979999999998
 30
0.0
  0
SPLINE
  5
B6
100
AcDbEntity
  8
P
100
AcDbSpline
210
0.0
220
0.0
230
1.0
 70
     0
 71
     3
 72
     8
 73
     4
 74
     0
 42
0.0000000001
 43
0.0000000001
 40
0.0
 40
0.0
 40
0.0
 40
0.0
 40
1.0
 40
1.0
 40
1.0
 40
1.0
 10
156.9331
 20
424.25979999999998
 30
0.0
 10
156.9331
 20
424.25979999999998
 30
0.0
 10
154.09649999999999
 20
424.25979999999998
 30
0.0
 10
154.09649999999999
 20
424.25979999999998
 30
0.0
  0
SPLINE
  5
B7
100
AcDbEntity
  8
P
100
AcDbSpline
210
0.0
220
0.0
230
1.0
 70
     0
 71
     3
 72
     8
 73
     4
 74
     0
 42
0.0000000001
 43
0.0000000001
 40
0.0
 40
0.0
 40
0.0
 40
0.0
 40
1.0
 40
1.0
 40
1.0
 40
1.0
 10
156.9331
 20
424.25979999999998
 30
0.0
 10
156.9331
 20
424.25979999999998
 30
0.0
 10
156.9331
 20
431.47070000000002
 30
0.0
 10
156.9331
 20
431.47070000000002
 30
0.0
  0
SPLINE
  5
B8
100
AcDbEntity
  8
P
100
AcDbSpline
210
0.0
220
0.0
230
1.0
 70
     0
 71
     3
 72
     8
 73
     4
 74
     0
 42
0.0000000001
 43
0.0000000001
 40
0.0
 40
0.0
 40
0.0
 40
0.0
 40
1.0
 40
1.0
 40
1.0
 40
1.0
 10
156.9331
 20
431.47070000000002
 30
0.0
 10
156.9331
 20
431.47070000000002
 30
0.0
 10
154.09649999999999
 20
431.47070000000002
 30
0.0
 10
154.09649999999999
 20
431.47070000000002
 30
0.0
  0
SPLINE
  5
B9
100
AcDbEntity
  8
P
100
AcDbSpline
210
0.0
220
0.0
230
1.0
 70
     0
 71
     3
 72
     8
 73
     4
 74
     0
 42
0.0000000001
 43
0.0000000001
 40
0.0
 40
0.0
 40
0.0
 40
0.0
 40
1.0
 40
1.0
 40
1.0
 40
1.0
 10
154.09649999999999
 20
431.47070000000002
 30
0.0
 10
154.09649999999999
 20
431.47070000000002
 30
0.0
 10
154.09649999999999
 20
438.62150000000003
 30
0.0
 10
154.09649999999999
 20
438.62150000000003
 30
0.0
  0
SPLINE
  5
BA
100
AcDbEntity
  8
P
100
AcDbSpline
210
0.0
220
0.0
230
1.0
 70
     0
 71
     3
 72
     8
 73
     4
 74
     0
 42
0.0000000001
 43
0.0000000001
 40
0.0
 40
0.0
 40
0.0
 40
0.0
 40
1.0
 40
1.0
 40
1.0
 40
1.0
 10
156.9331
 20
438.62150000000003
 30
0.0
 10
156.9331
 20
438.62150000000003
 30
0.0
 10
154.09649999999999
 20
438.62150000000003
 30
0.0
 10
154.09649999999999
 20
438.62150000000003
 30
0.0
  0
SPLINE
  5
BB
100
AcDbEntity
  8
P
100
AcDbSpline
210
0.0
220
0.0
230
1.0
 70
     0
 71
     3
 72
     8
 73
     4
 74
     0
 42
0.0000000001
 43
0.0000000001
 40
0.0
 40
0.0
 40
0.0
 40
0.0
 40
1.0
 40
1.0
 40
1.0
 40
1.0
 10
156.9331
 20
438.62150000000003
 30
0.0
 10
156.9331
 20
438.62150000000003
 30
0.0
 10
156.9331
 20
445.8322
 30
0.0
 10
156.9331
 20
445.8322
 30
0.0
  0
SPLINE
  5
BC
100
AcDbEntity
  8
P
100
AcDbSpline
210
0.0
220
0.0
230
1.0
 70
     0
 71
     3
 72
     8
 73
     4
 74
     0
 42
0.0000000001
 43
0.0000000001
 40
0.0
 40
0.0
 40
0.0
 40
0.0
 40
1.0
 40
1.0
 40
1.0
 40
1.0
 10
156.9331
 20
445.8322
 30
0.0
 10
156.9331
 20
445.8322
 30
0.0
 10
154.09649999999999
 20
445.8322
 30
0.0
 10
154.09649999999999
 20
445.8322
 30
0.0
  0
SPLINE
  5
BD
100
AcDbEntity
  8
P
100
AcDbSpline
210
0.0
220
0.0
230
1.0
 70
     0
 71
     3
 72
     8
 73
     4
 74
     0
 42
0.0000000001
 43
0.0000000001
 40
0.0
 40
0.0
 40
0.0
 40
0.0
 40
1.0
 40
1.0
 40
1.0
 40
1.0
 10
154.09649999999999
 20
445.8322
 30
0.0
 10
154.09649999999999
 20
445.8322
 30
0.0
 10
154.09649999999999
 20
452.98340000000002
 30
0.0
 10
154.09649999999999
 20
452.98340000000002
 30
0.0
  0
SPLINE
  5
BE
100
AcDbEntity
  8
P
100
AcDbSpline
210
0.0
220
0.0
230
1.0
 70
     0
 71
     3
 72
     8
 73
     4
 74
     0
 42
0.0000000001
 43
0.0000000001
 40
0.0
 40
0.0
 40
0.0
 40
0.0
 40
1.0
 40
1.0
 40
1.0
 40
1.0
 10
156.9331
 20
452.98340000000002
 30
0.0
 10
156.9331
 20
452.98340000000002
 30
0.0
 10
154.09649999999999
 20
452.98340000000002
 30
0.0
 10
154.09649999999999
 20
452.98340000000002
 30
0.0
  0
SPLINE
  5
BF
100
AcDbEntity
  8
P
100
AcDbSpline
210
0.0
220
0.0
230
1.0
 70
     0
 71
     3
 72
     8
 73
     4
 74
     0
 42
0.0000000001
 43
0.0000000001
 40
0.0
 40
0.0
 40
0.0
 40
0.0
 40
1.0
 40
1.0
 40
1.0
 40
1.0
 10
156.9331
 20
452.98340000000002
 30
0.0
 10
156.9331
 20
452.98340000000002
 30
0.0
 10
156.9331
 20
460.13479999999998
 30
0.0
 10
156.9331
 20
460.13479999999998
 30
0.0
  0
SPLINE
  5
C0
100
AcDbEntity
  8
P
100
AcDbSpline
210
0.0
220
0.0
230
1.0
 70
     0
 71
     3
 72
     8
 73
     4
 74
     0
 42
0.0000000001
 43
0.0000000001
 40
0.0
 40
0.0
 40
0.0
 40
0.0
 40
1.0
 40
1.0
 40
1.0
 40
1.0
 10
156.9331
 20
460.13479999999998
 30
0.0
 10
156.9331
 20
460.13479999999998
 30
0.0
 10
154.09649999999999
 20
460.13479999999998
 30
0.0
 10
154.09649999999999
 20
460.13479999999998
 30
0.0
  0
SPLINE
  5
C1
100
AcDbEntity
  8
P
100
AcDbSpline
210
0.0
220
0.0
230
1.0
 70
     0
 71
     3
 72
     8
 73
     4
 74
     0
 42
0.0000000001
 43
0.0000000001
 40
0.0
 40
0.0
 40
0.0
 40
0.0
 40
1.0
 40
1.0
 40
1.0
 40
1.0
 10
154.09649999999999
 20
460.13479999999998
 30
0.0
 10
154.09649999999999
 20
460.13479999999998
 30
0.0
 10
154.09649999999999
 20
464.5086
 30
0.0
 10
154.09649999999999
 20
464.5086
 30
0.0
  0
SPLINE
  5
C2
100
AcDbEntity
  8
P
100
AcDbSpline
210
0.0
220
0.0
230
1.0
 70
     0
 71
     3
 72
     8
 73
     4
 74
     0
 42
0.0000000001
 43
0.0000000001
 40
0.0
 40
0.0
 40
0.0
 40
0.0
 40
1.0
 40
1.0
 40
1.0
 40
1.0
 10
160.5694
 20
416.78800000000001
 30
0.0
 10
160.5694
 20
416.78800000000001
 30
0.0
 10
167.77950000000001
 20
416.78800000000001
 30
0.0
 10
167.77950000000001
 20
416.78800000000001
 30
0.0
  0
SPLINE
  5
C3
100
AcDbEntity
  8
P
100
AcDbSpline
210
0.0
220
0.0
230
1.0
 70
     0
 71
     3
 72
     8
 73
     4
 74
     0
 42
0.0000000001
 43
0.0000000001
 40
0.0
 40
0.0
 40
0.0
 40
0.0
 40
1.0
 40
1.0
 40
1.0
 40
1.0
 10
167.77950000000001
 20
419.56639999999999
 30
0.0
 10
167.77950000000001
 20
419.56639999999999
 30
0.0
 10
167.77950000000001
 20
416.78800000000001
 30
0.0
 10
167.77950000000001
 20
416.78800000000001
 30
0.0
  0
SPLINE
  5
C4
100
AcDbEntity
  8
P
100
AcDbSpline
210
0.0
220
0.0
230
1.0
 70
     0
 71
     3
 72
     8
 73
     4
 74
     0
 42
0.0000000001
 43
0.0000000001
 40
0.0
 40
0.0
 40
0.0
 40
0.0
 40
1.0
 40
1.0
 40
1.0
 40
1.0
 10
167.77950000000001
 20
419.56639999999999
 30
0.0
 10
167.77950000000001
 20
419.56639999999999
 30
0.0
 10
174.93100000000001
 20
419.56639999999999
 30
0.0
 10
174.93100000000001
 20
419.56639999999999
 30
0.0
  0
SPLINE
  5
C5
100
AcDbEntity
  8
P
100
AcDbSpline
210
0.0
220
0.0
230
1.0
 70
     0
 71
     3
 72
     8
 73
     4
 74
     0
 42
0.0000000001
 43
0.0000000001
 40
0.0
 40
0.0
 40
0.0
 40
0.0
 40
1.0
 40
1.0
 40
1.0
 40
1.0
 10
174.93100000000001
 20
419.56639999999999
 30
0.0
 10
174.93100000000001
 20
419.56639999999999
 30
0.0
 10
174.93100000000001
 20
416.78800000000001
 30
0.0
 10
174.93100000000001
 20
416.78800000000001
 30
0.0
  0
SPLINE
  5
C6
100
AcDbEntity
  8
P
100
AcDbSpline
210
0.0
220
0.0
230
1.0
 70
     0
 71
     3
 72
     8
 73
     4
 74
     0
 42
0.0000000001
 43
0.0000000001
 40
0.0
 40
0.0
 40
0.0
 40
0.0
 40
1.0
 40
1.0
 40
1.0
 40
1.0
 10
174.93100000000001
 20
416.78800000000001
 30
0.0
 10
174.93100000000001
 20
416.78800000000001
 30
0.0
 10
182.0821
 20
416.78800000000001
 30
0.0
 10
182.0821
 20
416.78800000000001
 30
0.0
  0
SPLINE
  5
C7
100
AcDbEntity
  8
P
100
AcDbSpline
210
0.0
220
0.0
230
1.0
 70
     0
 71
     3
 72
     8
 73
     4
 74
     0
 42
0.0000000001
 43
0.0000000001
 40
0.0
 40
0.0
 40
0.0
 40
0.0
 40
1.0
 40
1.0
 40
1.0
 40
1.0
 10
182.0821
 20
419.56639999999999
 30
0.0
 10
182.0821
 20
419.56639999999999
 30
0.0
 10
182.0821
 20
416.78800000000001
 30
0.0
 10
182.0821
 20
416.78800000000001
 30
0.0
  0
SPLINE
  5
C8
100
AcDbEntity
  8
P
100
AcDbSpline
210
0.0
220
0.0
230
1.0
 70
     0
 71
     3
 72
     8
 73
     4
 74
     0
 42
0.0000000001
 43
0.0000000001
 40
0.0
 40
0.0
 40
0.0
 40
0.0
 40
1.0
 40
1.0
 40
1.0
 40
1.0
 10
182.0821
 20
419.56639999999999
 30
0.0
 10
182.0821
 20
419.56639999999999
 30
0.0
 10
189.29320000000001
 20
419.56639999999999
 30
0.0
 10
189.29320000000001
 20
419.56639999999999
 30
0.0
  0
SPLINE
  5
C9
100
AcDbEntity
  8
P
100
AcDbSpline
210
0.0
220
0.0
230
1.0
 70
     0
 71
     3
 72
     8
 73
     4
 74
     0
 42
0.0000000001
 43
0.0000000001
 40
0.0
 40
0.0
 40
0.0
 40
0.0
 40
1.0
 40
1.0
 40
1.0
 40
1.0
 10
189.29320000000001
 20
419.56639999999999
 30
0.0
 10
189.29320000000001
 20
419.56639999999999
 30
0.0
 10
189.29320000000001
 20
416.78800000000001
 30
0.0
 10
189.29320000000001
 20
416.78800000000001
 30
0.0
  0
SPLINE
  5
CA
100
AcDbEntity
  8
P
100
AcDbSpline
210
0.0
220
0.0
230
1.0
 70
     0
 71
     3
 72
     8
 73
     4
 74
     0
 42
0.0000000001
 43
0.0000000001
 40
0.0
 40
0.0
 40
0.0
 40
0.0
 40
1.0
 40
1.0
 40
1.0
 40
1.0
 10
189.29320000000001
 20
416.78800000000001
 30
0.0
 10
189.29320000000001
 20
416.78800000000001
 30
0.0
 10
196.44380000000001
 20
416.78800000000001
 30
0.0
 10
196.44380000000001
 20
416.78800000000001
 30
0.0
  0
SPLINE
  5
CB
100
AcDbEntity
  8
P
100
AcDbSpline
210
0.0
220
0.0
230
1.0
 70
     0
 71
     3
 72
     8
 73
     4
 74
     0
 42
0.0000000001
 43
0.0000000001
 40
0.0
 40
0.0
 40
0.0
 40
0.0
 40
1.0
 40
1.0
 40
1.0
 40
1.0
 10
196.44380000000001
 20
419.56639999999999
 30
0.0
 10
196.44380000000001
 20
419.56639999999999
 30
0.0
 10
196.44380000000001
 20
416.78800000000001
 30
0.0
 10
196.44380000000001
 20
416.78800000000001
 30
0.0
  0
SPLINE
  5
CC
100
AcDbEntity
  8
P
100
AcDbSpline
210
0.0
220
0.0
230
1.0
 70
     0
 71
     3
 72
     8
 73
     4
 74
     0
 42
0.0000000001
 43
0.0000000001
 40
0.0
 40
0.0
 40
0.0
 40
0.0
 40
1.0
 40
1.0
 40
1.0
 40
1.0
 10
196.44380000000001
 20
419.56639999999999
 30
0.0
 10
196.44380000000001
 20
419.56639999999999
 30
0.0
 10
203.65459999999999
 20
419.56639999999999
 30
0.0
 10
203.65459999999999
 20
419.56639999999999
 30
0.0
  0
SPLINE
  5
CD
100
AcDbEntity
  8
P
100
AcDbSpline
210
0.0
220
0.0
230
1.0
 70
     0
 71
     3
 72
     8
 73
     4
 74
     0
 42
0.0000000001
 43
0.0000000001
 40
0.0
 40
0.0
 40
0.0
 40
0.0
 40
1.0
 40
1.0
 40
1.0
 40
1.0
 10
203.65459999999999
 20
419.56639999999999
 30
0.0
 10
203.65459999999999
 20
419.56639999999999
 30
0.0
 10
203.65459999999999
 20
416.78800000000001
 30
0.0
 10
203.65459999999999
 20
416.78800000000001
 30
0.0
  0
SPLINE
  5
CE
100
AcDbEntity
  8
P
100
AcDbSpline
210
0.0
220
0.0
230
1.0
 70
     0
 71
     3
 72
     8
 73
     4
 74
     0
 42
0.0000000001
 43
0.0000000001
 40
0.0
 40
0.0
 40
0.0
 40
0.0
 40
1.0
 40
1.0
 40
1.0
 40
1.0
 10
203.65459999999999
 20
416.78800000000001
 30
0.0
 10
203.65459999999999
 20
416.78800000000001
 30
0.0
 10
208.02789999999999
 20
416.78800000000001
 30
0.0
 10
208.02789999999999
 20
416.78800000000001
 30
0.0
  0
SPLINE
  5
CF
100
AcDbEntity
  8
P
100
AcDbSpline
210
0.0
220
0.0
230
1.0
 70
     0
 71
     3
 72
     8
 73
     4
 74
     0
 42
0.0000000001
 43
0.0000000001
 40
0.0
 40
0.0
 40
0.0
 40
0.0
 40
1.0
 40
1.0
 40
1.0
 40
1.0
 10
160.5694
 20
467.02420000000001
 30
0.0
 10
160.5694
 20
467.02420000000001
 30
0.0
 10
167.77950000000001
 20
467.02420000000001
 30
0.0
 10
167.77950000000001
 20
467.02420000000001
 30
0.0
  0
SPLINE
  5
D0
100
AcDbEntity
  8
P
100
AcDbSpline
210
0.0
220
0.0
230
1.0
 70
     0
 71
     3
 72
     8
 73
     4
 74
     0
 42
0.0000000001
 43
0.0000000001
 40
0.0
 40
0.0
 40
0.0
 40
0.0
 40
1.0
 40
1.0
 40
1.0
 40
1.0
 10
167.77950000000001
 20
467.02420000000001
 30
0.0
 10
167.77950000000001
 20
467.02420000000001
 30
0.0
 10
167.77950000000001
 20
464.18790000000001
 30
0.0
 10
167.77950000000001
 20
464.18790000000001
 30
0.0
  0
SPLINE
  5
D1
100
AcDbEntity
  8
P
100
AcDbSpline
210
0.0
220
0.0
230
1.0
 70
     0
 71
     3
 72
     8
 73
     4
 74
     0
 42
0.0000000001
 43
0.0000000001
 40
0.0
 40
0.0
 40
0.0
 40
0.0
 40
1.0
 40
1.0
 40
1.0
 40
1.0
 10
167.77950000000001
 20
464.18790000000001
 30
0.0
 10
167.77950000000001
 20
464.18790000000001
 30
0.0
 10
174.93100000000001
 20
464.18790000000001
 30
0.0
 10
174.93100000000001
 20
464.18790000000001
 30
0.0
  0
SPLINE
  5
D2
100
AcDbEntity
  8
P
100
AcDbSpline
210
0.0
220
0.0
230
1.0
 70
     0
 71
     3
 72
     8
 73
     4
 74
     0
 42
0.0000000001
 43
0.0000000001
 40
0.0
 40
0.0
 40
0.0
 40
0.0
 40
1.0
 40
1.0
 40
1.0
 40
1.0
 10
174.93100000000001
 20
467.02420000000001
 30
0.0
 10
174.93100000000001
 20
467.02420000000001
 30
0.0
 10
174.93100000000001
 20
464.18790000000001
 30
0.0
 10
174.93100000000001
 20
464.18790000000001
 30
0.0
  0
SPLINE
  5
D3
100
AcDbEntity
  8
P
100
AcDbSpline
210
0.0
220
0.0
230
1.0
 70
     0
 71
     3
 72
     8
 73
     4
 74
     0
 42
0.0000000001
 43
0.0000000001
 40
0.0
 40
0.0
 40
0.0
 40
0.0
 40
1.0
 40
1.0
 40
1.0
 40
1.0
 10
174.93100000000001
 20
467.02420000000001
 30
0.0
 10
174.93100000000001
 20
467.02420000000001
 30
0.0
 10
182.0821
 20
467.02420000000001
 30
0.0
 10
182.0821
 20
467.02420000000001
 30
0.0
  0
SPLINE
  5
D4
100
AcDbEntity
  8
P
100
AcDbSpline
210
0.0
220
0.0
230
1.0
 70
     0
 71
     3
 72
     8
 73
     4
 74
     0
 42
0.0000000001
 43
0.0000000001
 40
0.0
 40
0.0
 40
0.0
 40
0.0
 40
1.0
 40
1.0
 40
1.0
 40
1.0
 10
182.0821
 20
467.02420000000001
 30
0.0
 10
182.0821
 20
467.02420000000001
 30
0.0
 10
182.0821
 20
464.18790000000001
 30
0.0
 10
182.0821
 20
464.18790000000001
 30
0.0
  0
SPLINE
  5
D5
100
AcDbEntity
  8
P
100
AcDbSpline
210
0.0
220
0.0
230
1.0
 70
     0
 71
     3
 72
     8
 73
     4
 74
     0
 42
0.0000000001
 43
0.0000000001
 40
0.0
 40
0.0
 40
0.0
 40
0.0
 40
1.0
 40
1.0
 40
1.0
 40
1.0
 10
182.0821
 20
464.18790000000001
 30
0.0
 10
182.0821
 20
464.18790000000001
 30
0.0
 10
189.29320000000001
 20
464.18790000000001
 30
0.0
 10
189.29320000000001
 20
464.18790000000001
 30
0.0
  0
SPLINE
  5
D6
100
AcDbEntity
  8
P
100
AcDbSpline
210
0.0
220
0.0
230
1.0
 70
     0
 71
     3
 72
     8
 73
     4
 74
     0
 42
0.0000000001
 43
0.0000000001
 40
0.0
 40
0.0
 40
0.0
 40
0.0
 40
1.0
 40
1.0
 40
1.0
 40
1.0
 10
189.29320000000001
 20
467.02420000000001
 30
0.0
 10
189.29320000000001
 20
467.02420000000001
 30
0.0
 10
189.29320000000001
 20
464.18790000000001
 30
0.0
 10
189.29320000000001
 20
464.18790000000001
 30
0.0
  0
SPLINE
  5
D7
100
AcDbEntity
  8
P
100
AcDbSpline
210
0.0
220
0.0
230
1.0
 70
     0
 71
     3
 72
     8
 73
     4
 74
     0
 42
0.0000000001
 43
0.0000000001
 40
0.0
 40
0.0
 40
0.0
 40
0.0
 40
1.0
 40
1.0
 40
1.0
 40
1.0
 10
189.29320000000001
 20
467.02420000000001
 30
0.0
 10
189.29320000000001
 20
467.02420000000001
 30
0.0
 10
196.44380000000001
 20
467.02420000000001
 30
0.0
 10
196.44380000000001
 20
467.02420000000001
 30
0.0
  0
SPLINE
  5
D8
100
AcDbEntity
  8
P
100
AcDbSpline
210
0.0
220
0.0
230
1.0
 70
     0
 71
     3
 72
     8
 73
     4
 74
     0
 42
0.0000000001
 43
0.0000000001
 40
0.0
 40
0.0
 40
0.0
 40
0.0
 40
1.0
 40
1.0
 40
1.0
 40
1.0
 10
196.44380000000001
 20
467.02420000000001
 30
0.0
 10
196.44380000000001
 20
467.02420000000001
 30
0.0
 10
196.44380000000001
 20
464.18790000000001
 30
0.0
 10
196.44380000000001
 20
464.18790000000001
 30
0.0
  0
SPLINE
  5
D9
100
AcDbEntity
  8
P
100
AcDbSpline
210
0.0
220
0.0
230
1.0
 70
     0
 71
     3
 72
     8
 73
     4
 74
     0
 42
0.0000000001
 43
0.0000000001
 40
0.0
 40
0.0
 40
0.0
 40
0.0
 40
1.0
 40
1.0
 40
1.0
 40
1.0
 10
196.44380000000001
 20
464.18790000000001
 30
0.0
 10
196.44380000000001
 20
464.18790000000001
 30
0.0
 10
203.65459999999999
 20
464.18790000000001
 30
0.0
 10
203.65459999999999
 20
464.18790000000001
 30
0.0
  0
SPLINE
  5
DA
100
AcDbEntity
  8
P
100
AcDbSpline
210
0.0
220
0.0
230
1.0
 70
     0
 71
     3
 72
     8
 73
     4
 74
     0
 42
0.0000000001
 43
0.0000000001
 40
0.0
 40
0.0
 40
0.0
 40
0.0
 40
1.0
 40
1.0
 40
1.0
 40
1.0
 10
203.65459999999999
 20
467.02420000000001
 30
0.0
 10
203.65459999999999
 20
467.02420000000001
 30
0.0
 10
203.65459999999999
 20
464.18790000000001
 30
0.0
 10
203.65459999999999
 20
464.18790000000001
 30
0.0
  0
SPLINE
  5
DB
100
AcDbEntity
  8
P
100
AcDbSpline
210
0.0
220
0.0
230
1.0
 70
     0
 71
     3
 72
     8
 73
     4
 74
     0
 42
0.0000000001
 43
0.0000000001
 40
0.0
 40
0.0
 40
0.0
 40
0.0
 40
1.0
 40
1.0
 40
1.0
 40
1.0
 10
203.65459999999999
 20
467.02420000000001
 30
0.0
 10
203.65459999999999
 20
467.02420000000001
 30
0.0
 10
208.02789999999999
 20
467.02420000000001
 30
0.0
 10
208.02789999999999
 20
467.02420000000001
 30
0.0
  0
SPLINE
  5
DC
100
AcDbEntity
  8
P
100
AcDbSpline
210
0.0
220
0.0
230
1.0
 70
     0
 71
     3
 72
     8
 73
     4
 74
     0
 42
0.0000000001
 43
0.0000000001
 40
0.0
 40
0.0
 40
0.0
 40
0.0
 40
1.0
 40
1.0
 40
1.0
 40
1.0
 10
160.5694
 20
416.78800000000001
 30
0.0
 10
160.5694
 20
416.78800000000001
 30
0.0
 10
160.5694
 20
423.93939999999998
 30
0.0
 10
160.5694
 20
423.93939999999998
 30
0.0
  0
SPLINE
  5
DD
100
AcDbEntity
  8
P
100
AcDbSpline
210
0.0
220
0.0
230
1.0
 70
     0
 71
     3
 72
     8
 73
     4
 74
     0
 42
0.0000000001
 43
0.0000000001
 40
0.0
 40
0.0
 40
0.0
 40
0.0
 40
1.0
 40
1.0
 40
1.0
 40
1.0
 10
163.4059
 20
423.93939999999998
 30
0.0
 10
163.4059
 20
423.93939999999998
 30
0.0
 10
160.5694
 20
423.93939999999998
 30
0.0
 10
160.5694
 20
423.93939999999998
 30
0.0
  0
SPLINE
  5
DE
100
AcDbEntity
  8
P
100
AcDbSpline
210
0.0
220
0.0
230
1.0
 70
     0
 71
     3
 72
     8
 73
     4
 74
     0
 42
0.0000000001
 43
0.0000000001
 40
0.0
 40
0.0
 40
0.0
 40
0.0
 40
1.0
 40
1.0
 40
1.0
 40
1.0
 10
163.4059
 20
423.93939999999998
 30
0.0
 10
163.4059
 20
423.93939999999998
 30
0.0
 10
163.4059
 20
431.15010000000001
 30
0.0
 10
163.4059
 20
431.15010000000001
 30
0.0
  0
SPLINE
  5
DF
100
AcDbEntity
  8
P
100
AcDbSpline
210
0.0
220
0.0
230
1.0
 70
     0
 71
     3
 72
     8
 73
     4
 74
     0
 42
0.0000000001
 43
0.0000000001
 40
0.0
 40
0.0
 40
0.0
 40
0.0
 40
1.0
 40
1.0
 40
1.0
 40
1.0
 10
163.4059
 20
431.15010000000001
 30
0.0
 10
163.4059
 20
431.15010000000001
 30
0.0
 10
160.5694
 20
431.15010000000001
 30
0.0
 10
160.5694
 20
431.15010000000001
 30
0.0
  0
SPLINE
  5
E0
100
AcDbEntity
  8
P
100
AcDbSpline
210
0.0
220
0.0
230
1.0
 70
     0
 71
     3
 72
     8
 73
     4
 74
     0
 42
0.0000000001
 43
0.0000000001
 40
0.0
 40
0.0
 40
0.0
 40
0.0
 40
1.0
 40
1.0
 40
1.0
 40
1.0
 10
160.5694
 20
431.15010000000001
 30
0.0
 10
160.5694
 20
431.15010000000001
 30
0.0
 10
160.5694
 20
438.30059999999997
 30
0.0
 10
160.5694
 20
438.30059999999997
 30
0.0
  0
SPLINE
  5
E1
100
AcDbEntity
  8
P
100
AcDbSpline
210
0.0
220
0.0
230
1.0
 70
     0
 71
     3
 72
     8
 73
     4
 74
     0
 42
0.0000000001
 43
0.0000000001
 40
0.0
 40
0.0
 40
0.0
 40
0.0
 40
1.0
 40
1.0
 40
1.0
 40
1.0
 10
163.4059
 20
438.30059999999997
 30
0.0
 10
163.4059
 20
438.30059999999997
 30
0.0
 10
160.5694
 20
438.30059999999997
 30
0.0
 10
160.5694
 20
438.30059999999997
 30
0.0
  0
SPLINE
  5
E2
100
AcDbEntity
  8
P
100
AcDbSpline
210
0.0
220
0.0
230
1.0
 70
     0
 71
     3
 72
     8
 73
     4
 74
     0
 42
0.0000000001
 43
0.0000000001
 40
0.0
 40
0.0
 40
0.0
 40
0.0
 40
1.0
 40
1.0
 40
1.0
 40
1.0
 10
163.4059
 20
438.30059999999997
 30
0.0
 10
163.4059
 20
438.30059999999997
 30
0.0
 10
163.4059
 20
445.51130000000001
 30
0.0
 10
163.4059
 20
445.51130000000001
 30
0.0
  0
SPLINE
  5
E3
100
AcDbEntity
  8
P
100
AcDbSpline
210
0.0
220
0.0
230
1.0
 70
     0
 71
     3
 72
     8
 73
     4
 74
     0
 42
0.0000000001
 43
0.0000000001
 40
0.0
 40
0.0
 40
0.0
 40
0.0
 40
1.0
 40
1.0
 40
1.0
 40
1.0
 10
163.4059
 20
445.51130000000001
 30
0.0
 10
163.4059
 20
445.51130000000001
 30
0.0
 10
160.5694
 20
445.51130000000001
 30
0.0
 10
160.5694
 20
445.51130000000001
 30
0.0
  0
SPLINE
  5
E4
100
AcDbEntity
  8
P
100
AcDbSpline
210
0.0
220
0.0
230
1.0
 70
     0
 71
     3
 72
     8
 73
     4
 74
     0
 42
0.0000000001
 43
0.0000000001
 40
0.0
 40
0.0
 40
0.0
 40
0.0
 40
1.0
 40
1.0
 40
1.0
 40
1.0
 10
160.5694
 20
445.51130000000001
 30
0.0
 10
160.5694
 20
445.51130000000001
 30
0.0
 10
160.5694
 20
452.66289999999998
 30
0.0
 10
160.5694
 20
452.66289999999998
 30
0.0
  0
SPLINE
  5
E5
100
AcDbEntity
  8
P
100
AcDbSpline
210
0.0
220
0.0
230
1.0
 70
     0
 71
     3
 72
     8
 73
     4
 74
     0
 42
0.0000000001
 43
0.0000000001
 40
0.0
 40
0.0
 40
0.0
 40
0.0
 40
1.0
 40
1.0
 40
1.0
 40
1.0
 10
163.4059
 20
452.66289999999998
 30
0.0
 10
163.4059
 20
452.66289999999998
 30
0.0
 10
160.5694
 20
452.66289999999998
 30
0.0
 10
160.5694
 20
452.66289999999998
 30
0.0
  0
SPLINE
  5
E6
100
AcDbEntity
  8
P
100
AcDbSpline
210
0.0
220
0.0
230
1.0
 70
     0
 71
     3
 72
     8
 73
     4
 74
     0
 42
0.0000000001
 43
0.0000000001
 40
0.0
 40
0.0
 40
0.0
 40
0.0
 40
1.0
 40
1.0
 40
1.0
 40
1.0
 10
163.4059
 20
452.66289999999998
 30
0.0
 10
163.4059
 20
452.66289999999998
 30
0.0
 10
163.4059
 20
459.81439999999998
 30
0.0
 10
163.4059
 20
459.81439999999998
 30
0.0
  0
SPLINE
  5
E7
100
AcDbEntity
  8
P
100
AcDbSpline
210
0.0
220
0.0
230
1.0
 70
     0
 71
     3
 72
     8
 73
     4
 74
     0
 42
0.0000000001
 43
0.0000000001
 40
0.0
 40
0.0
 40
0.0
 40
0.0
 40
1.0
 40
1.0
 40
1.0
 40
1.0
 10
163.4059
 20
459.81439999999998
 30
0.0
 10
163.4059
 20
459.81439999999998
 30
0.0
 10
160.5694
 20
459.81439999999998
 30
0.0
 10
160.5694
 20
459.81439999999998
 30
0.0
  0
SPLINE
  5
E8
100
AcDbEntity
  8
P
100
AcDbSpline
210
0.0
220
0.0
230
1.0
 70
     0
 71
     3
 72
     8
 73
     4
 74
     0
 42
0.0000000001
 43
0.0000000001
 40
0.0
 40
0.0
 40
0.0
 40
0.0
 40
1.0
 40
1.0
 40
1.0
 40
1.0
 10
160.5694
 20
459.81439999999998
 30
0.0
 10
160.5694
 20
459.81439999999998
 30
0.0
 10
160.5694
 20
467.02420000000001
 30
0.0
 10
160.5694
 20
467.02420000000001
 30
0.0
  0
SPLINE
  5
E9
100
AcDbEntity
  8
P
100
AcDbSpline
210
0.0
220
0.0
230
1.0
 70
     0
 71
     3
 72
     8
 73
     4
 74
     0
 42
0.0000000001
 43
0.0000000001
 40
0.0
 40
0.0
 40
0.0
 40
0.0
 40
1.0
 40
1.0
 40
1.0
 40
1.0
 10
208.02789999999999
 20
416.78800000000001
 30
0.0
 10
208.02789999999999
 20
416.78800000000001
 30
0.0
 10
208.02789999999999
 20
423.93939999999998
 30
0.0
 10
208.02789999999999
 20
423.93939999999998
 30
0.0
  0
SPLINE
  5
EA
100
AcDbEntity
  8
P
100
AcDbSpline
210
0.0
220
0.0
230
1.0
 70
     0
 71
     3
 72
     8
 73
     4
 74
     0
 42
0.0000000001
 43
0.0000000001
 40
0.0
 40
0.0
 40
0.0
 40
0.0
 40
1.0
 40
1.0
 40
1.0
 40
1.0
 10
210.8058
 20
423.93939999999998
 30
0.0
 10
210.8058
 20
423.93939999999998
 30
0.0
 10
208.02789999999999
 20
423.93939999999998
 30
0.0
 10
208.02789999999999
 20
423.93939999999998
 30
0.0
  0
SPLINE
  5
EB
100
AcDbEntity
  8
P
100
AcDbSpline
210
0.0
220
0.0
230
1.0
 70
     0
 71
     3
 72
     8
 73
     4
 74
     0
 42
0.0000000001
 43
0.0000000001
 40
0.0
 40
0.0
 40
0.0
 40
0.0
 40
1.0
 40
1.0
 40
1.0
 40
1.0
 10
210.8058
 20
423.93939999999998
 30
0.0
 10
210.8058
 20
423.93939999999998
 30
0.0
 10
210.8058
 20
431.15010000000001
 30
0.0
 10
210.8058
 20
431.15010000000001
 30
0.0
  0
SPLINE
  5
EC
100
AcDbEntity
  8
P
100
AcDbSpline
210
0.0
220
0.0
230
1.0
 70
     0
 71
     3
 72
     8
 73
     4
 74
     0
 42
0.0000000001
 43
0.0000000001
 40
0.0
 40
0.0
 40
0.0
 40
0.0
 40
1.0
 40
1.0
 40
1.0
 40
1.0
 10
210.8058
 20
431.15010000000001
 30
0.0
 10
210.8058
 20
431.15010000000001
 30
0.0
 10
208.02789999999999
 20
431.15010000000001
 30
0.0
 10
208.02789999999999
 20
431.15010000000001
 30
0.0
  0
SPLINE
  5
ED
100
AcDbEntity
  8
P
100
AcDbSpline
210
0.0
220
0.0
230
1.0
 70
     0
 71
     3
 72
     8
 73
     4
 74
     0
 42
0.0000000001
 43
0.0000000001
 40
0.0
 40
0.0
 40
0.0
 40
0.0
 40
1.0
 40
1.0
 40
1.0
 40
1.0
 10
208.02789999999999
 20
431.15010000000001
 30
0.0
 10
208.02789999999999
 20
431.15010000000001
 30
0.0
 10
208.02789999999999
 20
438.30059999999997
 30
0.0
 10
208.02789999999999
 20
438.30059999999997
 30
0.0
  0
SPLINE
  5
EE
100
AcDbEntity
  8
P
100
AcDbSpline
210
0.0
220
0.0
230
1.0
 70
     0
 71
     3
 72
     8
 73
     4
 74
     0
 42
0.0000000001
 43
0.0000000001
 40
0.0
 40
0.0
 40
0.0
 40
0.0
 40
1.0
 40
1.0
 40
1.0
 40
1.0
 10
210.8058
 20
438.30059999999997
 30
0.0
 10
210.8058
 20
438.30059999999997
 30
0.0
 10
208.02789999999999
 20
438.30059999999997
 30
0.0
 10
208.02789999999999
 20
438.30059999999997
 30
0.0
  0
SPLINE
  5
EF
100
AcDbEntity
  8
P
100
AcDbSpline
210
0.0
220
0.0
230
1.0
 70
     0
 71
     3
 72
     8
 73
     4
 74
     0
 42
0.0000000001
 43
0.0000000001
 40
0.0
 40
0.0
 40
0.0
 40
0.0
 40
1.0
 40
1.0
 40
1.0
 40
1.0
 10
210.8058
 20
438.30059999999997
 30
0.0
 10
210.8058
 20
438.30059999999997
 30
0.0
 10
210.8058
 20
445.51130000000001
 30
0.0
 10
210.8058
 20
445.51130000000001
 30
0.0
  0
SPLINE
  5
F0
100
AcDbEntity
  8
P
100
AcDbSpline
210
0.0
220
0.0
230
1.0
 70
     0
 71
     3
 72
     8
 73
     4
 74
     0
 42
0.0000000001
 43
0.0000000001
 40
0.0
 40
0.0
 40
0.0
 40
0.0
 40
1.0
 40
1.0
 40
1.0
 40
1.0
 10
210.8058
 20
445.51130000000001
 30
0.0
 10
210.8058
 20
445.51130000000001
 30
0.0
 10
208.02789999999999
 20
445.51130000000001
 30
0.0
 10
208.02789999999999
 20
445.51130000000001
 30
0.0
  0
SPLINE
  5
F1
100
AcDbEntity
  8
P
100
AcDbSpline
210
0.0
220
0.0
230
1.0
 70
     0
 71
     3
 72
     8
 73
     4
 74
     0
 42
0.0000000001
 43
0.0000000001
 40
0.0
 40
0.0
 40
0.0
 40
0.0
 40
1.0
 40
1.0
 40
1.0
 40
1.0
 10
208.02789999999999
 20
445.51130000000001
 30
0.0
 10
208.02789999999999
 20
445.51130000000001
 30
0.0
 10
208.02789999999999
 20
452.66289999999998
 30
0.0
 10
208.02789999999999
 20
452.66289999999998
 30
0.0
  0
SPLINE
  5
F2
100
AcDbEntity
  8
P
100
AcDbSpline
210
0.0
220
0.0
230
1.0
 70
     0
 71
     3
 72
     8
 73
     4
 74
     0
 42
0.0000000001
 43
0.0000000001
 40
0.0
 40
0.0
 40
0.0
 40
0.0
 40
1.0
 40
1.0
 40
1.0
 40
1.0
 10
210.8058
 20
452.66289999999998
 30
0.0
 10
210.8058
 20
452.66289999999998
 30
0.0
 10
208.02789999999999
 20
452.66289999999998
 30
0.0
 10
208.02789999999999
 20
452.66289999999998
 30
0.0
  0
SPLINE
  5
F3
100
AcDbEntity
  8
P
100
AcDbSpline
210
0.0
220
0.0
230
1.0
 70
     0
 71
     3
 72
     8
 73
     4
 74
     0
 42
0.0000000001
 43
0.0000000001
 40
0.0
 40
0.0
 40
0.0
 40
0.0
 40
1.0
 40
1.0
 40
1.0
 40
1.0
 10
210.8058
 20
452.66289999999998
 30
0.0
 10
210.8058
 20
452.66289999999998
 30
0.0
 10
210.8058
 20
459.81439999999998
 30
0.0
 10
210.8058
 20
459.81439999999998
 30
0.0
  0
SPLINE
  5
F4
100
AcDbEntity
  8
P
100
AcDbSpline
210
0.0
220
0.0
230
1.0
 70
     0
 71
     3
 72
     8
 73
     4
 74
     0
 42
0.0000000001
 43
0.0000000001
 40
0.0
 40
0.0
 40
0.0
 40
0.0
 40
1.0
 40
1.0
 40
1.0
 40
1.0
 10
210.8058
 20
459.81439999999998
 30
0.0
 10
210.8058
 20
459.81439999999998
 30
0.0
 10
208.02789999999999
 20
459.81439999999998
 30
0.0
 10
208.02789999999999
 20
459.81439999999998
 30
0.0
  0
SPLINE
  5
F5
100
AcDbEntity
  8
P
100
AcDbSpline
210
0.0
220
0.0
230
1.0
 70
     0
 71
     3
 72
     8
 73
     4
 74
     0
 42
0.0000000001
 43
0.0000000001
 40
0.0
 40
0.0
 40
0.0
 40
0.0
 40
1.0
 40
1.0
 40
1.0
 40
1.0
 10
208.02789999999999
 20
459.81439999999998
 30
0.0
 10
208.02789999999999
 20
459.81439999999998
 30
0.0
 10
208.02789999999999
 20
467.02420000000001
 30
0.0
 10
208.02789999999999
 20
467.02420000000001
 30
0.0
  0
SPLINE
  5
F6
100
AcDbEntity
  8
P
100
AcDbSpline
210
0.0
220
0.0
230
1.0
 70
     0
 71
     3
 72
     8
 73
     4
 74
     0
 42
0.0000000001
 43
0.0000000001
 40
0.0
 40
0.0
 40
0.0
 40
0.0
 40
1.0
 40
1.0
 40
1.0
 40
1.0
 10
52.242199999999997
 20
361.94069999999999
 30
0.0
 10
52.242199999999997
 20
361.94069999999999
 30
0.0
 10
59.393599999999999
 20
361.94069999999999
 30
0.0
 10
59.393599999999999
 20
361.94069999999999
 30
0.0
  0
SPLINE
  5
F7
100
AcDbEntity
  8
P
100
AcDbSpline
210
0.0
220
0.0
230
1.0
 70
     0
 71
     3
 72
     8
 73
     4
 74
     0
 42
0.0000000001
 43
0.0000000001
 40
0.0
 40
0.0
 40
0.0
 40
0.0
 40
1.0
 40
1.0
 40
1.0
 40
1.0
 10
59.393599999999999
 20
364.77730000000003
 30
0.0
 10
59.393599999999999
 20
364.77730000000003
 30
0.0
 10
59.393599999999999
 20
361.94069999999999
 30
0.0
 10
59.393599999999999
 20
361.94069999999999
 30
0.0
  0
SPLINE
  5
F8
100
AcDbEntity
  8
P
100
AcDbSpline
210
0.0
220
0.0
230
1.0
 70
     0
 71
     3
 72
     8
 73
     4
 74
     0
 42
0.0000000001
 43
0.0000000001
 40
0.0
 40
0.0
 40
0.0
 40
0.0
 40
1.0
 40
1.0
 40
1.0
 40
1.0
 10
59.393599999999999
 20
364.77730000000003
 30
0.0
 10
59.393599999999999
 20
364.77730000000003
 30
0.0
 10
66.604399999999998
 20
364.77730000000003
 30
0.0
 10
66.604399999999998
 20
364.77730000000003
 30
0.0
  0
SPLINE
  5
F9
100
AcDbEntity
  8
P
100
AcDbSpline
210
0.0
220
0.0
230
1.0
 70
     0
 71
     3
 72
     8
 73
     4
 74
     0
 42
0.0000000001
 43
0.0000000001
 40
0.0
 40
0.0
 40
0.0
 40
0.0
 40
1.0
 40
1.0
 40
1.0
 40
1.0
 10
66.604399999999998
 20
364.77730000000003
 30
0.0
 10
66.604399999999998
 20
364.77730000000003
 30
0.0
 10
66.604399999999998
 20
361.94069999999999
 30
0.0
 10
66.604399999999998
 20
361.94069999999999
 30
0.0
  0
SPLINE
  5
FA
100
AcDbEntity
  8
P
100
AcDbSpline
210
0.0
220
0.0
230
1.0
 70
     0
 71
     3
 72
     8
 73
     4
 74
     0
 42
0.0000000001
 43
0.0000000001
 40
0.0
 40
0.0
 40
0.0
 40
0.0
 40
1.0
 40
1.0
 40
1.0
 40
1.0
 10
66.604399999999998
 20
361.94069999999999
 30
0.0
 10
66.604399999999998
 20
361.94069999999999
 30
0.0
 10
73.755200000000002
 20
361.94069999999999
 30
0.0
 10
73.755200000000002
 20
361.94069999999999
 30
0.0
  0
SPLINE
  5
FB
100
AcDbEntity
  8
P
100
AcDbSpline
210
0.0
220
0.0
230
1.0
 70
     0
 71
     3
 72
     8
 73
     4
 74
     0
 42
0.0000000001
 43
0.0000000001
 40
0.0
 40
0.0
 40
0.0
 40
0.0
 40
1.0
 40
1.0
 40
1.0
 40
1.0
 10
73.755200000000002
 20
364.77730000000003
 30
0.0
 10
73.755200000000002
 20
364.77730000000003
 30
0.0
 10
73.755200000000002
 20
361.94069999999999
 30
0.0
 10
73.755200000000002
 20
361.94069999999999
 30
0.0
  0
SPLINE
  5
FC
100
AcDbEntity
  8
P
100
AcDbSpline
210
0.0
220
0.0
230
1.0
 70
     0
 71
     3
 72
     8
 73
     4
 74
     0
 42
0.0000000001
 43
0.0000000001
 40
0.0
 40
0.0
 40
0.0
 40
0.0
 40
1.0
 40
1.0
 40
1.0
 40
1.0
 10
73.755200000000002
 20
364.77730000000003
 30
0.0
 10
73.755200000000002
 20
364.77730000000003
 30
0.0
 10
80.906400000000005
 20
364.77730000000003
 30
0.0
 10
80.906400000000005
 20
364.77730000000003
 30
0.0
  0
SPLINE
  5
FD
100
AcDbEntity
  8
P
100
AcDbSpline
210
0.0
220
0.0
230
1.0
 70
     0
 71
     3
 72
     8
 73
     4
 74
     0
 42
0.0000000001
 43
0.0000000001
 40
0.0
 40
0.0
 40
0.0
 40
0.0
 40
1.0
 40
1.0
 40
1.0
 40
1.0
 10
80.906400000000005
 20
364.77730000000003
 30
0.0
 10
80.906400000000005
 20
364.77730000000003
 30
0.0
 10
80.906400000000005
 20
361.94069999999999
 30
0.0
 10
80.906400000000005
 20
361.94069999999999
 30
0.0
  0
SPLINE
  5
FE
100
AcDbEntity
  8
P
100
AcDbSpline
210
0.0
220
0.0
230
1.0
 70
     0
 71
     3
 72
     8
 73
     4
 74
     0
 42
0.0000000001
 43
0.0000000001
 40
0.0
 40
0.0
 40
0.0
 40
0.0
 40
1.0
 40
1.0
 40
1.0
 40
1.0
 10
80.906400000000005
 20
361.94069999999999
 30
0.0
 10
80.906400000000005
 20
361.94069999999999
 30
0.0
 10
88.116900000000001
 20
361.94069999999999
 30
0.0
 10
88.116900000000001
 20
361.94069999999999
 30
0.0
  0
SPLINE
  5
FF
100
AcDbEntity
  8
P
100
AcDbSpline
210
0.0
220
0.0
230
1.0
 70
     0
 71
     3
 72
     8
 73
     4
 74
     0
 42
0.0000000001
 43
0.0000000001
 40
0.0
 40
0.0
 40
0.0
 40
0.0
 40
1.0
 40
1.0
 40
1.0
 40
1.0
 10
88.116900000000001
 20
364.77730000000003
 30
0.0
 10
88.116900000000001
 20
364.77730000000003
 30
0.0
 10
88.116900000000001
 20
361.94069999999999
 30
0.0
 10
88.116900000000001
 20
361.94069999999999
 30
0.0
  0
SPLINE
  5
100
100
AcDbEntity
  8
P
100
AcDbSpline
210
0.0
220
0.0
230
1.0
 70
     0
 71
     3
 72
     8
 73
     4
 74
     0
 42
0.0000000001
 43
0.0000000001
 40
0.0
 40
0.0
 40
0.0
 40
0.0
 40
1.0
 40
1.0
 40
1.0
 40
1.0
 10
88.116900000000001
 20
364.77730000000003
 30
0.0
 10
88.116900000000001
 20
364.77730000000003
 30
0.0
 10
95.267799999999994
 20
364.77730000000003
 30
0.0
 10
95.267799999999994
 20
364.77730000000003
 30
0.0
  0
SPLINE
  5
101
100
AcDbEntity
  8
P
100
AcDbSpline
210
0.0
220
0.0
230
1.0
 70
     0
 71
     3
 72
     8
 73
     4
 74
     0
 42
0.0000000001
 43
0.0000000001
 40
0.0
 40
0.0
 40
0.0
 40
0.0
 40
1.0
 40
1.0
 40
1.0
 40
1.0
 10
95.267799999999994
 20
364.77730000000003
 30
0.0
 10
95.267799999999994
 20
364.77730000000003
 30
0.0
 10
95.267799999999994
 20
361.94069999999999
 30
0.0
 10
95.267799999999994
 20
361.94069999999999
 30
0.0
  0
SPLINE
  5
102
100
AcDbEntity
  8
P
100
AcDbSpline
210
0.0
220
0.0
230
1.0
 70
     0
 71
     3
 72
     8
 73
     4
 74
     0
 42
0.0000000001
 43
0.0000000001
 40
0.0
 40
0.0
 40
0.0
 40
0.0
 40
1.0
 40
1.0
 40
1.0
 40
1.0
 10
95.267799999999994
 20
361.94069999999999
 30
0.0
 10
95.267799999999994
 20
361.94069999999999
 30
0.0
 10
99.641800000000003
 20
361.94069999999999
 30
0.0
 10
99.641800000000003
 20
361.94069999999999
 30
0.0
  0
SPLINE
  5
103
100
AcDbEntity
  8
P
100
AcDbSpline
210
0.0
220
0.0
230
1.0
 70
     0
 71
     3
 72
     8
 73
     4
 74
     0
 42
0.0000000001
 43
0.0000000001
 40
0.0
 40
0.0
 40
0.0
 40
0.0
 40
1.0
 40
1.0
 40
1.0
 40
1.0
 10
52.242199999999997
 20
412.17720000000003
 30
0.0
 10
52.242199999999997
 20
412.17720000000003
 30
0.0
 10
59.393599999999999
 20
412.17720000000003
 30
0.0
 10
59.393599999999999
 20
412.17720000000003
 30
0.0
  0
SPLINE
  5
104
100
AcDbEntity
  8
P
100
AcDbSpline
210
0.0
220
0.0
230
1.0
 70
     0
 71
     3
 72
     8
 73
     4
 74
     0
 42
0.0000000001
 43
0.0000000001
 40
0.0
 40
0.0
 40
0.0
 40
0.0
 40
1.0
 40
1.0
 40
1.0
 40
1.0
 10
59.393599999999999
 20
412.17720000000003
 30
0.0
 10
59.393599999999999
 20
412.17720000000003
 30
0.0
 10
59.393599999999999
 20
409.39940000000001
 30
0.0
 10
59.393599999999999
 20
409.39940000000001
 30
0.0
  0
SPLINE
  5
105
100
AcDbEntity
  8
P
100
AcDbSpline
210
0.0
220
0.0
230
1.0
 70
     0
 71
     3
 72
     8
 73
     4
 74
     0
 42
0.0000000001
 43
0.0000000001
 40
0.0
 40
0.0
 40
0.0
 40
0.0
 40
1.0
 40
1.0
 40
1.0
 40
1.0
 10
59.393599999999999
 20
409.39940000000001
 30
0.0
 10
59.393599999999999
 20
409.39940000000001
 30
0.0
 10
66.604399999999998
 20
409.39940000000001
 30
0.0
 10
66.604399999999998
 20
409.39940000000001
 30
0.0
  0
SPLINE
  5
106
100
AcDbEntity
  8
P
100
AcDbSpline
210
0.0
220
0.0
230
1.0
 70
     0
 71
     3
 72
     8
 73
     4
 74
     0
 42
0.0000000001
 43
0.0000000001
 40
0.0
 40
0.0
 40
0.0
 40
0.0
 40
1.0
 40
1.0
 40
1.0
 40
1.0
 10
66.604399999999998
 20
412.17720000000003
 30
0.0
 10
66.604399999999998
 20
412.17720000000003
 30
0.0
 10
66.604399999999998
 20
409.39940000000001
 30
0.0
 10
66.604399999999998
 20
409.39940000000001
 30
0.0
  0
SPLINE
  5
107
100
AcDbEntity
  8
P
100
AcDbSpline
210
0.0
220
0.0
230
1.0
 70
     0
 71
     3
 72
     8
 73
     4
 74
     0
 42
0.0000000001
 43
0.0000000001
 40
0.0
 40
0.0
 40
0.0
 40
0.0
 40
1.0
 40
1.0
 40
1.0
 40
1.0
 10
66.604399999999998
 20
412.17720000000003
 30
0.0
 10
66.604399999999998
 20
412.17720000000003
 30
0.0
 10
73.755200000000002
 20
412.17720000000003
 30
0.0
 10
73.755200000000002
 20
412.17720000000003
 30
0.0
  0
SPLINE
  5
108
100
AcDbEntity
  8
P
100
AcDbSpline
210
0.0
220
0.0
230
1.0
 70
     0
 71
     3
 72
     8
 73
     4
 74
     0
 42
0.0000000001
 43
0.0000000001
 40
0.0
 40
0.0
 40
0.0
 40
0.0
 40
1.0
 40
1.0
 40
1.0
 40
1.0
 10
73.755200000000002
 20
412.17720000000003
 30
0.0
 10
73.755200000000002
 20
412.17720000000003
 30
0.0
 10
73.755200000000002
 20
409.39940000000001
 30
0.0
 10
73.755200000000002
 20
409.39940000000001
 30
0.0
  0
SPLINE
  5
109
100
AcDbEntity
  8
P
100
AcDbSpline
210
0.0
220
0.0
230
1.0
 70
     0
 71
     3
 72
     8
 73
     4
 74
     0
 42
0.0000000001
 43
0.0000000001
 40
0.0
 40
0.0
 40
0.0
 40
0.0
 40
1.0
 40
1.0
 40
1.0
 40
1.0
 10
73.755200000000002
 20
409.39940000000001
 30
0.0
 10
73.755200000000002
 20
409.39940000000001
 30
0.0
 10
80.906400000000005
 20
409.39940000000001
 30
0.0
 10
80.906400000000005
 20
409.39940000000001
 30
0.0
  0
SPLINE
  5
10A
100
AcDbEntity
  8
P
100
AcDbSpline
210
0.0
220
0.0
230
1.0
 70
     0
 71
     3
 72
     8
 73
     4
 74
     0
 42
0.0000000001
 43
0.0000000001
 40
0.0
 40
0.0
 40
0.0
 40
0.0
 40
1.0
 40
1.0
 40
1.0
 40
1.0
 10
80.906400000000005
 20
412.17720000000003
 30
0.0
 10
80.906400000000005
 20
412.17720000000003
 30
0.0
 10
80.906400000000005
 20
409.39940000000001
 30
0.0
 10
80.906400000000005
 20
409.39940000000001
 30
0.0
  0
SPLINE
  5
10B
100
AcDbEntity
  8
P
100
AcDbSpline
210
0.0
220
0.0
230
1.0
 70
     0
 71
     3
 72
     8
 73
     4
 74
     0
 42
0.0000000001
 43
0.0000000001
 40
0.0
 40
0.0
 40
0.0
 40
0.0
 40
1.0
 40
1.0
 40
1.0
 40
1.0
 10
80.906400000000005
 20
412.17720000000003
 30
0.0
 10
80.906400000000005
 20
412.17720000000003
 30
0.0
 10
88.116900000000001
 20
412.17720000000003
 30
0.0
 10
88.116900000000001
 20
412.17720000000003
 30
0.0
  0
SPLINE
  5
10C
100
AcDbEntity
  8
P
100
AcDbSpline
210
0.0
220
0.0
230
1.0
 70
     0
 71
     3
 72
     8
 73
     4
 74
     0
 42
0.0000000001
 43
0.0000000001
 40
0.0
 40
0.0
 40
0.0
 40
0.0
 40
1.0
 40
1.0
 40
1.0
 40
1.0
 10
88.116900000000001
 20
412.17720000000003
 30
0.0
 10
88.116900000000001
 20
412.17720000000003
 30
0.0
 10
88.116900000000001
 20
409.39940000000001
 30
0.0
 10
88.116900000000001
 20
409.39940000000001
 30
0.0
  0
SPLINE
  5
10D
100
AcDbEntity
  8
P
100
AcDbSpline
210
0.0
220
0.0
230
1.0
 70
     0
 71
     3
 72
     8
 73
     4
 74
     0
 42
0.0000000001
 43
0.0000000001
 40
0.0
 40
0.0
 40
0.0
 40
0.0
 40
1.0
 40
1.0
 40
1.0
 40
1.0
 10
88.116900000000001
 20
409.39940000000001
 30
0.0
 10
88.116900000000001
 20
409.39940000000001
 30
0.0
 10
95.267799999999994
 20
409.39940000000001
 30
0.0
 10
95.267799999999994
 20
409.39940000000001
 30
0.0
  0
SPLINE
  5
10E
100
AcDbEntity
  8
P
100
AcDbSpline
210
0.0
220
0.0
230
1.0
 70
     0
 71
     3
 72
     8
 73
     4
 74
     0
 42
0.0000000001
 43
0.0000000001
 40
0.0
 40
0.0
 40
0.0
 40
0.0
 40
1.0
 40
1.0
 40
1.0
 40
1.0
 10
95.267799999999994
 20
412.17720000000003
 30
0.0
 10
95.267799999999994
 20
412.17720000000003
 30
0.0
 10
95.267799999999994
 20
409.39940000000001
 30
0.0
 10
95.267799999999994
 20
409.39940000000001
 30
0.0
  0
SPLINE
  5
10F
100
AcDbEntity
  8
P
100
AcDbSpline
210
0.0
220
0.0
230
1.0
 70
     0
 71
     3
 72
     8
 73
     4
 74
     0
 42
0.0000000001
 43
0.0000000001
 40
0.0
 40
0.0
 40
0.0
 40
0.0
 40
1.0
 40
1.0
 40
1.0
 40
1.0
 10
95.267799999999994
 20
412.17720000000003
 30
0.0
 10
95.267799999999994
 20
412.17720000000003
 30
0.0
 10
99.641800000000003
 20
412.17720000000003
 30
0.0
 10
99.641800000000003
 20
412.17720000000003
 30
0.0
  0
SPLINE
  5
110
100
AcDbEntity
  8
P
100
AcDbSpline
210
0.0
220
0.0
230
1.0
 70
     0
 71
     3
 72
     8
 73
     4
 74
     0
 42
0.0000000001
 43
0.0000000001
 40
0.0
 40
0.0
 40
0.0
 40
0.0
 40
1.0
 40
1.0
 40
1.0
 40
1.0
 10
52.242199999999997
 20
361.94069999999999
 30
0.0
 10
52.242199999999997
 20
361.94069999999999
 30
0.0
 10
52.242199999999997
 20
369.15109999999999
 30
0.0
 10
52.242199999999997
 20
369.15109999999999
 30
0.0
  0
SPLINE
  5
111
100
AcDbEntity
  8
P
100
AcDbSpline
210
0.0
220
0.0
230
1.0
 70
     0
 71
     3
 72
     8
 73
     4
 74
     0
 42
0.0000000001
 43
0.0000000001
 40
0.0
 40
0.0
 40
0.0
 40
0.0
 40
1.0
 40
1.0
 40
1.0
 40
1.0
 10
55.019799999999996
 20
369.15109999999999
 30
0.0
 10
55.019799999999996
 20
369.15109999999999
 30
0.0
 10
52.242199999999997
 20
369.15109999999999
 30
0.0
 10
52.242199999999997
 20
369.15109999999999
 30
0.0
  0
SPLINE
  5
112
100
AcDbEntity
  8
P
100
AcDbSpline
210
0.0
220
0.0
230
1.0
 70
     0
 71
     3
 72
     8
 73
     4
 74
     0
 42
0.0000000001
 43
0.0000000001
 40
0.0
 40
0.0
 40
0.0
 40
0.0
 40
1.0
 40
1.0
 40
1.0
 40
1.0
 10
55.019799999999996
 20
369.15109999999999
 30
0.0
 10
55.019799999999996
 20
369.15109999999999
 30
0.0
 10
55.019799999999996
 20
376.30189999999999
 30
0.0
 10
55.019799999999996
 20
376.30189999999999
 30
0.0
  0
SPLINE
  5
113
100
AcDbEntity
  8
P
100
AcDbSpline
210
0.0
220
0.0
230
1.0
 70
     0
 71
     3
 72
     8
 73
     4
 74
     0
 42
0.0000000001
 43
0.0000000001
 40
0.0
 40
0.0
 40
0.0
 40
0.0
 40
1.0
 40
1.0
 40
1.0
 40
1.0
 10
55.019799999999996
 20
376.30189999999999
 30
0.0
 10
55.019799999999996
 20
376.30189999999999
 30
0.0
 10
52.242199999999997
 20
376.30189999999999
 30
0.0
 10
52.242199999999997
 20
376.30189999999999
 30
0.0
  0
SPLINE
  5
114
100
AcDbEntity
  8
P
100
AcDbSpline
210
0.0
220
0.0
230
1.0
 70
     0
 71
     3
 72
     8
 73
     4
 74
     0
 42
0.0000000001
 43
0.0000000001
 40
0.0
 40
0.0
 40
0.0
 40
0.0
 40
1.0
 40
1.0
 40
1.0
 40
1.0
 10
52.242199999999997
 20
376.30189999999999
 30
0.0
 10
52.242199999999997
 20
376.30189999999999
 30
0.0
 10
52.242199999999997
 20
383.51319999999998
 30
0.0
 10
52.242199999999997
 20
383.51319999999998
 30
0.0
  0
SPLINE
  5
115
100
AcDbEntity
  8
P
100
AcDbSpline
210
0.0
220
0.0
230
1.0
 70
     0
 71
     3
 72
     8
 73
     4
 74
     0
 42
0.0000000001
 43
0.0000000001
 40
0.0
 40
0.0
 40
0.0
 40
0.0
 40
1.0
 40
1.0
 40
1.0
 40
1.0
 10
55.019799999999996
 20
383.51319999999998
 30
0.0
 10
55.019799999999996
 20
383.51319999999998
 30
0.0
 10
52.242199999999997
 20
383.51319999999998
 30
0.0
 10
52.242199999999997
 20
383.51319999999998
 30
0.0
  0
SPLINE
  5
116
100
AcDbEntity
  8
P
100
AcDbSpline
210
0.0
220
0.0
230
1.0
 70
     0
 71
     3
 72
     8
 73
     4
 74
     0
 42
0.0000000001
 43
0.0000000001
 40
0.0
 40
0.0
 40
0.0
 40
0.0
 40
1.0
 40
1.0
 40
1.0
 40
1.0
 10
55.019799999999996
 20
383.51319999999998
 30
0.0
 10
55.019799999999996
 20
383.51319999999998
 30
0.0
 10
55.019799999999996
 20
390.66370000000001
 30
0.0
 10
55.019799999999996
 20
390.66370000000001
 30
0.0
  0
SPLINE
  5
117
100
AcDbEntity
  8
P
100
AcDbSpline
210
0.0
220
0.0
230
1.0
 70
     0
 71
     3
 72
     8
 73
     4
 74
     0
 42
0.0000000001
 43
0.0000000001
 40
0.0
 40
0.0
 40
0.0
 40
0.0
 40
1.0
 40
1.0
 40
1.0
 40
1.0
 10
55.019799999999996
 20
390.66370000000001
 30
0.0
 10
55.019799999999996
 20
390.66370000000001
 30
0.0
 10
52.242199999999997
 20
390.66370000000001
 30
0.0
 10
52.242199999999997
 20
390.66370000000001
 30
0.0
  0
SPLINE
  5
118
100
AcDbEntity
  8
P
100
AcDbSpline
210
0.0
220
0.0
230
1.0
 70
     0
 71
     3
 72
     8
 73
     4
 74
     0
 42
0.0000000001
 43
0.0000000001
 40
0.0
 40
0.0
 40
0.0
 40
0.0
 40
1.0
 40
1.0
 40
1.0
 40
1.0
 10
52.242199999999997
 20
390.66370000000001
 30
0.0
 10
52.242199999999997
 20
390.66370000000001
 30
0.0
 10
52.242199999999997
 20
397.81529999999998
 30
0.0
 10
52.242199999999997
 20
397.81529999999998
 30
0.0
  0
SPLINE
  5
119
100
AcDbEntity
  8
P
100
AcDbSpline
210
0.0
220
0.0
230
1.0
 70
     0
 71
     3
 72
     8
 73
     4
 74
     0
 42
0.0000000001
 43
0.0000000001
 40
0.0
 40
0.0
 40
0.0
 40
0.0
 40
1.0
 40
1.0
 40
1.0
 40
1.0
 10
55.019799999999996
 20
397.81529999999998
 30
0.0
 10
55.019799999999996
 20
397.81529999999998
 30
0.0
 10
52.242199999999997
 20
397.81529999999998
 30
0.0
 10
52.242199999999997
 20
397.81529999999998
 30
0.0
  0
SPLINE
  5
11A
100
AcDbEntity
  8
P
100
AcDbSpline
210
0.0
220
0.0
230
1.0
 70
     0
 71
     3
 72
     8
 73
     4
 74
     0
 42
0.0000000001
 43
0.0000000001
 40
0.0
 40
0.0
 40
0.0
 40
0.0
 40
1.0
 40
1.0
 40
1.0
 40
1.0
 10
55.019799999999996
 20
397.81529999999998
 30
0.0
 10
55.019799999999996
 20
397.81529999999998
 30
0.0
 10
55.019799999999996
 20
405.0258
 30
0.0
 10
55.019799999999996
 20
405.0258
 30
0.0
  0
SPLINE
  5
11B
100
AcDbEntity
  8
P
100
AcDbSpline
210
0.0
220
0.0
230
1.0
 70
     0
 71
     3
 72
     8
 73
     4
 74
     0
 42
0.0000000001
 43
0.0000000001
 40
0.0
 40
0.0
 40
0.0
 40
0.0
 40
1.0
 40
1.0
 40
1.0
 40
1.0
 10
55.019799999999996
 20
405.0258
 30
0.0
 10
55.019799999999996
 20
405.0258
 30
0.0
 10
52.242199999999997
 20
405.0258
 30
0.0
 10
52.242199999999997
 20
405.0258
 30
0.0
  0
SPLINE
  5
11C
100
AcDbEntity
  8
P
100
AcDbSpline
210
0.0
220
0.0
230
1.0
 70
     0
 71
     3
 72
     8
 73
     4
 74
     0
 42
0.0000000001
 43
0.0000000001
 40
0.0
 40
0.0
 40
0.0
 40
0.0
 40
1.0
 40
1.0
 40
1.0
 40
1.0
 10
52.242199999999997
 20
405.0258
 30
0.0
 10
52.242199999999997
 20
405.0258
 30
0.0
 10
52.242199999999997
 20
412.17720000000003
 30
0.0
 10
52.242199999999997
 20
412.17720000000003
 30
0.0
  0
SPLINE
  5
11D
100
AcDbEntity
  8
P
100
AcDbSpline
210
0.0
220
0.0
230
1.0
 70
     0
 71
     3
 72
     8
 73
     4
 74
     0
 42
0.0000000001
 43
0.0000000001
 40
0.0
 40
0.0
 40
0.0
 40
0.0
 40
1.0
 40
1.0
 40
1.0
 40
1.0
 10
99.641800000000003
 20
361.94069999999999
 30
0.0
 10
99.641800000000003
 20
361.94069999999999
 30
0.0
 10
99.641800000000003
 20
369.15109999999999
 30
0.0
 10
99.641800000000003
 20
369.15109999999999
 30
0.0
  0
SPLINE
  5
11E
100
AcDbEntity
  8
P
100
AcDbSpline
210
0.0
220
0.0
230
1.0
 70
     0
 71
     3
 72
     8
 73
     4
 74
     0
 42
0.0000000001
 43
0.0000000001
 40
0.0
 40
0.0
 40
0.0
 40
0.0
 40
1.0
 40
1.0
 40
1.0
 40
1.0
 10
102.4787
 20
369.15109999999999
 30
0.0
 10
102.4787
 20
369.15109999999999
 30
0.0
 10
99.641800000000003
 20
369.15109999999999
 30
0.0
 10
99.641800000000003
 20
369.15109999999999
 30
0.0
  0
SPLINE
  5
11F
100
AcDbEntity
  8
P
100
AcDbSpline
210
0.0
220
0.0
230
1.0
 70
     0
 71
     3
 72
     8
 73
     4
 74
     0
 42
0.0000000001
 43
0.0000000001
 40
0.0
 40
0.0
 40
0.0
 40
0.0
 40
1.0
 40
1.0
 40
1.0
 40
1.0
 10
102.4787
 20
369.15109999999999
 30
0.0
 10
102.4787
 20
369.15109999999999
 30
0.0
 10
102.4787
 20
376.30189999999999
 30
0.0
 10
102.4787
 20
376.30189999999999
 30
0.0
  0
SPLINE
  5
120
100
AcDbEntity
  8
P
100
AcDbSpline
210
0.0
220
0.0
230
1.0
 70
     0
 71
     3
 72
     8
 73
     4
 74
     0
 42
0.0000000001
 43
0.0000000001
 40
0.0
 40
0.0
 40
0.0
 40
0.0
 40
1.0
 40
1.0
 40
1.0
 40
1.0
 10
102.4787
 20
376.30189999999999
 30
0.0
 10
102.4787
 20
376.30189999999999
 30
0.0
 10
99.641800000000003
 20
376.30189999999999
 30
0.0
 10
99.641800000000003
 20
376.30189999999999
 30
0.0
  0
SPLINE
  5
121
100
AcDbEntity
  8
P
100
AcDbSpline
210
0.0
220
0.0
230
1.0
 70
     0
 71
     3
 72
     8
 73
     4
 74
     0
 42
0.0000000001
 43
0.0000000001
 40
0.0
 40
0.0
 40
0.0
 40
0.0
 40
1.0
 40
1.0
 40
1.0
 40
1.0
 10
99.641800000000003
 20
376.30189999999999
 30
0.0
 10
99.641800000000003
 20
376.30189999999999
 30
0.0
 10
99.641800000000003
 20
383.51319999999998
 30
0.0
 10
99.641800000000003
 20
383.51319999999998
 30
0.0
  0
SPLINE
  5
122
100
AcDbEntity
  8
P
100
AcDbSpline
210
0.0
220
0.0
230
1.0
 70
     0
 71
     3
 72
     8
 73
     4
 74
     0
 42
0.0000000001
 43
0.0000000001
 40
0.0
 40
0.0
 40
0.0
 40
0.0
 40
1.0
 40
1.0
 40
1.0
 40
1.0
 10
102.4787
 20
383.51319999999998
 30
0.0
 10
102.4787
 20
383.51319999999998
 30
0.0
 10
99.641800000000003
 20
383.51319999999998
 30
0.0
 10
99.641800000000003
 20
383.51319999999998
 30
0.0
  0
SPLINE
  5
123
100
AcDbEntity
  8
P
100
AcDbSpline
210
0.0
220
0.0
230
1.0
 70
     0
 71
     3
 72
     8
 73
     4
 74
     0
 42
0.0000000001
 43
0.0000000001
 40
0.0
 40
0.0
 40
0.0
 40
0.0
 40
1.0
 40
1.0
 40
1.0
 40
1.0
 10
102.4787
 20
383.51319999999998
 30
0.0
 10
102.4787
 20
383.51319999999998
 30
0.0
 10
102.4787
 20
390.66370000000001
 30
0.0
 10
102.4787
 20
390.66370000000001
 30
0.0
  0
SPLINE
  5
124
100
AcDbEntity
  8
P
100
AcDbSpline
210
0.0
220
0.0
230
1.0
 70
     0
 71
     3
 72
     8
 73
     4
 74
     0
 42
0.0000000001
 43
0.0000000001
 40
0.0
 40
0.0
 40
0.0
 40
0.0
 40
1.0
 40
1.0
 40
1.0
 40
1.0
 10
102.4787
 20
390.66370000000001
 30
0.0
 10
102.4787
 20
390.66370000000001
 30
0.0
 10
99.641800000000003
 20
390.66370000000001
 30
0.0
 10
99.641800000000003
 20
390.66370000000001
 30
0.0
  0
SPLINE
  5
125
100
AcDbEntity
  8
P
100
AcDbSpline
210
0.0
220
0.0
230
1.0
 70
     0
 71
     3
 72
     8
 73
     4
 74
     0
 42
0.0000000001
 43
0.0000000001
 40
0.0
 40
0.0
 40
0.0
 40
0.0
 40
1.0
 40
1.0
 40
1.0
 40
1.0
 10
99.641800000000003
 20
390.66370000000001
 30
0.0
 10
99.641800000000003
 20
390.66370000000001
 30
0.0
 10
99.641800000000003
 20
397.81529999999998
 30
0.0
 10
99.641800000000003
 20
397.81529999999998
 30
0.0
  0
SPLINE
  5
126
100
AcDbEntity
  8
P
100
AcDbSpline
210
0.0
220
0.0
230
1.0
 70
     0
 71
     3
 72
     8
 73
     4
 74
     0
 42
0.0000000001
 43
0.0000000001
 40
0.0
 40
0.0
 40
0.0
 40
0.0
 40
1.0
 40
1.0
 40
1.0
 40
1.0
 10
102.4787
 20
397.81529999999998
 30
0.0
 10
102.4787
 20
397.81529999999998
 30
0.0
 10
99.641800000000003
 20
397.81529999999998
 30
0.0
 10
99.641800000000003
 20
397.81529999999998
 30
0.0
  0
SPLINE
  5
127
100
AcDbEntity
  8
P
100
AcDbSpline
210
0.0
220
0.0
230
1.0
 70
     0
 71
     3
 72
     8
 73
     4
 74
     0
 42
0.0000000001
 43
0.0000000001
 40
0.0
 40
0.0
 40
0.0
 40
0.0
 40
1.0
 40
1.0
 40
1.0
 40
1.0
 10
102.4787
 20
397.81529999999998
 30
0.0
 10
102.4787
 20
397.81529999999998
 30
0.0
 10
102.4787
 20
405.0258
 30
0.0
 10
102.4787
 20
405.0258
 30
0.0
  0
SPLINE
  5
128
100
AcDbEntity
  8
P
100
AcDbSpline
210
0.0
220
0.0
230
1.0
 70
     0
 71
     3
 72
     8
 73
     4
 74
     0
 42
0.0000000001
 43
0.0000000001
 40
0.0
 40
0.0
 40
0.0
 40
0.0
 40
1.0
 40
1.0
 40
1.0
 40
1.0
 10
102.4787
 20
405.0258
 30
0.0
 10
102.4787
 20
405.0258
 30
0.0
 10
99.641800000000003
 20
405.0258
 30
0.0
 10
99.641800000000003
 20
405.0258
 30
0.0
  0
SPLINE
  5
129
100
AcDbEntity
  8
P
100
AcDbSpline
210
0.0
220
0.0
230
1.0
 70
     0
 71
     3
 72
     8
 73
     4
 74
     0
 42
0.0000000001
 43
0.0000000001
 40
0.0
 40
0.0
 40
0.0
 40
0.0
 40
1.0
 40
1.0
 40
1.0
 40
1.0
 10
99.641800000000003
 20
405.0258
 30
0.0
 10
99.641800000000003
 20
405.0258
 30
0.0
 10
99.641800000000003
 20
412.17720000000003
 30
0.0
 10
99.641800000000003
 20
412.17720000000003
 30
0.0
  0
SPLINE
  5
12A
100
AcDbEntity
  8
P
100
AcDbSpline
210
0.0
220
0.0
230
1.0
 70
     0
 71
     3
 72
     8
 73
     4
 74
     0
 42
0.0000000001
 43
0.0000000001
 40
0.0
 40
0.0
 40
0.0
 40
0.0
 40
1.0
 40
1.0
 40
1.0
 40
1.0
 10
109.1135
 20
364.2706
 30
0.0
 10
109.1135
 20
364.2706
 30
0.0
 10
113.4871
 20
364.2706
 30
0.0
 10
113.4871
 20
364.2706
 30
0.0
  0
SPLINE
  5
12B
100
AcDbEntity
  8
P
100
AcDbSpline
210
0.0
220
0.0
230
1.0
 70
     0
 71
     3
 72
     8
 73
     4
 74
     0
 42
0.0000000001
 43
0.0000000001
 40
0.0
 40
0.0
 40
0.0
 40
0.0
 40
1.0
 40
1.0
 40
1.0
 40
1.0
 10
113.4871
 20
364.2706
 30
0.0
 10
113.4871
 20
364.2706
 30
0.0
 10
113.4871
 20
361.49299999999999
 30
0.0
 10
113.4871
 20
361.49299999999999
 30
0.0
  0
SPLINE
  5
12C
100
AcDbEntity
  8
P
100
AcDbSpline
210
0.0
220
0.0
230
1.0
 70
     0
 71
     3
 72
     8
 73
     4
 74
     0
 42
0.0000000001
 43
0.0000000001
 40
0.0
 40
0.0
 40
0.0
 40
0.0
 40
1.0
 40
1.0
 40
1.0
 40
1.0
 10
113.4871
 20
361.49299999999999
 30
0.0
 10
113.4871
 20
361.49299999999999
 30
0.0
 10
120.69759999999999
 20
361.49299999999999
 30
0.0
 10
120.69759999999999
 20
361.49299999999999
 30
0.0
  0
SPLINE
  5
12D
100
AcDbEntity
  8
P
100
AcDbSpline
210
0.0
220
0.0
230
1.0
 70
     0
 71
     3
 72
     8
 73
     4
 74
     0
 42
0.0000000001
 43
0.0000000001
 40
0.0
 40
0.0
 40
0.0
 40
0.0
 40
1.0
 40
1.0
 40
1.0
 40
1.0
 10
120.69759999999999
 20
364.2706
 30
0.0
 10
120.69759999999999
 20
364.2706
 30
0.0
 10
120.69759999999999
 20
361.49299999999999
 30
0.0
 10
120.69759999999999
 20
361.49299999999999
 30
0.0
  0
SPLINE
  5
12E
100
AcDbEntity
  8
P
100
AcDbSpline
210
0.0
220
0.0
230
1.0
 70
     0
 71
     3
 72
     8
 73
     4
 74
     0
 42
0.0000000001
 43
0.0000000001
 40
0.0
 40
0.0
 40
0.0
 40
0.0
 40
1.0
 40
1.0
 40
1.0
 40
1.0
 10
120.69759999999999
 20
364.2706
 30
0.0
 10
120.69759999999999
 20
364.2706
 30
0.0
 10
127.849
 20
364.2706
 30
0.0
 10
127.849
 20
364.2706
 30
0.0
  0
SPLINE
  5
12F
100
AcDbEntity
  8
P
100
AcDbSpline
210
0.0
220
0.0
230
1.0
 70
     0
 71
     3
 72
     8
 73
     4
 74
     0
 42
0.0000000001
 43
0.0000000001
 40
0.0
 40
0.0
 40
0.0
 40
0.0
 40
1.0
 40
1.0
 40
1.0
 40
1.0
 10
127.849
 20
364.2706
 30
0.0
 10
127.849
 20
364.2706
 30
0.0
 10
127.849
 20
361.49299999999999
 30
0.0
 10
127.849
 20
361.49299999999999
 30
0.0
  0
SPLINE
  5
130
100
AcDbEntity
  8
P
100
AcDbSpline
210
0.0
220
0.0
230
1.0
 70
     0
 71
     3
 72
     8
 73
     4
 74
     0
 42
0.0000000001
 43
0.0000000001
 40
0.0
 40
0.0
 40
0.0
 40
0.0
 40
1.0
 40
1.0
 40
1.0
 40
1.0
 10
127.849
 20
361.49299999999999
 30
0.0
 10
127.849
 20
361.49299999999999
 30
0.0
 10
135.00040000000001
 20
361.49299999999999
 30
0.0
 10
135.00040000000001
 20
361.49299999999999
 30
0.0
  0
SPLINE
  5
131
100
AcDbEntity
  8
P
100
AcDbSpline
210
0.0
220
0.0
230
1.0
 70
     0
 71
     3
 72
     8
 73
     4
 74
     0
 42
0.0000000001
 43
0.0000000001
 40
0.0
 40
0.0
 40
0.0
 40
0.0
 40
1.0
 40
1.0
 40
1.0
 40
1.0
 10
135.00040000000001
 20
364.2706
 30
0.0
 10
135.00040000000001
 20
364.2706
 30
0.0
 10
135.00040000000001
 20
361.49299999999999
 30
0.0
 10
135.00040000000001
 20
361.49299999999999
 30
0.0
  0
SPLINE
  5
132
100
AcDbEntity
  8
P
100
AcDbSpline
210
0.0
220
0.0
230
1.0
 70
     0
 71
     3
 72
     8
 73
     4
 74
     0
 42
0.0000000001
 43
0.0000000001
 40
0.0
 40
0.0
 40
0.0
 40
0.0
 40
1.0
 40
1.0
 40
1.0
 40
1.0
 10
135.00040000000001
 20
364.2706
 30
0.0
 10
135.00040000000001
 20
364.2706
 30
0.0
 10
142.21080000000001
 20
364.2706
 30
0.0
 10
142.21080000000001
 20
364.2706
 30
0.0
  0
SPLINE
  5
133
100
AcDbEntity
  8
P
100
AcDbSpline
210
0.0
220
0.0
230
1.0
 70
     0
 71
     3
 72
     8
 73
     4
 74
     0
 42
0.0000000001
 43
0.0000000001
 40
0.0
 40
0.0
 40
0.0
 40
0.0
 40
1.0
 40
1.0
 40
1.0
 40
1.0
 10
142.21080000000001
 20
364.2706
 30
0.0
 10
142.21080000000001
 20
364.2706
 30
0.0
 10
142.21080000000001
 20
361.49299999999999
 30
0.0
 10
142.21080000000001
 20
361.49299999999999
 30
0.0
  0
SPLINE
  5
134
100
AcDbEntity
  8
P
100
AcDbSpline
210
0.0
220
0.0
230
1.0
 70
     0
 71
     3
 72
     8
 73
     4
 74
     0
 42
0.0000000001
 43
0.0000000001
 40
0.0
 40
0.0
 40
0.0
 40
0.0
 40
1.0
 40
1.0
 40
1.0
 40
1.0
 10
142.21080000000001
 20
361.49299999999999
 30
0.0
 10
142.21080000000001
 20
361.49299999999999
 30
0.0
 10
149.36170000000001
 20
361.49299999999999
 30
0.0
 10
149.36170000000001
 20
361.49299999999999
 30
0.0
  0
SPLINE
  5
135
100
AcDbEntity
  8
P
100
AcDbSpline
210
0.0
220
0.0
230
1.0
 70
     0
 71
     3
 72
     8
 73
     4
 74
     0
 42
0.0000000001
 43
0.0000000001
 40
0.0
 40
0.0
 40
0.0
 40
0.0
 40
1.0
 40
1.0
 40
1.0
 40
1.0
 10
149.36170000000001
 20
364.2706
 30
0.0
 10
149.36170000000001
 20
364.2706
 30
0.0
 10
149.36170000000001
 20
361.49299999999999
 30
0.0
 10
149.36170000000001
 20
361.49299999999999
 30
0.0
  0
SPLINE
  5
136
100
AcDbEntity
  8
P
100
AcDbSpline
210
0.0
220
0.0
230
1.0
 70
     0
 71
     3
 72
     8
 73
     4
 74
     0
 42
0.0000000001
 43
0.0000000001
 40
0.0
 40
0.0
 40
0.0
 40
0.0
 40
1.0
 40
1.0
 40
1.0
 40
1.0
 10
149.36170000000001
 20
364.2706
 30
0.0
 10
149.36170000000001
 20
364.2706
 30
0.0
 10
153.73589999999999
 20
364.2706
 30
0.0
 10
153.73589999999999
 20
364.2706
 30
0.0
  0
SPLINE
  5
137
100
AcDbEntity
  8
P
100
AcDbSpline
210
0.0
220
0.0
230
1.0
 70
     0
 71
     3
 72
     8
 73
     4
 74
     0
 42
0.0000000001
 43
0.0000000001
 40
0.0
 40
0.0
 40
0.0
 40
0.0
 40
1.0
 40
1.0
 40
1.0
 40
1.0
 10
109.1135
 20
408.89229999999998
 30
0.0
 10
109.1135
 20
408.89229999999998
 30
0.0
 10
113.4871
 20
408.89229999999998
 30
0.0
 10
113.4871
 20
408.89229999999998
 30
0.0
  0
SPLINE
  5
138
100
AcDbEntity
  8
P
100
AcDbSpline
210
0.0
220
0.0
230
1.0
 70
     0
 71
     3
 72
     8
 73
     4
 74
     0
 42
0.0000000001
 43
0.0000000001
 40
0.0
 40
0.0
 40
0.0
 40
0.0
 40
1.0
 40
1.0
 40
1.0
 40
1.0
 10
113.4871
 20
411.72890000000001
 30
0.0
 10
113.4871
 20
411.72890000000001
 30
0.0
 10
113.4871
 20
408.89229999999998
 30
0.0
 10
113.4871
 20
408.89229999999998
 30
0.0
  0
SPLINE
  5
139
100
AcDbEntity
  8
P
100
AcDbSpline
210
0.0
220
0.0
230
1.0
 70
     0
 71
     3
 72
     8
 73
     4
 74
     0
 42
0.0000000001
 43
0.0000000001
 40
0.0
 40
0.0
 40
0.0
 40
0.0
 40
1.0
 40
1.0
 40
1.0
 40
1.0
 10
113.4871
 20
411.72890000000001
 30
0.0
 10
113.4871
 20
411.72890000000001
 30
0.0
 10
120.69759999999999
 20
411.72890000000001
 30
0.0
 10
120.69759999999999
 20
411.72890000000001
 30
0.0
  0
SPLINE
  5
13A
100
AcDbEntity
  8
P
100
AcDbSpline
210
0.0
220
0.0
230
1.0
 70
     0
 71
     3
 72
     8
 73
     4
 74
     0
 42
0.0000000001
 43
0.0000000001
 40
0.0
 40
0.0
 40
0.0
 40
0.0
 40
1.0
 40
1.0
 40
1.0
 40
1.0
 10
120.69759999999999
 20
411.72890000000001
 30
0.0
 10
120.69759999999999
 20
411.72890000000001
 30
0.0
 10
120.69759999999999
 20
408.89229999999998
 30
0.0
 10
120.69759999999999
 20
408.89229999999998
 30
0.0
  0
SPLINE
  5
13B
100
AcDbEntity
  8
P
100
AcDbSpline
210
0.0
220
0.0
230
1.0
 70
     0
 71
     3
 72
     8
 73
     4
 74
     0
 42
0.0000000001
 43
0.0000000001
 40
0.0
 40
0.0
 40
0.0
 40
0.0
 40
1.0
 40
1.0
 40
1.0
 40
1.0
 10
120.69759999999999
 20
408.89229999999998
 30
0.0
 10
120.69759999999999
 20
408.89229999999998
 30
0.0
 10
127.849
 20
408.89229999999998
 30
0.0
 10
127.849
 20
408.89229999999998
 30
0.0
  0
SPLINE
  5
13C
100
AcDbEntity
  8
P
100
AcDbSpline
210
0.0
220
0.0
230
1.0
 70
     0
 71
     3
 72
     8
 73
     4
 74
     0
 42
0.0000000001
 43
0.0000000001
 40
0.0
 40
0.0
 40
0.0
 40
0.0
 40
1.0
 40
1.0
 40
1.0
 40
1.0
 10
127.849
 20
411.72890000000001
 30
0.0
 10
127.849
 20
411.72890000000001
 30
0.0
 10
127.849
 20
408.89229999999998
 30
0.0
 10
127.849
 20
408.89229999999998
 30
0.0
  0
SPLINE
  5
13D
100
AcDbEntity
  8
P
100
AcDbSpline
210
0.0
220
0.0
230
1.0
 70
     0
 71
     3
 72
     8
 73
     4
 74
     0
 42
0.0000000001
 43
0.0000000001
 40
0.0
 40
0.0
 40
0.0
 40
0.0
 40
1.0
 40
1.0
 40
1.0
 40
1.0
 10
127.849
 20
411.72890000000001
 30
0.0
 10
127.849
 20
411.72890000000001
 30
0.0
 10
135.00040000000001
 20
411.72890000000001
 30
0.0
 10
135.00040000000001
 20
411.72890000000001
 30
0.0
  0
SPLINE
  5
13E
100
AcDbEntity
  8
P
100
AcDbSpline
210
0.0
220
0.0
230
1.0
 70
     0
 71
     3
 72
     8
 73
     4
 74
     0
 42
0.0000000001
 43
0.0000000001
 40
0.0
 40
0.0
 40
0.0
 40
0.0
 40
1.0
 40
1.0
 40
1.0
 40
1.0
 10
135.00040000000001
 20
411.72890000000001
 30
0.0
 10
135.00040000000001
 20
411.72890000000001
 30
0.0
 10
135.00040000000001
 20
408.89229999999998
 30
0.0
 10
135.00040000000001
 20
408.89229999999998
 30
0.0
  0
SPLINE
  5
13F
100
AcDbEntity
  8
P
100
AcDbSpline
210
0.0
220
0.0
230
1.0
 70
     0
 71
     3
 72
     8
 73
     4
 74
     0
 42
0.0000000001
 43
0.0000000001
 40
0.0
 40
0.0
 40
0.0
 40
0.0
 40
1.0
 40
1.0
 40
1.0
 40
1.0
 10
135.00040000000001
 20
408.89229999999998
 30
0.0
 10
135.00040000000001
 20
408.89229999999998
 30
0.0
 10
142.21080000000001
 20
408.89229999999998
 30
0.0
 10
142.21080000000001
 20
408.89229999999998
 30
0.0
  0
SPLINE
  5
140
100
AcDbEntity
  8
P
100
AcDbSpline
210
0.0
220
0.0
230
1.0
 70
     0
 71
     3
 72
     8
 73
     4
 74
     0
 42
0.0000000001
 43
0.0000000001
 40
0.0
 40
0.0
 40
0.0
 40
0.0
 40
1.0
 40
1.0
 40
1.0
 40
1.0
 10
142.21080000000001
 20
411.72890000000001
 30
0.0
 10
142.21080000000001
 20
411.72890000000001
 30
0.0
 10
142.21080000000001
 20
408.89229999999998
 30
0.0
 10
142.21080000000001
 20
408.89229999999998
 30
0.0
  0
SPLINE
  5
141
100
AcDbEntity
  8
P
100
AcDbSpline
210
0.0
220
0.0
230
1.0
 70
     0
 71
     3
 72
     8
 73
     4
 74
     0
 42
0.0000000001
 43
0.0000000001
 40
0.0
 40
0.0
 40
0.0
 40
0.0
 40
1.0
 40
1.0
 40
1.0
 40
1.0
 10
142.21080000000001
 20
411.72890000000001
 30
0.0
 10
142.21080000000001
 20
411.72890000000001
 30
0.0
 10
149.36170000000001
 20
411.72890000000001
 30
0.0
 10
149.36170000000001
 20
411.72890000000001
 30
0.0
  0
SPLINE
  5
142
100
AcDbEntity
  8
P
100
AcDbSpline
210
0.0
220
0.0
230
1.0
 70
     0
 71
     3
 72
     8
 73
     4
 74
     0
 42
0.0000000001
 43
0.0000000001
 40
0.0
 40
0.0
 40
0.0
 40
0.0
 40
1.0
 40
1.0
 40
1.0
 40
1.0
 10
149.36170000000001
 20
411.72890000000001
 30
0.0
 10
149.36170000000001
 20
411.72890000000001
 30
0.0
 10
149.36170000000001
 20
408.89229999999998
 30
0.0
 10
149.36170000000001
 20
408.89229999999998
 30
0.0
  0
SPLINE
  5
143
100
AcDbEntity
  8
P
100
AcDbSpline
210
0.0
220
0.0
230
1.0
 70
     0
 71
     3
 72
     8
 73
     4
 74
     0
 42
0.0000000001
 43
0.0000000001
 40
0.0
 40
0.0
 40
0.0
 40
0.0
 40
1.0
 40
1.0
 40
1.0
 40
1.0
 10
149.36170000000001
 20
408.89229999999998
 30
0.0
 10
149.36170000000001
 20
408.89229999999998
 30
0.0
 10
153.73589999999999
 20
408.89229999999998
 30
0.0
 10
153.73589999999999
 20
408.89229999999998
 30
0.0
  0
SPLINE
  5
144
100
AcDbEntity
  8
P
100
AcDbSpline
210
0.0
220
0.0
230
1.0
 70
     0
 71
     3
 72
     8
 73
     4
 74
     0
 42
0.0000000001
 43
0.0000000001
 40
0.0
 40
0.0
 40
0.0
 40
0.0
 40
1.0
 40
1.0
 40
1.0
 40
1.0
 10
109.1135
 20
364.2706
 30
0.0
 10
109.1135
 20
364.2706
 30
0.0
 10
109.1135
 20
368.64330000000001
 30
0.0
 10
109.1135
 20
368.64330000000001
 30
0.0
  0
SPLINE
  5
145
100
AcDbEntity
  8
P
100
AcDbSpline
210
0.0
220
0.0
230
1.0
 70
     0
 71
     3
 72
     8
 73
     4
 74
     0
 42
0.0000000001
 43
0.0000000001
 40
0.0
 40
0.0
 40
0.0
 40
0.0
 40
1.0
 40
1.0
 40
1.0
 40
1.0
 10
109.1135
 20
368.64330000000001
 30
0.0
 10
109.1135
 20
368.64330000000001
 30
0.0
 10
106.3361
 20
368.64330000000001
 30
0.0
 10
106.3361
 20
368.64330000000001
 30
0.0
  0
SPLINE
  5
146
100
AcDbEntity
  8
P
100
AcDbSpline
210
0.0
220
0.0
230
1.0
 70
     0
 71
     3
 72
     8
 73
     4
 74
     0
 42
0.0000000001
 43
0.0000000001
 40
0.0
 40
0.0
 40
0.0
 40
0.0
 40
1.0
 40
1.0
 40
1.0
 40
1.0
 10
106.3361
 20
368.64330000000001
 30
0.0
 10
106.3361
 20
368.64330000000001
 30
0.0
 10
106.3361
 20
375.79489999999998
 30
0.0
 10
106.3361
 20
375.79489999999998
 30
0.0
  0
SPLINE
  5
147
100
AcDbEntity
  8
P
100
AcDbSpline
210
0.0
220
0.0
230
1.0
 70
     0
 71
     3
 72
     8
 73
     4
 74
     0
 42
0.0000000001
 43
0.0000000001
 40
0.0
 40
0.0
 40
0.0
 40
0.0
 40
1.0
 40
1.0
 40
1.0
 40
1.0
 10
109.1135
 20
375.79489999999998
 30
0.0
 10
109.1135
 20
375.79489999999998
 30
0.0
 10
106.3361
 20
375.79489999999998
 30
0.0
 10
106.3361
 20
375.79489999999998
 30
0.0
  0
SPLINE
  5
148
100
AcDbEntity
  8
P
100
AcDbSpline
210
0.0
220
0.0
230
1.0
 70
     0
 71
     3
 72
     8
 73
     4
 74
     0
 42
0.0000000001
 43
0.0000000001
 40
0.0
 40
0.0
 40
0.0
 40
0.0
 40
1.0
 40
1.0
 40
1.0
 40
1.0
 10
109.1135
 20
375.79489999999998
 30
0.0
 10
109.1135
 20
375.79489999999998
 30
0.0
 10
109.1135
 20
383.00560000000002
 30
0.0
 10
109.1135
 20
383.00560000000002
 30
0.0
  0
SPLINE
  5
149
100
AcDbEntity
  8
P
100
AcDbSpline
210
0.0
220
0.0
230
1.0
 70
     0
 71
     3
 72
     8
 73
     4
 74
     0
 42
0.0000000001
 43
0.0000000001
 40
0.0
 40
0.0
 40
0.0
 40
0.0
 40
1.0
 40
1.0
 40
1.0
 40
1.0
 10
109.1135
 20
383.00560000000002
 30
0.0
 10
109.1135
 20
383.00560000000002
 30
0.0
 10
106.3361
 20
383.00560000000002
 30
0.0
 10
106.3361
 20
383.00560000000002
 30
0.0
  0
SPLINE
  5
14A
100
AcDbEntity
  8
P
100
AcDbSpline
210
0.0
220
0.0
230
1.0
 70
     0
 71
     3
 72
     8
 73
     4
 74
     0
 42
0.0000000001
 43
0.0000000001
 40
0.0
 40
0.0
 40
0.0
 40
0.0
 40
1.0
 40
1.0
 40
1.0
 40
1.0
 10
106.3361
 20
383.00560000000002
 30
0.0
 10
106.3361
 20
383.00560000000002
 30
0.0
 10
106.3361
 20
390.15660000000003
 30
0.0
 10
106.3361
 20
390.15660000000003
 30
0.0
  0
SPLINE
  5
14B
100
AcDbEntity
  8
P
100
AcDbSpline
210
0.0
220
0.0
230
1.0
 70
     0
 71
     3
 72
     8
 73
     4
 74
     0
 42
0.0000000001
 43
0.0000000001
 40
0.0
 40
0.0
 40
0.0
 40
0.0
 40
1.0
 40
1.0
 40
1.0
 40
1.0
 10
109.1135
 20
390.15660000000003
 30
0.0
 10
109.1135
 20
390.15660000000003
 30
0.0
 10
106.3361
 20
390.15660000000003
 30
0.0
 10
106.3361
 20
390.15660000000003
 30
0.0
  0
SPLINE
  5
14C
100
AcDbEntity
  8
P
100
AcDbSpline
210
0.0
220
0.0
230
1.0
 70
     0
 71
     3
 72
     8
 73
     4
 74
     0
 42
0.0000000001
 43
0.0000000001
 40
0.0
 40
0.0
 40
0.0
 40
0.0
 40
1.0
 40
1.0
 40
1.0
 40
1.0
 10
109.1135
 20
390.15660000000003
 30
0.0
 10
109.1135
 20
390.15660000000003
 30
0.0
 10
109.1135
 20
397.36750000000001
 30
0.0
 10
109.1135
 20
397.36750000000001
 30
0.0
  0
SPLINE
  5
14D
100
AcDbEntity
  8
P
100
AcDbSpline
210
0.0
220
0.0
230
1.0
 70
     0
 71
     3
 72
     8
 73
     4
 74
     0
 42
0.0000000001
 43
0.0000000001
 40
0.0
 40
0.0
 40
0.0
 40
0.0
 40
1.0
 40
1.0
 40
1.0
 40
1.0
 10
109.1135
 20
397.36750000000001
 30
0.0
 10
109.1135
 20
397.36750000000001
 30
0.0
 10
106.3361
 20
397.36750000000001
 30
0.0
 10
106.3361
 20
397.36750000000001
 30
0.0
  0
SPLINE
  5
14E
100
AcDbEntity
  8
P
100
AcDbSpline
210
0.0
220
0.0
230
1.0
 70
     0
 71
     3
 72
     8
 73
     4
 74
     0
 42
0.0000000001
 43
0.0000000001
 40
0.0
 40
0.0
 40
0.0
 40
0.0
 40
1.0
 40
1.0
 40
1.0
 40
1.0
 10
106.3361
 20
397.36750000000001
 30
0.0
 10
106.3361
 20
397.36750000000001
 30
0.0
 10
106.3361
 20
404.51859999999999
 30
0.0
 10
106.3361
 20
404.51859999999999
 30
0.0
  0
SPLINE
  5
14F
100
AcDbEntity
  8
P
100
AcDbSpline
210
0.0
220
0.0
230
1.0
 70
     0
 71
     3
 72
     8
 73
     4
 74
     0
 42
0.0000000001
 43
0.0000000001
 40
0.0
 40
0.0
 40
0.0
 40
0.0
 40
1.0
 40
1.0
 40
1.0
 40
1.0
 10
109.1135
 20
404.51859999999999
 30
0.0
 10
109.1135
 20
404.51859999999999
 30
0.0
 10
106.3361
 20
404.51859999999999
 30
0.0
 10
106.3361
 20
404.51859999999999
 30
0.0
  0
SPLINE
  5
150
100
AcDbEntity
  8
P
100
AcDbSpline
210
0.0
220
0.0
230
1.0
 70
     0
 71
     3
 72
     8
 73
     4
 74
     0
 42
0.0000000001
 43
0.0000000001
 40
0.0
 40
0.0
 40
0.0
 40
0.0
 40
1.0
 40
1.0
 40
1.0
 40
1.0
 10
109.1135
 20
404.51859999999999
 30
0.0
 10
109.1135
 20
404.51859999999999
 30
0.0
 10
109.1135
 20
408.89229999999998
 30
0.0
 10
109.1135
 20
408.89229999999998
 30
0.0
  0
SPLINE
  5
151
100
AcDbEntity
  8
P
100
AcDbSpline
210
0.0
220
0.0
230
1.0
 70
     0
 71
     3
 72
     8
 73
     4
 74
     0
 42
0.0000000001
 43
0.0000000001
 40
0.0
 40
0.0
 40
0.0
 40
0.0
 40
1.0
 40
1.0
 40
1.0
 40
1.0
 10
153.73589999999999
 20
364.2706
 30
0.0
 10
153.73589999999999
 20
364.2706
 30
0.0
 10
153.73589999999999
 20
368.64330000000001
 30
0.0
 10
153.73589999999999
 20
368.64330000000001
 30
0.0
  0
SPLINE
  5
152
100
AcDbEntity
  8
P
100
AcDbSpline
210
0.0
220
0.0
230
1.0
 70
     0
 71
     3
 72
     8
 73
     4
 74
     0
 42
0.0000000001
 43
0.0000000001
 40
0.0
 40
0.0
 40
0.0
 40
0.0
 40
1.0
 40
1.0
 40
1.0
 40
1.0
 10
156.57259999999999
 20
368.64330000000001
 30
0.0
 10
156.57259999999999
 20
368.64330000000001
 30
0.0
 10
153.73589999999999
 20
368.64330000000001
 30
0.0
 10
153.73589999999999
 20
368.64330000000001
 30
0.0
  0
SPLINE
  5
153
100
AcDbEntity
  8
P
100
AcDbSpline
210
0.0
220
0.0
230
1.0
 70
     0
 71
     3
 72
     8
 73
     4
 74
     0
 42
0.0000000001
 43
0.0000000001
 40
0.0
 40
0.0
 40
0.0
 40
0.0
 40
1.0
 40
1.0
 40
1.0
 40
1.0
 10
156.57259999999999
 20
368.64330000000001
 30
0.0
 10
156.57259999999999
 20
368.64330000000001
 30
0.0
 10
156.57259999999999
 20
375.79489999999998
 30
0.0
 10
156.57259999999999
 20
375.79489999999998
 30
0.0
  0
SPLINE
  5
154
100
AcDbEntity
  8
P
100
AcDbSpline
210
0.0
220
0.0
230
1.0
 70
     0
 71
     3
 72
     8
 73
     4
 74
     0
 42
0.0000000001
 43
0.0000000001
 40
0.0
 40
0.0
 40
0.0
 40
0.0
 40
1.0
 40
1.0
 40
1.0
 40
1.0
 10
156.57259999999999
 20
375.79489999999998
 30
0.0
 10
156.57259999999999
 20
375.79489999999998
 30
0.0
 10
153.73589999999999
 20
375.79489999999998
 30
0.0
 10
153.73589999999999
 20
375.79489999999998
 30
0.0
  0
SPLINE
  5
155
100
AcDbEntity
  8
P
100
AcDbSpline
210
0.0
220
0.0
230
1.0
 70
     0
 71
     3
 72
     8
 73
     4
 74
     0
 42
0.0000000001
 43
0.0000000001
 40
0.0
 40
0.0
 40
0.0
 40
0.0
 40
1.0
 40
1.0
 40
1.0
 40
1.0
 10
153.73589999999999
 20
375.79489999999998
 30
0.0
 10
153.73589999999999
 20
375.79489999999998
 30
0.0
 10
153.73589999999999
 20
383.00560000000002
 30
0.0
 10
153.73589999999999
 20
383.00560000000002
 30
0.0
  0
SPLINE
  5
156
100
AcDbEntity
  8
P
100
AcDbSpline
210
0.0
220
0.0
230
1.0
 70
     0
 71
     3
 72
     8
 73
     4
 74
     0
 42
0.0000000001
 43
0.0000000001
 40
0.0
 40
0.0
 40
0.0
 40
0.0
 40
1.0
 40
1.0
 40
1.0
 40
1.0
 10
156.57259999999999
 20
383.00560000000002
 30
0.0
 10
156.57259999999999
 20
383.00560000000002
 30
0.0
 10
153.73589999999999
 20
383.00560000000002
 30
0.0
 10
153.73589999999999
 20
383.00560000000002
 30
0.0
  0
SPLINE
  5
157
100
AcDbEntity
  8
P
100
AcDbSpline
210
0.0
220
0.0
230
1.0
 70
     0
 71
     3
 72
     8
 73
     4
 74
     0
 42
0.0000000001
 43
0.0000000001
 40
0.0
 40
0.0
 40
0.0
 40
0.0
 40
1.0
 40
1.0
 40
1.0
 40
1.0
 10
156.57259999999999
 20
383.00560000000002
 30
0.0
 10
156.57259999999999
 20
383.00560000000002
 30
0.0
 10
156.57259999999999
 20
390.15660000000003
 30
0.0
 10
156.57259999999999
 20
390.15660000000003
 30
0.0
  0
SPLINE
  5
158
100
AcDbEntity
  8
P
100
AcDbSpline
210
0.0
220
0.0
230
1.0
 70
     0
 71
     3
 72
     8
 73
     4
 74
     0
 42
0.0000000001
 43
0.0000000001
 40
0.0
 40
0.0
 40
0.0
 40
0.0
 40
1.0
 40
1.0
 40
1.0
 40
1.0
 10
156.57259999999999
 20
390.15660000000003
 30
0.0
 10
156.57259999999999
 20
390.15660000000003
 30
0.0
 10
153.73589999999999
 20
390.15660000000003
 30
0.0
 10
153.73589999999999
 20
390.15660000000003
 30
0.0
  0
SPLINE
  5
159
100
AcDbEntity
  8
P
100
AcDbSpline
210
0.0
220
0.0
230
1.0
 70
     0
 71
     3
 72
     8
 73
     4
 74
     0
 42
0.0000000001
 43
0.0000000001
 40
0.0
 40
0.0
 40
0.0
 40
0.0
 40
1.0
 40
1.0
 40
1.0
 40
1.0
 10
153.73589999999999
 20
390.15660000000003
 30
0.0
 10
153.73589999999999
 20
390.15660000000003
 30
0.0
 10
153.73589999999999
 20
397.36750000000001
 30
0.0
 10
153.73589999999999
 20
397.36750000000001
 30
0.0
  0
SPLINE
  5
15A
100
AcDbEntity
  8
P
100
AcDbSpline
210
0.0
220
0.0
230
1.0
 70
     0
 71
     3
 72
     8
 73
     4
 74
     0
 42
0.0000000001
 43
0.0000000001
 40
0.0
 40
0.0
 40
0.0
 40
0.0
 40
1.0
 40
1.0
 40
1.0
 40
1.0
 10
156.57259999999999
 20
397.36750000000001
 30
0.0
 10
156.57259999999999
 20
397.36750000000001
 30
0.0
 10
153.73589999999999
 20
397.36750000000001
 30
0.0
 10
153.73589999999999
 20
397.36750000000001
 30
0.0
  0
SPLINE
  5
15B
100
AcDbEntity
  8
P
100
AcDbSpline
210
0.0
220
0.0
230
1.0
 70
     0
 71
     3
 72
     8
 73
     4
 74
     0
 42
0.0000000001
 43
0.0000000001
 40
0.0
 40
0.0
 40
0.0
 40
0.0
 40
1.0
 40
1.0
 40
1.0
 40
1.0
 10
156.57259999999999
 20
397.36750000000001
 30
0.0
 10
156.57259999999999
 20
397.36750000000001
 30
0.0
 10
156.57259999999999
 20
404.51859999999999
 30
0.0
 10
156.57259999999999
 20
404.51859999999999
 30
0.0
  0
SPLINE
  5
15C
100
AcDbEntity
  8
P
100
AcDbSpline
210
0.0
220
0.0
230
1.0
 70
     0
 71
     3
 72
     8
 73
     4
 74
     0
 42
0.0000000001
 43
0.0000000001
 40
0.0
 40
0.0
 40
0.0
 40
0.0
 40
1.0
 40
1.0
 40
1.0
 40
1.0
 10
156.57259999999999
 20
404.51859999999999
 30
0.0
 10
156.57259999999999
 20
404.51859999999999
 30
0.0
 10
153.73589999999999
 20
404.51859999999999
 30
0.0
 10
153.73589999999999
 20
404.51859999999999
 30
0.0
  0
SPLINE
  5
15D
100
AcDbEntity
  8
P
100
AcDbSpline
210
0.0
220
0.0
230
1.0
 70
     0
 71
     3
 72
     8
 73
     4
 74
     0
 42
0.0000000001
 43
0.0000000001
 40
0.0
 40
0.0
 40
0.0
 40
0.0
 40
1.0
 40
1.0
 40
1.0
 40
1.0
 10
153.73589999999999
 20
404.51859999999999
 30
0.0
 10
153.73589999999999
 20
404.51859999999999
 30
0.0
 10
153.73589999999999
 20
408.89229999999998
 30
0.0
 10
153.73589999999999
 20
408.89229999999998
 30
0.0
  0
ENDSEC
  0
SECTION
  2
OBJECTS
  0
DICTIONARY
  5
19
100
AcDbDictionary
280
     0
281
     1
  3
ACAD_GROUP
350
1A
  3
ACAD_MLINESTYLE
350
1B
  3
ACAD_LAYOUT
350
1E
  3
ACAD_PLOTSETTINGS
350
22
  3
ACAD_PLOTSTYLENAME
350
1F
  3
ACAD_WIPEOUT_VARS
350
23
  0
DICTIONARY
  5
1A
102
{ACAD_REACTORS
330
19
102
}
100
AcDbDictionary
280
     0
281
     1
  0
DICTIONARY
  5
1B
102
{ACAD_REACTORS
330
19
102
}
100
AcDbDictionary
280
     0
281
     1
  3
Standard
350
1C
  0
MLINESTYLE
  5
1C
102
{ACAD_REACTORS
330
1B
102
}
100
AcDbMlineStyle
  2
Standard
 70
     0
  3

 62
     0
 51
90.0
 52
90.0
 71
     2
 49
0.5
 62
   256
  6
BYLAYER
 49
-0.5
 62
   256
  6
BYLAYER
  0
ACDBDICTIONARYWDFLT
  5
1F
102
{ACAD_REACTORS
330
19
102
}
100
AcDbDictionary
281
     1
  3
Normal
350
1D
100
AcDbDictionaryWithDefault
340
1D
  0
ACDBPLACEHOLDER
  5
1D
102
{ACAD_REACTORS
330
1F
102
}
  0
LAYOUT
  5
20
102
{ACAD_REACTORS
330
1E
102
}
100
AcDbPlotSettings
  1

  2

  4

  6

 40
0.0
 41
0.0
 42
0.0
 43
0.0
 44
0.0
 45
0.0
 46
0.0
 47
0.0
 48
0.0
 49
0.0
140
0.0
141
0.0
142
1.0
143
1.0
 70
  1024
 72
     0
 73
     0
 74
     0
  7

 75
     0
147
1.0
148
0.0
149
0.0
100
AcDbLayout
  1
Model
 70
     0
 71
     0
 10
0.0
 20
0.0
 11
0.0
 21
0.0
 12
0.0
 22
0.0
 32
0.0
 14
0.0
 24
0.0
 34
0.0
 15
0.0
 25
0.0
 35
0.0
146
0.0
 13
0.0
 23
0.0
 33
0.0
 16
0.0
 26
0.0
 36
0.0
 17
0.0
 27
0.0
 37
0.0
 76
     0
330
A
331
0
345
0
346
0
  0
LAYOUT
  5
21
102
{ACAD_REACTORS
330
1E
102
}
100
AcDbPlotSettings
  1

  2

  4

  6

 40
0.0
 41
0.0
 42
0.0
 43
0.0
 44
0.0
 45
0.0
 46
0.0
 47
0.0
 48
0.0
 49
0.0
140
0.0
141
0.0
142
1.0
143
1.0
 70
     0
 72
     0
 73
     0
 74
     0
  7

 75
     0
147
1.0
148
0.0
149
0.0
100
AcDbLayout
  1
Layout1
 70
     0
 71
     0
 10
0.0
 20
0.0
 11
0.0
 21
0.0
 12
0.0
 22
0.0
 32
0.0
 14
0.0
 24
0.0
 34
0.0
 15
0.0
 25
0.0
 35
0.0
146
0.0
 13
0.0
 23
0.0
 33
0.0
 16
0.0
 26
0.0
 36
0.0
 17
0.0
 27
0.0
 37
0.0
 76
     0
330
B
331
0
345
0
346
0
  0
DICTIONARY
  5
1E
102
{ACAD_REACTORS
330
19
102
}
100
AcDbDictionary
280
     0
281
     1
  3
Layout1
350
21
  3
Model
350
20
  0
DICTIONARY
  5
22
102
{ACAD_REACTORS
330
19
102
}
100
AcDbDictionary
280
     0
281
     1
  0
WIPEOUTVARIABLES
  5
23
100
AcDbWipeoutVariables
 70
     1
  0
ENDSEC
  0
EOF
