  0
SECTION
  2
HEADER
  9
$ACADVER
  1
AC1015
  9
$ACADMAINTVER
 70
     6
  9
$DWGCODEPAGE
  3
DOS850
  9
$INSBASE
 10
0.0
 20
0.0
 30
0.0
  9
$EXTMIN
 10
-62.7425
 20
67.079
 30
1.000000E+20
  9
$EXTMAX
 10
99.3799
 20
222.1559
 30
-1.000000E+20
  9
$LIMMIN
 10
0.0
 20
0.0
  9
$LIMMAX
 10
0.0
 20
0.0
  9
$ORTHOMODE
 70
     0
  9
$REGENMODE
 70
     1
  9
$FILLMODE
 70
     1
  9
$QTEXTMODE
 70
     0
  9
$MIRRTEXT
 70
     1
  9
$LTSCALE
 40
1.0
  9
$ATTMODE
 70
     1
  9
$TEXTSIZE
 40
0.2
  9
$TRACEWID
 40
0.05
  9
$TEXTSTYLE
  7
Standard
  9
$CLAYER
  8
0
  9
$CELTYPE
  6
Continuous
  9
$CECOLOR
 62
   256
  9
$CELTSCALE
 40
1.0
  9
$DISPSILH
 70
     0
  9
$DIMSCALE
 40
1.0
  9
$DIMASZ
 40
0.18
  9
$DIMEXO
 40
0.0625
  9
$DIMDLI
 40
0.38
  9
$DIMRND
 40
0.0
  9
$DIMDLE
 40
0.0
  9
$DIMEXE
 40
0.18
  9
$DIMTP
 40
0.0
  9
$DIMTM
 40
0.0
  9
$DIMTXT
 40
0.18
  9
$DIMCEN
 40
0.09
  9
$DIMTSZ
 40
0.0
  9
$DIMTOL
 70
     0
  9
$DIMLIM
 70
     0
  9
$DIMTIH
 70
     1
  9
$DIMTOH
 70
     1
  9
$DIMSE1
 70
     0
  9
$DIMSE2
 70
     0
  9
$DIMTAD
 70
     0
  9
$DIMZIN
 70
     0
  9
$DIMBLK
  1

  9
$DIMASO
 70
     1
  9
$DIMSHO
 70
     1
  9
$DIMPOST
  1

  9
$DIMAPOST
  1

  9
$DIMALT
 70
     0
  9
$DIMALTD
 70
     2
  9
$DIMALTF
 40
25.4
  9
$DIMLFAC
 40
1.0
  9
$DIMTOFL
 70
     0
  9
$DIMTVP
 40
0.0
  9
$DIMTIX
 70
     0
  9
$DIMSOXD
 70
     0
  9
$DIMSAH
 70
     0
  9
$DIMBLK1
  1

  9
$DIMBLK2
  1

  9
$DIMSTYLE
  2
Standard
  9
$DIMCLRD
 70
     0
  9
$DIMCLRE
 70
     0
  9
$DIMCLRT
 70
     0
  9
$DIMTFAC
 40
1.0
  9
$DIMGAP
 40
0.09
  9
$DIMJUST
 70
     0
  9
$DIMSD1
 70
     0
  9
$DIMSD2
 70
     0
  9
$DIMTOLJ
 70
     1
  9
$DIMTZIN
 70
     0
  9
$DIMALTZ
 70
     0
  9
$DIMALTTZ
 70
     0
  9
$DIMUPT
 70
     0
  9
$DIMDEC
 70
     4
  9
$DIMTDEC
 70
     4
  9
$DIMALTU
 70
     2
  9
$DIMALTTD
 70
     2
  9
$DIMTXSTY
  7
Standard
  9
$DIMAUNIT
 70
     0
  9
$DIMADEC
 70
     0
  9
$DIMALTRND
 40
0.0
  9
$DIMAZIN
 70
     0
  9
$DIMDSEP
 70
     0
  9
$DIMATFIT
 70
     3
  9
$DIMFRAC
 70
     0
  9
$DIMLDRBLK
  1

  9
$DIMLUNIT
 70
     2
  9
$DIMLWD
 70
     0
  9
$DIMLWE
 70
     0
  9
$DIMTMOVE
 70
     0
  9
$LUNITS
 70
     2
  9
$LUPREC
 70
     4
  9
$SKETCHINC
 40
0.1
  9
$FILLETRAD
 40
0.0
  9
$AUNITS
 70
     0
  9
$AUPREC
 70
     0
  9
$MENU
  1
acad
  9
$ELEVATION
 40
0.0
  9
$PELEVATION
 40
0.0
  9
$THICKNESS
 40
0.0
  9
$LIMCHECK
 70
     0
  9
$CHAMFERA
 40
0.0
  9
$CHAMFERB
 40
0.0
  9
$CHAMFERC
 40
0.0
  9
$CHAMFERD
 40
0.0
  9
$SKPOLY
 70
     0
  9
$TDCREATE
 40
0.000000000
  9
$TDUCREATE
 40
0.000000000
  9
$TDUPDATE
 40
0.000000000
  9
$TDUUPDATE
 40
0.000000000
  9
$TDINDWG
 40
0.0000000000
  9
$TDUSRTIMER
 40
0.0000000000
  9
$USRTIMER
 70
     1
  9
$ANGBASE
 50
0.0
  9
$ANGDIR
 70
     0
  9
$PDMODE
 70
     0
  9
$PDSIZE
 40
0.0
  9
$PLINEWID
 40
0.0
  9
$SPLFRAME
 70
     0
  9
$SPLINETYPE
 70
     6
  9
$SPLINESEGS
 70
     8
  9
$HANDSEED
  5
9E
  9
$SURFTAB1
 70
     6
  9
$SURFTAB2
 70
     6
  9
$SURFTYPE
 70
     6
  9
$SURFU
 70
     6
  9
$SURFV
 70
     6
  9
$UCSBASE
  2

  9
$UCSNAME
  2

  9
$UCSORG
 10
0.0
 20
0.0
 30
0.0
  9
$UCSXDIR
 10
1.0
 20
0.0
 30
0.0
  9
$UCSYDIR
 10
0.0
 20
1.0
 30
0.0
  9
$UCSORTHOREF
  2

  9
$UCSORTHOVIEW
 70
     0
  9
$UCSORGTOP
 10
0.0
 20
0.0
 30
0.0
  9
$UCSORGBOTTOM
 10
0.0
 20
0.0
 30
0.0
  9
$UCSORGLEFT
 10
0.0
 20
0.0
 30
0.0
  9
$UCSORGRIGHT
 10
0.0
 20
0.0
 30
0.0
  9
$UCSORGFRONT
 10
0.0
 20
0.0
 30
0.0
  9
$UCSORGBACK
 10
0.0
 20
0.0
 30
0.0
  9
$PUCSBASE
  2

  9
$PUCSNAME
  2

  9
$PUCSORG
 10
0.0
 20
0.0
 30
0.0
  9
$PUCSXDIR
 10
1.0
 20
0.0
 30
0.0
  9
$PUCSYDIR
 10
0.0
 20
1.0
 30
0.0
  9
$PUCSORTHOREF
  2

  9
$PUCSORTHOVIEW
 70
     0
  9
$PUCSORGTOP
 10
0.0
 20
0.0
 30
0.0
  9
$PUCSORGBOTTOM
 10
0.0
 20
0.0
 30
0.0
  9
$PUCSORGLEFT
 10
0.0
 20
0.0
 30
0.0
  9
$PUCSORGRIGHT
 10
0.0
 20
0.0
 30
0.0
  9
$PUCSORGFRONT
 10
0.0
 20
0.0
 30
0.0
  9
$PUCSORGBACK
 10
0.0
 20
0.0
 30
0.0
  9
$USERI1
 70
     0
  9
$USERI2
 70
     0
  9
$USERI3
 70
     0
  9
$USERI4
 70
     0
  9
$USERI5
 70
     0
  9
$USERR1
 40
0.0
  9
$USERR2
 40
0.0
  9
$USERR3
 40
0.0
  9
$USERR4
 40
0.0
  9
$USERR5
 40
0.0
  9
$WORLDVIEW
 70
     1
  9
$SHADEDGE
 70
     3
  9
$SHADEDIF
 70
    70
  9
$TILEMODE
 70
     1
  9
$MAXACTVP
 70
    16
  9
$PINSBASE
 10
0.0
 20
0.0
 30
0.0
  9
$PLIMCHECK
 70
     0
  9
$PEXTMIN
 10
1.000000E+20
 20
1.000000E+20
 30
1.000000E+20
  9
$PEXTMAX
 10
-1.000000E+20
 20
-1.000000E+20
 30
-1.000000E+20
  9
$PLIMMIN
 10
0.0
 20
0.0
  9
$PLIMMAX
 10
12.0
 20
9.0
  9
$UNITMODE
 70
     0
  9
$VISRETAIN
 70
     0
  9
$PLINEGEN
 70
     1
  9
$PSLTSCALE
 70
     0
  9
$TREEDEPTH
 70
  3020
  9
$CMLSTYLE
  2
Standard
  9
$CMLJUST
 70
     0
  9
$CMLSCALE
 40
1.0
  9
$PROXYGRAPHICS
 70
     0
  9
$MEASUREMENT
 70
     0
  9
$CELWEIGHT
370
     0
  9
$ENDCAPS
280
     0
  9
$JOINSTYLE
280
     0
  9
$LWDISPLAY
290
     0
  9
$INSUNITS
 70
     4
  9
$HYPERLINKBASE
  1

  9
$XEDIT
290
     1
  9
$CEPSNTYPE
380
     0
  9
$PSTYLEMODE
290
     1
  9
$FINGERPRINTGUID
  2

  9
$VERSIONGUID
  2

  9
$EXTNAMES
290
     1
  9
$PSVPSCALE
 40
0.0
  0
ENDSEC
  0
SECTION
  2
CLASSES
  0
CLASS
  1
LWPOLYLINE
  2
AcDbPolyline
  3
AutoCAD 2000
 90
    32768
280
     0
281
     1
  0
CLASS
  1
IMAGE
  2
AcDbRasterImage
  3
ISM
 90
    32895
280
     0
281
     1
  0
CLASS
  1
OLE2FRAME
  2
AcDbOle2Frame
  3
AutoCAD 2000
 90
    32768
280
     0
281
     1
  0
CLASS
  1
HATCH
  2
AcDbHatch
  3
AutoCAD 2000
 90
    32768
280
     0
281
     1
  0
CLASS
  1
DICTIONARYVAR
  2
AcDbDictionaryVar
  3
AutoCAD 2000
 90
    32768
280
     0
281
     0
  0
CLASS
  1
RASTERVARIABLES
  2
AcDbRasterVariables
  3
ISM
 90
    32768
280
     0
281
     0
  0
CLASS
  1
IMAGEDEF
  2
AcDbRasterImageDef
  3
ISM
 90
    32768
280
     0
281
     0
  0
CLASS
  1
IMAGEDEF_REACTOR
  2
AcDbRasterImageDefReactor
  3
ISM
 90
    32769
280
     0
281
     0
  0
CLASS
  1
IDBUFFER
  2
AcDbIdBuffer
  3
AutoCAD 2000
 90
    32768
280
     0
281
     0
  0
CLASS
  1
SPATIAL_FILTER
  2
AcDbSpatialFilter
  3
AutoCAD 2000
 90
    32768
280
     0
281
     0
  0
CLASS
  1
XRECORD
  2
AcDbXrecord
  3
AutoCAD 2000
 90
    32768
280
     0
281
     0
  0
CLASS
  1
SORTENTSTABLE
  2
AcDbSortentsTable
  3
AutoCAD 2000
 90
    32768
280
     0
281
     0
  0
CLASS
  1
LAYER_INDEX
  2
AcDbLayerIndex
  3
AutoCAD 2000
 90
    32768
280
     0
281
     0
  0
CLASS
  1
SPATIAL_INDEX
  2
AcDbSpatialIndex
  3
AutoCAD 2000
 90
    32768
280
     0
281
     0
  0
CLASS
  1
OBJECT_PTR
  2
CAseDLPNTableRecord
  3
"ASE-LPNTableRecord"
 90
    32769
280
     0
281
     0
  0
CLASS
  1
LAYOUT
  2
AcDbLayout
  3
AutoCAD 2000
 90
        0
280
     0
281
     0
  0
CLASS
  1
PLOTSETTINGS
  2
AcDbPlotSettings
  3
AutoCAD 2000
 90
    32768
280
     0
281
     0
  0
CLASS
  1
ACDBDICTIONARYWDFLT
  2
AcDbDictionaryWithDefault
  3
AutoCAD 2000
 90
        0
280
     0
281
     0
  0
CLASS
  1
ACDBPLACEHOLDER
  2
AcDbPlaceHolder
  3
AutoCAD 2000
 90
        0
280
     0
281
     0
  0
CLASS
  1
VBA_PROJECT
  2
AcDbVbaProject
  3
acadvba
 90
    32768
280
     0
281
     0
  0
CLASS
  1
WIPEOUT
  2
AcDbWipeout
  3
WipeOut|AutoCAD Express Tool|expresstools@autodesk.com
 90
    32895
280
     0
281
     1
  0
CLASS
  1
WIPEOUTVARIABLES
  2
AcDbWipeoutVariables
  3
WipeOut|AutoCAD Express Tool|expresstools@autodesk.com
 90
        0
280
     0
281
     0
  0
CLASS
  1
RTEXT
  2
RText
  3
RText|AutoCAD Express Tool|expresstools@autodesk.com
 90
    32768
280
     0
281
     1
  0
CLASS
  1
ARCALIGNEDTEXT
  2
AcDbArcAlignedText
  3
ATEXT|AutoCAD Express Tool|expresstools@autodesk.com
 90
    32768
280
     0
281
     1
  0
ENDSEC
  0
SECTION
  2
TABLES
  0
TABLE
  2
VPORT
  5
7
100
AcDbSymbolTable
 70
     1
  0
VPORT
  5
15
100
AcDbSymbolTableRecord
100
AcDbViewportTableRecord
  2
*ACTIVE
 70
     0
 10
0.0
 20
0.0
 11
1.0
 21
1.0
 12
6.591288
 22
4.579184
 13
0.0
 23
0.0
 14
1.0
 24
1.0
 15
0.0
 25
0.0
 16
0.0
 26
0.0
 36
1.0
 17
0.0
 27
0.0
 37
0.0
 40
9.158369
 41
0.688564
 42
50.0
 43
0.0
 44
0.0
 50
0.0
 51
0.0
 71
     0
 72
   100
 73
     1
 74
     1
 75
     0
 76
     0
 77
     0
 78
     0
281
     0
 65
     0
110
0.0
120
0.0
130
0.0
111
1.0
121
0.0
131
0.0
112
0.0
122
1.0
132
0.0
345
0
346
0
 79
     0
146
0.0
  0
ENDTAB
  0
TABLE
  2
LTYPE
  5
4
100
AcDbSymbolTable
 70
     3
  0
LTYPE
  5
11
100
AcDbSymbolTableRecord
100
AcDbLinetypeTableRecord
  2
ByBlock
 70
    64
  3

 72
    65
 73
     0
 40
0.0
  0
LTYPE
  5
12
100
AcDbSymbolTableRecord
100
AcDbLinetypeTableRecord
  2
ByLayer
 70
    64
  3

 72
    65
 73
     0
 40
0.0
  0
LTYPE
  5
13
100
AcDbSymbolTableRecord
100
AcDbLinetypeTableRecord
  2
Continuous
 70
    64
  3
Solid line
 72
    65
 73
     0
 40
0.0
  0
ENDTAB
  0
TABLE
  2
LAYER
  5
2
100
AcDbSymbolTable
 70
     2
  0
LAYER
  5
14
100
AcDbSymbolTableRecord
100
AcDbLayerTableRecord
  2
0
 70
     0
 62
     7
  6
Continuous
290
     1
370
    -3
390
1D
  0
LAYER
  5
24
100
AcDbSymbolTableRecord
100
AcDbLayerTableRecord
  2
RÚteg 1
 70
     0
 62
     7
  6
Continuous
290
     1
370
    -3
390
1F
  0
ENDTAB
  0
TABLE
  2
STYLE
  5
3
100
AcDbSymbolTable
 70
     1
  0
STYLE
  5
17
100
AcDbSymbolTableRecord
100
AcDbTextStyleTableRecord
  2
Standard
 70
     0
 40
0.0
 41
1.0
 50
0.0
 71
     0
 42
0.0
  3
txt
  4

  0
ENDTAB
  0
TABLE
  2
VIEW
  5
5
100
AcDbSymbolTable
 70
     0
  0
ENDTAB
  0
TABLE
  2
UCS
  5
6
100
AcDbSymbolTable
 70
     0
  0
ENDTAB
  0
TABLE
  2
APPID
  5
8
100
AcDbSymbolTable
 70
     1
  0
APPID
  5
16
100
AcDbSymbolTableRecord
100
AcDbRegAppTableRecord
  2
ACAD
 70
     0
  0
ENDTAB
  0
TABLE
  2
DIMSTYLE
  5
9
100
AcDbSymbolTable
 70
     1
100
AcDbDimStyleTable
 71
     0
  0
DIMSTYLE
105
18
100
AcDbSymbolTableRecord
100
AcDbDimStyleTableRecord
  2
Standard
 70
     0
  3

  4

 40
1.0
 41
0.18
 42
0.0625
 43
0.38
 44
0.18
 45
0.0
 46
0.0
 47
0.0
 48
0.0
 71
     0
 72
     0
 73
     1
 74
     1
 75
     0
 76
     0
 77
     0
 78
     0
 79
     0
140
0.18
141
0.09
142
0.0
143
25.4
144
1.0
145
0.0
146
1.0
147
0.09
148
0.0
170
     0
171
     2
172
     0
173
     0
174
     0
175
     0
176
     0
177
     0
178
     0
179
     0
271
     4
272
     4
273
     2
274
     2
275
     0
276
     0
277
     2
278
    46
279
     0
280
     0
281
     0
282
     0
283
     1
284
     0
285
     0
286
     0
288
     0
340
17
341
0
342
0
343
0
344
0
371
    -2
372
    -2
  0
ENDTAB
  0
TABLE
  2
BLOCK_RECORD
  5
1
100
AcDbSymbolTable
 70
     0
  0
BLOCK_RECORD
  5
A
100
AcDbSymbolTableRecord
100
AcDbBlockTableRecord
  2
*MODEL_SPACE
340
20
  0
BLOCK_RECORD
  5
B
100
AcDbSymbolTableRecord
100
AcDbBlockTableRecord
  2
*PAPER_SPACE
340
21
  0
ENDTAB
  0
ENDSEC
  0
SECTION
  2
BLOCKS
  0
BLOCK
  5
D
100
AcDbEntity
  8
0
100
AcDbBlockBegin
  2
*MODEL_SPACE
 70
     0
 10
0.0
 20
0.0
 30
0.0
  3
*MODEL_SPACE
  1

  0
ENDBLK
  5
E
100
AcDbEntity
  8
0
100
AcDbBlockEnd
  0
BLOCK
  5
F
100
AcDbEntity
 67
     1
  8
0
100
AcDbBlockBegin
  2
*PAPER_SPACE
 70
     0
 10
0.0
 20
0.0
 30
0.0
  3
*PAPER_SPACE
  1

  0
ENDBLK
  5
10
100
AcDbEntity
 67
     1
  8
0
100
AcDbBlockEnd
  0
ENDSEC
  0
SECTION
  2
ENTITIES
  0
SPLINE
  5
25
100
AcDbEntity
  8
RÚteg 1
100
AcDbSpline
210
0.0
220
0.0
230
1.0
 70
     0
 71
     3
 72
    16
 73
    12
 74
     0
 42
0.0000000001
 43
0.0000000001
 40
0.0
 40
0.0
 40
0.0
 40
0.0
 40
0.3333333333333333
 40
0.3333333333333333
 40
0.3333333333333333
 40
0.3333333333333333
 40
0.6666666666666666
 40
0.6666666666666666
 40
0.6666666666666666
 40
0.6666666666666666
 40
1.0
 40
1.0
 40
1.0
 40
1.0
 10
93.705500000000001
 20
206.61779999999999
 30
0.0
 10
93.705500000000001
 20
206.61779999999999
 30
0.0
 10
93.705500000000001
 20
209.57689999999999
 30
0.0
 10
93.705500000000001
 20
209.57689999999999
 30
0.0
 10
93.705500000000001
 20
209.57689999999999
 30
0.0
 10
93.705500000000001
 20
209.57689999999999
 30
0.0
 10
97.932900000000004
 20
209.57689999999999
 30
0.0
 10
97.932900000000004
 20
209.57689999999999
 30
0.0
 10
97.932900000000004
 20
209.57689999999999
 30
0.0
 10
97.932900000000004
 20
209.57689999999999
 30
0.0
 10
97.932900000000004
 20
206.61779999999999
 30
0.0
 10
97.932900000000004
 20
206.61779999999999
 30
0.0
  0
SPLINE
  5
26
100
AcDbEntity
  8
RÚteg 1
100
AcDbSpline
210
0.0
220
0.0
230
1.0
 70
     0
 71
     3
 72
    16
 73
    12
 74
     0
 42
0.0000000001
 43
0.0000000001
 40
0.0
 40
0.0
 40
0.0
 40
0.0
 40
0.3333333333333333
 40
0.3333333333333333
 40
0.3333333333333333
 40
0.3333333333333333
 40
0.6666666666666666
 40
0.6666666666666666
 40
0.6666666666666666
 40
0.6666666666666666
 40
1.0
 40
1.0
 40
1.0
 40
1.0
 10
86.659899999999993
 20
206.61779999999999
 30
0.0
 10
86.659899999999993
 20
206.61779999999999
 30
0.0
 10
86.659899999999993
 20
209.57689999999999
 30
0.0
 10
86.659899999999993
 20
209.57689999999999
 30
0.0
 10
86.659899999999993
 20
209.57689999999999
 30
0.0
 10
86.659899999999993
 20
209.57689999999999
 30
0.0
 10
90.887200000000007
 20
209.57689999999999
 30
0.0
 10
90.887200000000007
 20
209.57689999999999
 30
0.0
 10
90.887200000000007
 20
209.57689999999999
 30
0.0
 10
90.887200000000007
 20
209.57689999999999
 30
0.0
 10
90.887200000000007
 20
206.61779999999999
 30
0.0
 10
90.887200000000007
 20
206.61779999999999
 30
0.0
  0
SPLINE
  5
27
100
AcDbEntity
  8
RÚteg 1
100
AcDbSpline
210
0.0
220
0.0
230
1.0
 70
     0
 71
     3
 72
    16
 73
    12
 74
     0
 42
0.0000000001
 43
0.0000000001
 40
0.0
 40
0.0
 40
0.0
 40
0.0
 40
0.3333333333333333
 40
0.3333333333333333
 40
0.3333333333333333
 40
0.3333333333333333
 40
0.6666666666666666
 40
0.6666666666666666
 40
0.6666666666666666
 40
0.6666666666666666
 40
1.0
 40
1.0
 40
1.0
 40
1.0
 10
79.614500000000007
 20
206.61779999999999
 30
0.0
 10
79.614500000000007
 20
206.61779999999999
 30
0.0
 10
79.614500000000007
 20
209.57689999999999
 30
0.0
 10
79.614500000000007
 20
209.57689999999999
 30
0.0
 10
79.614500000000007
 20
209.57689999999999
 30
0.0
 10
79.614500000000007
 20
209.57689999999999
 30
0.0
 10
83.841899999999995
 20
209.57689999999999
 30
0.0
 10
83.841899999999995
 20
209.57689999999999
 30
0.0
 10
83.841899999999995
 20
209.57689999999999
 30
0.0
 10
83.841899999999995
 20
209.57689999999999
 30
0.0
 10
83.841899999999995
 20
206.61779999999999
 30
0.0
 10
83.841899999999995
 20
206.61779999999999
 30
0.0
  0
SPLINE
  5
28
100
AcDbEntity
  8
RÚteg 1
100
AcDbSpline
210
0.0
220
0.0
230
1.0
 70
     0
 71
     3
 72
    16
 73
    12
 74
     0
 42
0.0000000001
 43
0.0000000001
 40
0.0
 40
0.0
 40
0.0
 40
0.0
 40
0.3333333333333333
 40
0.3333333333333333
 40
0.3333333333333333
 40
0.3333333333333333
 40
0.6666666666666666
 40
0.6666666666666666
 40
0.6666666666666666
 40
0.6666666666666666
 40
1.0
 40
1.0
 40
1.0
 40
1.0
 10
72.569100000000006
 20
206.61779999999999
 30
0.0
 10
72.569100000000006
 20
206.61779999999999
 30
0.0
 10
72.569100000000006
 20
209.57689999999999
 30
0.0
 10
72.569100000000006
 20
209.57689999999999
 30
0.0
 10
72.569100000000006
 20
209.57689999999999
 30
0.0
 10
72.569100000000006
 20
209.57689999999999
 30
0.0
 10
76.796099999999996
 20
209.57689999999999
 30
0.0
 10
76.796099999999996
 20
209.57689999999999
 30
0.0
 10
76.796099999999996
 20
209.57689999999999
 30
0.0
 10
76.796099999999996
 20
209.57689999999999
 30
0.0
 10
76.796099999999996
 20
206.61779999999999
 30
0.0
 10
76.796099999999996
 20
206.61779999999999
 30
0.0
  0
SPLINE
  5
29
100
AcDbEntity
  8
RÚteg 1
100
AcDbSpline
210
0.0
220
0.0
230
1.0
 70
     0
 71
     3
 72
    16
 73
    12
 74
     0
 42
0.0000000001
 43
0.0000000001
 40
0.0
 40
0.0
 40
0.0
 40
0.0
 40
0.3333333333333333
 40
0.3333333333333333
 40
0.3333333333333333
 40
0.3333333333333333
 40
0.6666666666666666
 40
0.6666666666666666
 40
0.6666666666666666
 40
0.6666666666666666
 40
1.0
 40
1.0
 40
1.0
 40
1.0
 10
65.523499999999999
 20
206.61779999999999
 30
0.0
 10
65.523499999999999
 20
206.61779999999999
 30
0.0
 10
65.523499999999999
 20
209.57689999999999
 30
0.0
 10
65.523499999999999
 20
209.57689999999999
 30
0.0
 10
65.523499999999999
 20
209.57689999999999
 30
0.0
 10
65.523499999999999
 20
209.57689999999999
 30
0.0
 10
69.750900000000001
 20
209.57689999999999
 30
0.0
 10
69.750900000000001
 20
209.57689999999999
 30
0.0
 10
69.750900000000001
 20
209.57689999999999
 30
0.0
 10
69.750900000000001
 20
209.57689999999999
 30
0.0
 10
69.750900000000001
 20
206.61779999999999
 30
0.0
 10
69.750900000000001
 20
206.61779999999999
 30
0.0
  0
SPLINE
  5
2A
100
AcDbEntity
  8
RÚteg 1
100
AcDbSpline
210
0.0
220
0.0
230
1.0
 70
     0
 71
     3
 72
    16
 73
    12
 74
     0
 42
0.0000000001
 43
0.0000000001
 40
0.0
 40
0.0
 40
0.0
 40
0.0
 40
0.3333333333333333
 40
0.3333333333333333
 40
0.3333333333333333
 40
0.3333333333333333
 40
0.6666666666666666
 40
0.6666666666666666
 40
0.6666666666666666
 40
0.6666666666666666
 40
1.0
 40
1.0
 40
1.0
 40
1.0
 10
62.705300000000001
 20
206.61779999999999
 30
0.0
 10
62.705300000000001
 20
206.61779999999999
 30
0.0
 10
62.705300000000001
 20
209.57689999999999
 30
0.0
 10
62.705300000000001
 20
209.57689999999999
 30
0.0
 10
62.705300000000001
 20
209.57689999999999
 30
0.0
 10
62.705300000000001
 20
209.57689999999999
 30
0.0
 10
58.477899999999998
 20
209.57689999999999
 30
0.0
 10
58.477899999999998
 20
209.57689999999999
 30
0.0
 10
58.477899999999998
 20
209.57689999999999
 30
0.0
 10
58.477899999999998
 20
209.57689999999999
 30
0.0
 10
58.477899999999998
 20
206.61779999999999
 30
0.0
 10
58.477899999999998
 20
206.61779999999999
 30
0.0
  0
SPLINE
  5
2B
100
AcDbEntity
  8
RÚteg 1
100
AcDbSpline
210
0.0
220
0.0
230
1.0
 70
     0
 71
     3
 72
    16
 73
    12
 74
     0
 42
0.0000000001
 43
0.0000000001
 40
0.0
 40
0.0
 40
0.0
 40
0.0
 40
0.3333333333333333
 40
0.3333333333333333
 40
0.3333333333333333
 40
0.3333333333333333
 40
0.6666666666666666
 40
0.6666666666666666
 40
0.6666666666666666
 40
0.6666666666666666
 40
1.0
 40
1.0
 40
1.0
 40
1.0
 10
51.432600000000001
 20
206.61779999999999
 30
0.0
 10
51.432600000000001
 20
206.61779999999999
 30
0.0
 10
51.432600000000001
 20
209.57689999999999
 30
0.0
 10
51.432600000000001
 20
209.57689999999999
 30
0.0
 10
51.432600000000001
 20
209.57689999999999
 30
0.0
 10
51.432600000000001
 20
209.57689999999999
 30
0.0
 10
55.6599
 20
209.57689999999999
 30
0.0
 10
55.6599
 20
209.57689999999999
 30
0.0
 10
55.6599
 20
209.57689999999999
 30
0.0
 10
55.6599
 20
209.57689999999999
 30
0.0
 10
55.6599
 20
206.61779999999999
 30
0.0
 10
55.6599
 20
206.61779999999999
 30
0.0
  0
SPLINE
  5
2C
100
AcDbEntity
  8
RÚteg 1
100
AcDbSpline
210
0.0
220
0.0
230
1.0
 70
     0
 71
     3
 72
    16
 73
    12
 74
     0
 42
0.0000000001
 43
0.0000000001
 40
0.0
 40
0.0
 40
0.0
 40
0.0
 40
0.3333333333333333
 40
0.3333333333333333
 40
0.3333333333333333
 40
0.3333333333333333
 40
0.6666666666666666
 40
0.6666666666666666
 40
0.6666666666666666
 40
0.6666666666666666
 40
1.0
 40
1.0
 40
1.0
 40
1.0
 10
44.387
 20
206.61779999999999
 30
0.0
 10
44.387
 20
206.61779999999999
 30
0.0
 10
44.387
 20
209.57689999999999
 30
0.0
 10
44.387
 20
209.57689999999999
 30
0.0
 10
44.387
 20
209.57689999999999
 30
0.0
 10
44.387
 20
209.57689999999999
 30
0.0
 10
48.614400000000003
 20
209.57689999999999
 30
0.0
 10
48.614400000000003
 20
209.57689999999999
 30
0.0
 10
48.614400000000003
 20
209.57689999999999
 30
0.0
 10
48.614400000000003
 20
209.57689999999999
 30
0.0
 10
48.614400000000003
 20
206.61779999999999
 30
0.0
 10
48.614400000000003
 20
206.61779999999999
 30
0.0
  0
SPLINE
  5
2D
100
AcDbEntity
  8
RÚteg 1
100
AcDbSpline
210
0.0
220
0.0
230
1.0
 70
     0
 71
     3
 72
    16
 73
    12
 74
     0
 42
0.0000000001
 43
0.0000000001
 40
0.0
 40
0.0
 40
0.0
 40
0.0
 40
0.3333333333333333
 40
0.3333333333333333
 40
0.3333333333333333
 40
0.3333333333333333
 40
0.6666666666666666
 40
0.6666666666666666
 40
0.6666666666666666
 40
0.6666666666666666
 40
1.0
 40
1.0
 40
1.0
 40
1.0
 10
37.341500000000003
 20
206.61779999999999
 30
0.0
 10
37.341500000000003
 20
206.61779999999999
 30
0.0
 10
37.341500000000003
 20
209.57689999999999
 30
0.0
 10
37.341500000000003
 20
209.57689999999999
 30
0.0
 10
37.341500000000003
 20
209.57689999999999
 30
0.0
 10
37.341500000000003
 20
209.57689999999999
 30
0.0
 10
41.568800000000003
 20
209.57689999999999
 30
0.0
 10
41.568800000000003
 20
209.57689999999999
 30
0.0
 10
41.568800000000003
 20
209.57689999999999
 30
0.0
 10
41.568800000000003
 20
209.57689999999999
 30
0.0
 10
41.568800000000003
 20
206.61779999999999
 30
0.0
 10
41.568800000000003
 20
206.61779999999999
 30
0.0
  0
SPLINE
  5
2E
100
AcDbEntity
  8
RÚteg 1
100
AcDbSpline
210
0.0
220
0.0
230
1.0
 70
     0
 71
     3
 72
    16
 73
    12
 74
     0
 42
0.0000000001
 43
0.0000000001
 40
0.0
 40
0.0
 40
0.0
 40
0.0
 40
0.3333333333333333
 40
0.3333333333333333
 40
0.3333333333333333
 40
0.3333333333333333
 40
0.6666666666666666
 40
0.6666666666666666
 40
0.6666666666666666
 40
0.6666666666666666
 40
1.0
 40
1.0
 40
1.0
 40
1.0
 10
30.296099999999999
 20
206.61779999999999
 30
0.0
 10
30.296099999999999
 20
206.61779999999999
 30
0.0
 10
30.296099999999999
 20
209.57689999999999
 30
0.0
 10
30.296099999999999
 20
209.57689999999999
 30
0.0
 10
30.296099999999999
 20
209.57689999999999
 30
0.0
 10
30.296099999999999
 20
209.57689999999999
 30
0.0
 10
34.523299999999999
 20
209.57689999999999
 30
0.0
 10
34.523299999999999
 20
209.57689999999999
 30
0.0
 10
34.523299999999999
 20
209.57689999999999
 30
0.0
 10
34.523299999999999
 20
209.57689999999999
 30
0.0
 10
34.523299999999999
 20
206.61779999999999
 30
0.0
 10
34.523299999999999
 20
206.61779999999999
 30
0.0
  0
SPLINE
  5
2F
100
AcDbEntity
  8
RÚteg 1
100
AcDbSpline
210
0.0
220
0.0
230
1.0
 70
     0
 71
     3
 72
    16
 73
    12
 74
     0
 42
0.0000000001
 43
0.0000000001
 40
0.0
 40
0.0
 40
0.0
 40
0.0
 40
0.3333333333333333
 40
0.3333333333333333
 40
0.3333333333333333
 40
0.3333333333333333
 40
0.6666666666666666
 40
0.6666666666666666
 40
0.6666666666666666
 40
0.6666666666666666
 40
1.0
 40
1.0
 40
1.0
 40
1.0
 10
23.250499999999999
 20
206.61779999999999
 30
0.0
 10
23.250499999999999
 20
206.61779999999999
 30
0.0
 10
23.250499999999999
 20
209.57689999999999
 30
0.0
 10
23.250499999999999
 20
209.57689999999999
 30
0.0
 10
23.250499999999999
 20
209.57689999999999
 30
0.0
 10
23.250499999999999
 20
209.57689999999999
 30
0.0
 10
27.477900000000002
 20
209.57689999999999
 30
0.0
 10
27.477900000000002
 20
209.57689999999999
 30
0.0
 10
27.477900000000002
 20
209.57689999999999
 30
0.0
 10
27.477900000000002
 20
209.57689999999999
 30
0.0
 10
27.477900000000002
 20
206.61779999999999
 30
0.0
 10
27.477900000000002
 20
206.61779999999999
 30
0.0
  0
SPLINE
  5
30
100
AcDbEntity
  8
RÚteg 1
100
AcDbSpline
210
0.0
220
0.0
230
1.0
 70
     0
 71
     3
 72
    24
 73
    20
 74
     0
 42
0.0000000001
 43
0.0000000001
 40
0.0
 40
0.0
 40
0.0
 40
0.0
 40
0.2
 40
0.2
 40
0.2
 40
0.2
 40
0.4
 40
0.4
 40
0.4
 40
0.4
 40
0.6000000000000001
 40
0.6000000000000001
 40
0.6000000000000001
 40
0.6000000000000001
 40
0.8
 40
0.8
 40
0.8
 40
0.8
 40
1.0
 40
1.0
 40
1.0
 40
1.0
 10
16.205200000000001
 20
206.61779999999999
 30
0.0
 10
16.205200000000001
 20
206.61779999999999
 30
0.0
 10
16.205200000000001
 20
209.57689999999999
 30
0.0
 10
16.205200000000001
 20
209.57689999999999
 30
0.0
 10
16.205200000000001
 20
209.57689999999999
 30
0.0
 10
16.205200000000001
 20
209.57689999999999
 30
0.0
 10
20.432300000000001
 20
209.57689999999999
 30
0.0
 10
20.432300000000001
 20
209.57689999999999
 30
0.0
 10
20.432300000000001
 20
209.57689999999999
 30
0.0
 10
20.432300000000001
 20
209.57689999999999
 30
0.0
 10
20.432300000000001
 20
206.61779999999999
 30
0.0
 10
20.432300000000001
 20
206.61779999999999
 30
0.0
 10
20.432300000000001
 20
206.61779999999999
 30
0.0
 10
20.432300000000001
 20
206.61779999999999
 30
0.0
 10
20.432300000000001
 20
209.57689999999999
 30
0.0
 10
20.432300000000001
 20
209.57689999999999
 30
0.0
 10
20.432300000000001
 20
209.57689999999999
 30
0.0
 10
20.432300000000001
 20
209.57689999999999
 30
0.0
 10
20.432300000000001
 20
206.61779999999999
 30
0.0
 10
20.432300000000001
 20
206.61779999999999
 30
0.0
  0
SPLINE
  5
31
100
AcDbEntity
  8
RÚteg 1
100
AcDbSpline
210
0.0
220
0.0
230
1.0
 70
     0
 71
     3
 72
    24
 73
    20
 74
     0
 42
0.0000000001
 43
0.0000000001
 40
0.0
 40
0.0
 40
0.0
 40
0.0
 40
0.2
 40
0.2
 40
0.2
 40
0.2
 40
0.4
 40
0.4
 40
0.4
 40
0.4
 40
0.6000000000000001
 40
0.6000000000000001
 40
0.6000000000000001
 40
0.6000000000000001
 40
0.8
 40
0.8
 40
0.8
 40
0.8
 40
1.0
 40
1.0
 40
1.0
 40
1.0
 10
16.205200000000001
 20
71.344499999999996
 30
0.0
 10
16.205200000000001
 20
71.344499999999996
 30
0.0
 10
16.205200000000001
 20
68.385000000000005
 30
0.0
 10
16.205200000000001
 20
68.385000000000005
 30
0.0
 10
16.205200000000001
 20
68.385000000000005
 30
0.0
 10
16.205200000000001
 20
68.385000000000005
 30
0.0
 10
20.432300000000001
 20
68.385000000000005
 30
0.0
 10
20.432300000000001
 20
68.385000000000005
 30
0.0
 10
20.432300000000001
 20
68.385000000000005
 30
0.0
 10
20.432300000000001
 20
68.385000000000005
 30
0.0
 10
20.432300000000001
 20
71.344499999999996
 30
0.0
 10
20.432300000000001
 20
71.344499999999996
 30
0.0
 10
20.432300000000001
 20
71.344499999999996
 30
0.0
 10
20.432300000000001
 20
71.344499999999996
 30
0.0
 10
20.432300000000001
 20
68.385000000000005
 30
0.0
 10
20.432300000000001
 20
68.385000000000005
 30
0.0
 10
20.432300000000001
 20
68.385000000000005
 30
0.0
 10
20.432300000000001
 20
68.385000000000005
 30
0.0
 10
20.432300000000001
 20
71.344499999999996
 30
0.0
 10
20.432300000000001
 20
71.344499999999996
 30
0.0
  0
SPLINE
  5
32
100
AcDbEntity
  8
RÚteg 1
100
AcDbSpline
210
0.0
220
0.0
230
1.0
 70
     0
 71
     3
 72
    16
 73
    12
 74
     0
 42
0.0000000001
 43
0.0000000001
 40
0.0
 40
0.0
 40
0.0
 40
0.0
 40
0.3333333333333333
 40
0.3333333333333333
 40
0.3333333333333333
 40
0.3333333333333333
 40
0.6666666666666666
 40
0.6666666666666666
 40
0.6666666666666666
 40
0.6666666666666666
 40
1.0
 40
1.0
 40
1.0
 40
1.0
 10
23.250499999999999
 20
71.344499999999996
 30
0.0
 10
23.250499999999999
 20
71.344499999999996
 30
0.0
 10
23.250499999999999
 20
68.385000000000005
 30
0.0
 10
23.250499999999999
 20
68.385000000000005
 30
0.0
 10
23.250499999999999
 20
68.385000000000005
 30
0.0
 10
23.250499999999999
 20
68.385000000000005
 30
0.0
 10
27.477900000000002
 20
68.385000000000005
 30
0.0
 10
27.477900000000002
 20
68.385000000000005
 30
0.0
 10
27.477900000000002
 20
68.385000000000005
 30
0.0
 10
27.477900000000002
 20
68.385000000000005
 30
0.0
 10
27.477900000000002
 20
71.344499999999996
 30
0.0
 10
27.477900000000002
 20
71.344499999999996
 30
0.0
  0
SPLINE
  5
33
100
AcDbEntity
  8
RÚteg 1
100
AcDbSpline
210
0.0
220
0.0
230
1.0
 70
     0
 71
     3
 72
    16
 73
    12
 74
     0
 42
0.0000000001
 43
0.0000000001
 40
0.0
 40
0.0
 40
0.0
 40
0.0
 40
0.3333333333333333
 40
0.3333333333333333
 40
0.3333333333333333
 40
0.3333333333333333
 40
0.6666666666666666
 40
0.6666666666666666
 40
0.6666666666666666
 40
0.6666666666666666
 40
1.0
 40
1.0
 40
1.0
 40
1.0
 10
30.296099999999999
 20
71.344499999999996
 30
0.0
 10
30.296099999999999
 20
71.344499999999996
 30
0.0
 10
30.296099999999999
 20
68.385000000000005
 30
0.0
 10
30.296099999999999
 20
68.385000000000005
 30
0.0
 10
30.296099999999999
 20
68.385000000000005
 30
0.0
 10
30.296099999999999
 20
68.385000000000005
 30
0.0
 10
34.523299999999999
 20
68.385000000000005
 30
0.0
 10
34.523299999999999
 20
68.385000000000005
 30
0.0
 10
34.523299999999999
 20
68.385000000000005
 30
0.0
 10
34.523299999999999
 20
68.385000000000005
 30
0.0
 10
34.523299999999999
 20
71.344499999999996
 30
0.0
 10
34.523299999999999
 20
71.344499999999996
 30
0.0
  0
SPLINE
  5
34
100
AcDbEntity
  8
RÚteg 1
100
AcDbSpline
210
0.0
220
0.0
230
1.0
 70
     0
 71
     3
 72
    16
 73
    12
 74
     0
 42
0.0000000001
 43
0.0000000001
 40
0.0
 40
0.0
 40
0.0
 40
0.0
 40
0.3333333333333333
 40
0.3333333333333333
 40
0.3333333333333333
 40
0.3333333333333333
 40
0.6666666666666666
 40
0.6666666666666666
 40
0.6666666666666666
 40
0.6666666666666666
 40
1.0
 40
1.0
 40
1.0
 40
1.0
 10
37.341500000000003
 20
71.344499999999996
 30
0.0
 10
37.341500000000003
 20
71.344499999999996
 30
0.0
 10
37.341500000000003
 20
68.385000000000005
 30
0.0
 10
37.341500000000003
 20
68.385000000000005
 30
0.0
 10
37.341500000000003
 20
68.385000000000005
 30
0.0
 10
37.341500000000003
 20
68.385000000000005
 30
0.0
 10
41.568800000000003
 20
68.385000000000005
 30
0.0
 10
41.568800000000003
 20
68.385000000000005
 30
0.0
 10
41.568800000000003
 20
68.385000000000005
 30
0.0
 10
41.568800000000003
 20
68.385000000000005
 30
0.0
 10
41.568800000000003
 20
71.344499999999996
 30
0.0
 10
41.568800000000003
 20
71.344499999999996
 30
0.0
  0
SPLINE
  5
35
100
AcDbEntity
  8
RÚteg 1
100
AcDbSpline
210
0.0
220
0.0
230
1.0
 70
     0
 71
     3
 72
    16
 73
    12
 74
     0
 42
0.0000000001
 43
0.0000000001
 40
0.0
 40
0.0
 40
0.0
 40
0.0
 40
0.3333333333333333
 40
0.3333333333333333
 40
0.3333333333333333
 40
0.3333333333333333
 40
0.6666666666666666
 40
0.6666666666666666
 40
0.6666666666666666
 40
0.6666666666666666
 40
1.0
 40
1.0
 40
1.0
 40
1.0
 10
44.387
 20
71.344499999999996
 30
0.0
 10
44.387
 20
71.344499999999996
 30
0.0
 10
44.387
 20
68.385000000000005
 30
0.0
 10
44.387
 20
68.385000000000005
 30
0.0
 10
44.387
 20
68.385000000000005
 30
0.0
 10
44.387
 20
68.385000000000005
 30
0.0
 10
48.614400000000003
 20
68.385000000000005
 30
0.0
 10
48.614400000000003
 20
68.385000000000005
 30
0.0
 10
48.614400000000003
 20
68.385000000000005
 30
0.0
 10
48.614400000000003
 20
68.385000000000005
 30
0.0
 10
48.614400000000003
 20
71.344499999999996
 30
0.0
 10
48.614400000000003
 20
71.344499999999996
 30
0.0
  0
SPLINE
  5
36
100
AcDbEntity
  8
RÚteg 1
100
AcDbSpline
210
0.0
220
0.0
230
1.0
 70
     0
 71
     3
 72
    16
 73
    12
 74
     0
 42
0.0000000001
 43
0.0000000001
 40
0.0
 40
0.0
 40
0.0
 40
0.0
 40
0.3333333333333333
 40
0.3333333333333333
 40
0.3333333333333333
 40
0.3333333333333333
 40
0.6666666666666666
 40
0.6666666666666666
 40
0.6666666666666666
 40
0.6666666666666666
 40
1.0
 40
1.0
 40
1.0
 40
1.0
 10
51.432600000000001
 20
71.344499999999996
 30
0.0
 10
51.432600000000001
 20
71.344499999999996
 30
0.0
 10
51.432600000000001
 20
68.385000000000005
 30
0.0
 10
51.432600000000001
 20
68.385000000000005
 30
0.0
 10
51.432600000000001
 20
68.385000000000005
 30
0.0
 10
51.432600000000001
 20
68.385000000000005
 30
0.0
 10
55.6599
 20
68.385000000000005
 30
0.0
 10
55.6599
 20
68.385000000000005
 30
0.0
 10
55.6599
 20
68.385000000000005
 30
0.0
 10
55.6599
 20
68.385000000000005
 30
0.0
 10
55.6599
 20
71.344499999999996
 30
0.0
 10
55.6599
 20
71.344499999999996
 30
0.0
  0
SPLINE
  5
37
100
AcDbEntity
  8
RÚteg 1
100
AcDbSpline
210
0.0
220
0.0
230
1.0
 70
     0
 71
     3
 72
    16
 73
    12
 74
     0
 42
0.0000000001
 43
0.0000000001
 40
0.0
 40
0.0
 40
0.0
 40
0.0
 40
0.3333333333333333
 40
0.3333333333333333
 40
0.3333333333333333
 40
0.3333333333333333
 40
0.6666666666666666
 40
0.6666666666666666
 40
0.6666666666666666
 40
0.6666666666666666
 40
1.0
 40
1.0
 40
1.0
 40
1.0
 10
58.477899999999998
 20
71.344499999999996
 30
0.0
 10
58.477899999999998
 20
71.344499999999996
 30
0.0
 10
58.477899999999998
 20
68.385000000000005
 30
0.0
 10
58.477899999999998
 20
68.385000000000005
 30
0.0
 10
58.477899999999998
 20
68.385000000000005
 30
0.0
 10
58.477899999999998
 20
68.385000000000005
 30
0.0
 10
62.705300000000001
 20
68.385000000000005
 30
0.0
 10
62.705300000000001
 20
68.385000000000005
 30
0.0
 10
62.705300000000001
 20
68.385000000000005
 30
0.0
 10
62.705300000000001
 20
68.385000000000005
 30
0.0
 10
62.705300000000001
 20
71.344499999999996
 30
0.0
 10
62.705300000000001
 20
71.344499999999996
 30
0.0
  0
SPLINE
  5
38
100
AcDbEntity
  8
RÚteg 1
100
AcDbSpline
210
0.0
220
0.0
230
1.0
 70
     0
 71
     3
 72
    16
 73
    12
 74
     0
 42
0.0000000001
 43
0.0000000001
 40
0.0
 40
0.0
 40
0.0
 40
0.0
 40
0.3333333333333333
 40
0.3333333333333333
 40
0.3333333333333333
 40
0.3333333333333333
 40
0.6666666666666666
 40
0.6666666666666666
 40
0.6666666666666666
 40
0.6666666666666666
 40
1.0
 40
1.0
 40
1.0
 40
1.0
 10
65.523499999999999
 20
71.344499999999996
 30
0.0
 10
65.523499999999999
 20
71.344499999999996
 30
0.0
 10
65.523499999999999
 20
68.385000000000005
 30
0.0
 10
65.523499999999999
 20
68.385000000000005
 30
0.0
 10
65.523499999999999
 20
68.385000000000005
 30
0.0
 10
65.523499999999999
 20
68.385000000000005
 30
0.0
 10
69.750900000000001
 20
68.385000000000005
 30
0.0
 10
69.750900000000001
 20
68.385000000000005
 30
0.0
 10
69.750900000000001
 20
68.385000000000005
 30
0.0
 10
69.750900000000001
 20
68.385000000000005
 30
0.0
 10
69.750900000000001
 20
71.344499999999996
 30
0.0
 10
69.750900000000001
 20
71.344499999999996
 30
0.0
  0
SPLINE
  5
39
100
AcDbEntity
  8
RÚteg 1
100
AcDbSpline
210
0.0
220
0.0
230
1.0
 70
     0
 71
     3
 72
    16
 73
    12
 74
     0
 42
0.0000000001
 43
0.0000000001
 40
0.0
 40
0.0
 40
0.0
 40
0.0
 40
0.3333333333333333
 40
0.3333333333333333
 40
0.3333333333333333
 40
0.3333333333333333
 40
0.6666666666666666
 40
0.6666666666666666
 40
0.6666666666666666
 40
0.6666666666666666
 40
1.0
 40
1.0
 40
1.0
 40
1.0
 10
72.569100000000006
 20
71.344499999999996
 30
0.0
 10
72.569100000000006
 20
71.344499999999996
 30
0.0
 10
72.569100000000006
 20
68.385000000000005
 30
0.0
 10
72.569100000000006
 20
68.385000000000005
 30
0.0
 10
72.569100000000006
 20
68.385000000000005
 30
0.0
 10
72.569100000000006
 20
68.385000000000005
 30
0.0
 10
76.796099999999996
 20
68.385000000000005
 30
0.0
 10
76.796099999999996
 20
68.385000000000005
 30
0.0
 10
76.796099999999996
 20
68.385000000000005
 30
0.0
 10
76.796099999999996
 20
68.385000000000005
 30
0.0
 10
76.796099999999996
 20
71.344499999999996
 30
0.0
 10
76.796099999999996
 20
71.344499999999996
 30
0.0
  0
SPLINE
  5
3A
100
AcDbEntity
  8
RÚteg 1
100
AcDbSpline
210
0.0
220
0.0
230
1.0
 70
     0
 71
     3
 72
    16
 73
    12
 74
     0
 42
0.0000000001
 43
0.0000000001
 40
0.0
 40
0.0
 40
0.0
 40
0.0
 40
0.3333333333333333
 40
0.3333333333333333
 40
0.3333333333333333
 40
0.3333333333333333
 40
0.6666666666666666
 40
0.6666666666666666
 40
0.6666666666666666
 40
0.6666666666666666
 40
1.0
 40
1.0
 40
1.0
 40
1.0
 10
79.614500000000007
 20
71.344499999999996
 30
0.0
 10
79.614500000000007
 20
71.344499999999996
 30
0.0
 10
79.614500000000007
 20
68.385000000000005
 30
0.0
 10
79.614500000000007
 20
68.385000000000005
 30
0.0
 10
79.614500000000007
 20
68.385000000000005
 30
0.0
 10
79.614500000000007
 20
68.385000000000005
 30
0.0
 10
83.841899999999995
 20
68.385000000000005
 30
0.0
 10
83.841899999999995
 20
68.385000000000005
 30
0.0
 10
83.841899999999995
 20
68.385000000000005
 30
0.0
 10
83.841899999999995
 20
68.385000000000005
 30
0.0
 10
83.841899999999995
 20
71.344499999999996
 30
0.0
 10
83.841899999999995
 20
71.344499999999996
 30
0.0
  0
SPLINE
  5
3B
100
AcDbEntity
  8
RÚteg 1
100
AcDbSpline
210
0.0
220
0.0
230
1.0
 70
     0
 71
     3
 72
    16
 73
    12
 74
     0
 42
0.0000000001
 43
0.0000000001
 40
0.0
 40
0.0
 40
0.0
 40
0.0
 40
0.3333333333333333
 40
0.3333333333333333
 40
0.3333333333333333
 40
0.3333333333333333
 40
0.6666666666666666
 40
0.6666666666666666
 40
0.6666666666666666
 40
0.6666666666666666
 40
1.0
 40
1.0
 40
1.0
 40
1.0
 10
86.659899999999993
 20
71.344499999999996
 30
0.0
 10
86.659899999999993
 20
71.344499999999996
 30
0.0
 10
86.659899999999993
 20
68.385000000000005
 30
0.0
 10
86.659899999999993
 20
68.385000000000005
 30
0.0
 10
86.659899999999993
 20
68.385000000000005
 30
0.0
 10
86.659899999999993
 20
68.385000000000005
 30
0.0
 10
90.887200000000007
 20
68.385000000000005
 30
0.0
 10
90.887200000000007
 20
68.385000000000005
 30
0.0
 10
90.887200000000007
 20
68.385000000000005
 30
0.0
 10
90.887200000000007
 20
68.385000000000005
 30
0.0
 10
90.887200000000007
 20
71.344499999999996
 30
0.0
 10
90.887200000000007
 20
71.344499999999996
 30
0.0
  0
SPLINE
  5
3C
100
AcDbEntity
  8
RÚteg 1
100
AcDbSpline
210
0.0
220
0.0
230
1.0
 70
     0
 71
     3
 72
    16
 73
    12
 74
     0
 42
0.0000000001
 43
0.0000000001
 40
0.0
 40
0.0
 40
0.0
 40
0.0
 40
0.3333333333333333
 40
0.3333333333333333
 40
0.3333333333333333
 40
0.3333333333333333
 40
0.6666666666666666
 40
0.6666666666666666
 40
0.6666666666666666
 40
0.6666666666666666
 40
1.0
 40
1.0
 40
1.0
 40
1.0
 10
97.932900000000004
 20
71.344499999999996
 30
0.0
 10
97.932900000000004
 20
71.344499999999996
 30
0.0
 10
97.932900000000004
 20
68.385000000000005
 30
0.0
 10
97.932900000000004
 20
68.385000000000005
 30
0.0
 10
97.932900000000004
 20
68.385000000000005
 30
0.0
 10
97.932900000000004
 20
68.385000000000005
 30
0.0
 10
93.705500000000001
 20
68.385000000000005
 30
0.0
 10
93.705500000000001
 20
68.385000000000005
 30
0.0
 10
93.705500000000001
 20
68.385000000000005
 30
0.0
 10
93.705500000000001
 20
68.385000000000005
 30
0.0
 10
93.705500000000001
 20
71.344499999999996
 30
0.0
 10
93.705500000000001
 20
71.344499999999996
 30
0.0
  0
SPLINE
  5
3D
100
AcDbEntity
  8
RÚteg 1
100
AcDbSpline
210
0.0
220
0.0
230
1.0
 70
     0
 71
     3
 72
     8
 73
     4
 74
     0
 42
0.0000000001
 43
0.0000000001
 40
0.0
 40
0.0
 40
0.0
 40
0.0
 40
1.0
 40
1.0
 40
1.0
 40
1.0
 10
21.8415
 20
71.344499999999996
 30
0.0
 10
21.8415
 20
71.344499999999996
 30
0.0
 10
20.432300000000001
 20
71.344499999999996
 30
0.0
 10
20.432300000000001
 20
71.344499999999996
 30
0.0
  0
SPLINE
  5
3E
100
AcDbEntity
  8
RÚteg 1
100
AcDbSpline
210
0.0
220
0.0
230
1.0
 70
     0
 71
     3
 72
     8
 73
     4
 74
     0
 42
0.0000000001
 43
0.0000000001
 40
0.0
 40
0.0
 40
0.0
 40
0.0
 40
1.0
 40
1.0
 40
1.0
 40
1.0
 10
21.8415
 20
206.61779999999999
 30
0.0
 10
21.8415
 20
206.61779999999999
 30
0.0
 10
21.8415
 20
71.344499999999996
 30
0.0
 10
21.8415
 20
71.344499999999996
 30
0.0
  0
SPLINE
  5
3F
100
AcDbEntity
  8
RÚteg 1
100
AcDbSpline
210
0.0
220
0.0
230
1.0
 70
     0
 71
     3
 72
     8
 73
     4
 74
     0
 42
0.0000000001
 43
0.0000000001
 40
0.0
 40
0.0
 40
0.0
 40
0.0
 40
1.0
 40
1.0
 40
1.0
 40
1.0
 10
21.8415
 20
71.344499999999996
 30
0.0
 10
21.8415
 20
71.344499999999996
 30
0.0
 10
21.8415
 20
74.162400000000005
 30
0.0
 10
21.8415
 20
74.162400000000005
 30
0.0
  0
SPLINE
  5
40
100
AcDbEntity
  8
RÚteg 1
100
AcDbSpline
210
0.0
220
0.0
230
1.0
 70
     0
 71
     3
 72
     8
 73
     4
 74
     0
 42
0.0000000001
 43
0.0000000001
 40
0.0
 40
0.0
 40
0.0
 40
0.0
 40
1.0
 40
1.0
 40
1.0
 40
1.0
 10
23.250499999999999
 20
71.344499999999996
 30
0.0
 10
23.250499999999999
 20
71.344499999999996
 30
0.0
 10
21.8415
 20
71.344499999999996
 30
0.0
 10
21.8415
 20
71.344499999999996
 30
0.0
  0
SPLINE
  5
41
100
AcDbEntity
  8
RÚteg 1
100
AcDbSpline
210
0.0
220
0.0
230
1.0
 70
     0
 71
     3
 72
     8
 73
     4
 74
     0
 42
0.0000000001
 43
0.0000000001
 40
0.0
 40
0.0
 40
0.0
 40
0.0
 40
1.0
 40
1.0
 40
1.0
 40
1.0
 10
30.296099999999999
 20
71.344499999999996
 30
0.0
 10
30.296099999999999
 20
71.344499999999996
 30
0.0
 10
27.477900000000002
 20
71.344499999999996
 30
0.0
 10
27.477900000000002
 20
71.344499999999996
 30
0.0
  0
SPLINE
  5
42
100
AcDbEntity
  8
RÚteg 1
100
AcDbSpline
210
0.0
220
0.0
230
1.0
 70
     0
 71
     3
 72
     8
 73
     4
 74
     0
 42
0.0000000001
 43
0.0000000001
 40
0.0
 40
0.0
 40
0.0
 40
0.0
 40
1.0
 40
1.0
 40
1.0
 40
1.0
 10
37.341500000000003
 20
71.344499999999996
 30
0.0
 10
37.341500000000003
 20
71.344499999999996
 30
0.0
 10
34.523299999999999
 20
71.344499999999996
 30
0.0
 10
34.523299999999999
 20
71.344499999999996
 30
0.0
  0
SPLINE
  5
43
100
AcDbEntity
  8
RÚteg 1
100
AcDbSpline
210
0.0
220
0.0
230
1.0
 70
     0
 71
     3
 72
     8
 73
     4
 74
     0
 42
0.0000000001
 43
0.0000000001
 40
0.0
 40
0.0
 40
0.0
 40
0.0
 40
1.0
 40
1.0
 40
1.0
 40
1.0
 10
44.387
 20
71.344499999999996
 30
0.0
 10
44.387
 20
71.344499999999996
 30
0.0
 10
41.568800000000003
 20
71.344499999999996
 30
0.0
 10
41.568800000000003
 20
71.344499999999996
 30
0.0
  0
SPLINE
  5
44
100
AcDbEntity
  8
RÚteg 1
100
AcDbSpline
210
0.0
220
0.0
230
1.0
 70
     0
 71
     3
 72
     8
 73
     4
 74
     0
 42
0.0000000001
 43
0.0000000001
 40
0.0
 40
0.0
 40
0.0
 40
0.0
 40
1.0
 40
1.0
 40
1.0
 40
1.0
 10
51.432600000000001
 20
71.344499999999996
 30
0.0
 10
51.432600000000001
 20
71.344499999999996
 30
0.0
 10
48.614400000000003
 20
71.344499999999996
 30
0.0
 10
48.614400000000003
 20
71.344499999999996
 30
0.0
  0
SPLINE
  5
45
100
AcDbEntity
  8
RÚteg 1
100
AcDbSpline
210
0.0
220
0.0
230
1.0
 70
     0
 71
     3
 72
     8
 73
     4
 74
     0
 42
0.0000000001
 43
0.0000000001
 40
0.0
 40
0.0
 40
0.0
 40
0.0
 40
1.0
 40
1.0
 40
1.0
 40
1.0
 10
58.477899999999998
 20
71.344499999999996
 30
0.0
 10
58.477899999999998
 20
71.344499999999996
 30
0.0
 10
55.6599
 20
71.344499999999996
 30
0.0
 10
55.6599
 20
71.344499999999996
 30
0.0
  0
SPLINE
  5
46
100
AcDbEntity
  8
RÚteg 1
100
AcDbSpline
210
0.0
220
0.0
230
1.0
 70
     0
 71
     3
 72
     8
 73
     4
 74
     0
 42
0.0000000001
 43
0.0000000001
 40
0.0
 40
0.0
 40
0.0
 40
0.0
 40
1.0
 40
1.0
 40
1.0
 40
1.0
 10
65.523499999999999
 20
71.344499999999996
 30
0.0
 10
65.523499999999999
 20
71.344499999999996
 30
0.0
 10
62.705300000000001
 20
71.344499999999996
 30
0.0
 10
62.705300000000001
 20
71.344499999999996
 30
0.0
  0
SPLINE
  5
47
100
AcDbEntity
  8
RÚteg 1
100
AcDbSpline
210
0.0
220
0.0
230
1.0
 70
     0
 71
     3
 72
     8
 73
     4
 74
     0
 42
0.0000000001
 43
0.0000000001
 40
0.0
 40
0.0
 40
0.0
 40
0.0
 40
1.0
 40
1.0
 40
1.0
 40
1.0
 10
72.569100000000006
 20
71.344499999999996
 30
0.0
 10
72.569100000000006
 20
71.344499999999996
 30
0.0
 10
69.750900000000001
 20
71.344499999999996
 30
0.0
 10
69.750900000000001
 20
71.344499999999996
 30
0.0
  0
SPLINE
  5
48
100
AcDbEntity
  8
RÚteg 1
100
AcDbSpline
210
0.0
220
0.0
230
1.0
 70
     0
 71
     3
 72
     8
 73
     4
 74
     0
 42
0.0000000001
 43
0.0000000001
 40
0.0
 40
0.0
 40
0.0
 40
0.0
 40
1.0
 40
1.0
 40
1.0
 40
1.0
 10
79.614500000000007
 20
71.344499999999996
 30
0.0
 10
79.614500000000007
 20
71.344499999999996
 30
0.0
 10
76.796099999999996
 20
71.344499999999996
 30
0.0
 10
76.796099999999996
 20
71.344499999999996
 30
0.0
  0
SPLINE
  5
49
100
AcDbEntity
  8
RÚteg 1
100
AcDbSpline
210
0.0
220
0.0
230
1.0
 70
     0
 71
     3
 72
     8
 73
     4
 74
     0
 42
0.0000000001
 43
0.0000000001
 40
0.0
 40
0.0
 40
0.0
 40
0.0
 40
1.0
 40
1.0
 40
1.0
 40
1.0
 10
86.659899999999993
 20
71.344499999999996
 30
0.0
 10
86.659899999999993
 20
71.344499999999996
 30
0.0
 10
83.841899999999995
 20
71.344499999999996
 30
0.0
 10
83.841899999999995
 20
71.344499999999996
 30
0.0
  0
SPLINE
  5
4A
100
AcDbEntity
  8
RÚteg 1
100
AcDbSpline
210
0.0
220
0.0
230
1.0
 70
     0
 71
     3
 72
     8
 73
     4
 74
     0
 42
0.0000000001
 43
0.0000000001
 40
0.0
 40
0.0
 40
0.0
 40
0.0
 40
1.0
 40
1.0
 40
1.0
 40
1.0
 10
93.705500000000001
 20
71.344499999999996
 30
0.0
 10
93.705500000000001
 20
71.344499999999996
 30
0.0
 10
90.887200000000007
 20
71.344499999999996
 30
0.0
 10
90.887200000000007
 20
71.344499999999996
 30
0.0
  0
SPLINE
  5
4B
100
AcDbEntity
  8
RÚteg 1
100
AcDbSpline
210
0.0
220
0.0
230
1.0
 70
     0
 71
     3
 72
     8
 73
     4
 74
     0
 42
0.0000000001
 43
0.0000000001
 40
0.0
 40
0.0
 40
0.0
 40
0.0
 40
1.0
 40
1.0
 40
1.0
 40
1.0
 10
99.341800000000006
 20
71.344499999999996
 30
0.0
 10
99.341800000000006
 20
71.344499999999996
 30
0.0
 10
97.932900000000004
 20
71.344499999999996
 30
0.0
 10
97.932900000000004
 20
71.344499999999996
 30
0.0
  0
SPLINE
  5
4C
100
AcDbEntity
  8
RÚteg 1
100
AcDbSpline
210
0.0
220
0.0
230
1.0
 70
     0
 71
     3
 72
     8
 73
     4
 74
     0
 42
0.0000000001
 43
0.0000000001
 40
0.0
 40
0.0
 40
0.0
 40
0.0
 40
1.0
 40
1.0
 40
1.0
 40
1.0
 10
99.341800000000006
 20
206.61779999999999
 30
0.0
 10
99.341800000000006
 20
206.61779999999999
 30
0.0
 10
99.341800000000006
 20
71.344499999999996
 30
0.0
 10
99.341800000000006
 20
71.344499999999996
 30
0.0
  0
SPLINE
  5
4D
100
AcDbEntity
  8
RÚteg 1
100
AcDbSpline
210
0.0
220
0.0
230
1.0
 70
     0
 71
     3
 72
     8
 73
     4
 74
     0
 42
0.0000000001
 43
0.0000000001
 40
0.0
 40
0.0
 40
0.0
 40
0.0
 40
1.0
 40
1.0
 40
1.0
 40
1.0
 10
97.932900000000004
 20
206.61779999999999
 30
0.0
 10
97.932900000000004
 20
206.61779999999999
 30
0.0
 10
99.341800000000006
 20
206.61779999999999
 30
0.0
 10
99.341800000000006
 20
206.61779999999999
 30
0.0
  0
SPLINE
  5
4E
100
AcDbEntity
  8
RÚteg 1
100
AcDbSpline
210
0.0
220
0.0
230
1.0
 70
     0
 71
     3
 72
     8
 73
     4
 74
     0
 42
0.0000000001
 43
0.0000000001
 40
0.0
 40
0.0
 40
0.0
 40
0.0
 40
1.0
 40
1.0
 40
1.0
 40
1.0
 10
90.887200000000007
 20
206.61779999999999
 30
0.0
 10
90.887200000000007
 20
206.61779999999999
 30
0.0
 10
93.705500000000001
 20
206.61779999999999
 30
0.0
 10
93.705500000000001
 20
206.61779999999999
 30
0.0
  0
SPLINE
  5
4F
100
AcDbEntity
  8
RÚteg 1
100
AcDbSpline
210
0.0
220
0.0
230
1.0
 70
     0
 71
     3
 72
     8
 73
     4
 74
     0
 42
0.0000000001
 43
0.0000000001
 40
0.0
 40
0.0
 40
0.0
 40
0.0
 40
1.0
 40
1.0
 40
1.0
 40
1.0
 10
83.841899999999995
 20
206.61779999999999
 30
0.0
 10
83.841899999999995
 20
206.61779999999999
 30
0.0
 10
86.659899999999993
 20
206.61779999999999
 30
0.0
 10
86.659899999999993
 20
206.61779999999999
 30
0.0
  0
SPLINE
  5
50
100
AcDbEntity
  8
RÚteg 1
100
AcDbSpline
210
0.0
220
0.0
230
1.0
 70
     0
 71
     3
 72
     8
 73
     4
 74
     0
 42
0.0000000001
 43
0.0000000001
 40
0.0
 40
0.0
 40
0.0
 40
0.0
 40
1.0
 40
1.0
 40
1.0
 40
1.0
 10
76.796099999999996
 20
206.61779999999999
 30
0.0
 10
76.796099999999996
 20
206.61779999999999
 30
0.0
 10
79.614500000000007
 20
206.61779999999999
 30
0.0
 10
79.614500000000007
 20
206.61779999999999
 30
0.0
  0
SPLINE
  5
51
100
AcDbEntity
  8
RÚteg 1
100
AcDbSpline
210
0.0
220
0.0
230
1.0
 70
     0
 71
     3
 72
     8
 73
     4
 74
     0
 42
0.0000000001
 43
0.0000000001
 40
0.0
 40
0.0
 40
0.0
 40
0.0
 40
1.0
 40
1.0
 40
1.0
 40
1.0
 10
69.750900000000001
 20
206.61779999999999
 30
0.0
 10
69.750900000000001
 20
206.61779999999999
 30
0.0
 10
72.569100000000006
 20
206.61779999999999
 30
0.0
 10
72.569100000000006
 20
206.61779999999999
 30
0.0
  0
SPLINE
  5
52
100
AcDbEntity
  8
RÚteg 1
100
AcDbSpline
210
0.0
220
0.0
230
1.0
 70
     0
 71
     3
 72
     8
 73
     4
 74
     0
 42
0.0000000001
 43
0.0000000001
 40
0.0
 40
0.0
 40
0.0
 40
0.0
 40
1.0
 40
1.0
 40
1.0
 40
1.0
 10
62.705300000000001
 20
206.61779999999999
 30
0.0
 10
62.705300000000001
 20
206.61779999999999
 30
0.0
 10
65.523499999999999
 20
206.61779999999999
 30
0.0
 10
65.523499999999999
 20
206.61779999999999
 30
0.0
  0
SPLINE
  5
53
100
AcDbEntity
  8
RÚteg 1
100
AcDbSpline
210
0.0
220
0.0
230
1.0
 70
     0
 71
     3
 72
     8
 73
     4
 74
     0
 42
0.0000000001
 43
0.0000000001
 40
0.0
 40
0.0
 40
0.0
 40
0.0
 40
1.0
 40
1.0
 40
1.0
 40
1.0
 10
55.6599
 20
206.61779999999999
 30
0.0
 10
55.6599
 20
206.61779999999999
 30
0.0
 10
58.477899999999998
 20
206.61779999999999
 30
0.0
 10
58.477899999999998
 20
206.61779999999999
 30
0.0
  0
SPLINE
  5
54
100
AcDbEntity
  8
RÚteg 1
100
AcDbSpline
210
0.0
220
0.0
230
1.0
 70
     0
 71
     3
 72
     8
 73
     4
 74
     0
 42
0.0000000001
 43
0.0000000001
 40
0.0
 40
0.0
 40
0.0
 40
0.0
 40
1.0
 40
1.0
 40
1.0
 40
1.0
 10
48.614400000000003
 20
206.61779999999999
 30
0.0
 10
48.614400000000003
 20
206.61779999999999
 30
0.0
 10
51.432600000000001
 20
206.61779999999999
 30
0.0
 10
51.432600000000001
 20
206.61779999999999
 30
0.0
  0
SPLINE
  5
55
100
AcDbEntity
  8
RÚteg 1
100
AcDbSpline
210
0.0
220
0.0
230
1.0
 70
     0
 71
     3
 72
     8
 73
     4
 74
     0
 42
0.0000000001
 43
0.0000000001
 40
0.0
 40
0.0
 40
0.0
 40
0.0
 40
1.0
 40
1.0
 40
1.0
 40
1.0
 10
41.568800000000003
 20
206.61779999999999
 30
0.0
 10
41.568800000000003
 20
206.61779999999999
 30
0.0
 10
44.387
 20
206.61779999999999
 30
0.0
 10
44.387
 20
206.61779999999999
 30
0.0
  0
SPLINE
  5
56
100
AcDbEntity
  8
RÚteg 1
100
AcDbSpline
210
0.0
220
0.0
230
1.0
 70
     0
 71
     3
 72
     8
 73
     4
 74
     0
 42
0.0000000001
 43
0.0000000001
 40
0.0
 40
0.0
 40
0.0
 40
0.0
 40
1.0
 40
1.0
 40
1.0
 40
1.0
 10
34.523299999999999
 20
206.61779999999999
 30
0.0
 10
34.523299999999999
 20
206.61779999999999
 30
0.0
 10
37.341500000000003
 20
206.61779999999999
 30
0.0
 10
37.341500000000003
 20
206.61779999999999
 30
0.0
  0
SPLINE
  5
57
100
AcDbEntity
  8
RÚteg 1
100
AcDbSpline
210
0.0
220
0.0
230
1.0
 70
     0
 71
     3
 72
     8
 73
     4
 74
     0
 42
0.0000000001
 43
0.0000000001
 40
0.0
 40
0.0
 40
0.0
 40
0.0
 40
1.0
 40
1.0
 40
1.0
 40
1.0
 10
27.477900000000002
 20
206.61779999999999
 30
0.0
 10
27.477900000000002
 20
206.61779999999999
 30
0.0
 10
30.296099999999999
 20
206.61779999999999
 30
0.0
 10
30.296099999999999
 20
206.61779999999999
 30
0.0
  0
SPLINE
  5
58
100
AcDbEntity
  8
RÚteg 1
100
AcDbSpline
210
0.0
220
0.0
230
1.0
 70
     0
 71
     3
 72
     8
 73
     4
 74
     0
 42
0.0000000001
 43
0.0000000001
 40
0.0
 40
0.0
 40
0.0
 40
0.0
 40
1.0
 40
1.0
 40
1.0
 40
1.0
 10
21.8415
 20
206.61779999999999
 30
0.0
 10
21.8415
 20
206.61779999999999
 30
0.0
 10
23.250499999999999
 20
206.61779999999999
 30
0.0
 10
23.250499999999999
 20
206.61779999999999
 30
0.0
  0
SPLINE
  5
59
100
AcDbEntity
  8
RÚteg 1
100
AcDbSpline
210
0.0
220
0.0
230
1.0
 70
     0
 71
     3
 72
     8
 73
     4
 74
     0
 42
0.0000000001
 43
0.0000000001
 40
0.0
 40
0.0
 40
0.0
 40
0.0
 40
1.0
 40
1.0
 40
1.0
 40
1.0
 10
20.432300000000001
 20
206.61779999999999
 30
0.0
 10
20.432300000000001
 20
206.61779999999999
 30
0.0
 10
21.8415
 20
206.61779999999999
 30
0.0
 10
21.8415
 20
206.61779999999999
 30
0.0
  0
SPLINE
  5
5A
100
AcDbEntity
  8
RÚteg 1
100
AcDbSpline
210
0.0
220
0.0
230
1.0
 70
     0
 71
     3
 72
     8
 73
     4
 74
     0
 42
0.0000000001
 43
0.0000000001
 40
0.0
 40
0.0
 40
0.0
 40
0.0
 40
1.0
 40
1.0
 40
1.0
 40
1.0
 10
76.091800000000006
 20
76.240899999999996
 30
0.0
 10
76.091800000000006
 20
76.240899999999996
 30
0.0
 10
76.197400000000002
 20
76.240899999999996
 30
0.0
 10
76.197400000000002
 20
76.240899999999996
 30
0.0
  0
SPLINE
  5
5B
100
AcDbEntity
  8
RÚteg 1
100
AcDbSpline
210
0.0
220
0.0
230
1.0
 70
     0
 71
     3
 72
     8
 73
     4
 74
     0
 42
0.0000000001
 43
0.0000000001
 40
0.0
 40
0.0
 40
0.0
 40
0.0
 40
1.0
 40
1.0
 40
1.0
 40
1.0
 10
73.168000000000006
 20
76.240899999999996
 30
0.0
 10
73.168000000000006
 20
76.240899999999996
 30
0.0
 10
76.091800000000006
 20
76.240899999999996
 30
0.0
 10
76.091800000000006
 20
76.240899999999996
 30
0.0
  0
SPLINE
  5
5C
100
AcDbEntity
  8
RÚteg 1
100
AcDbSpline
210
0.0
220
0.0
230
1.0
 70
     0
 71
     3
 72
     8
 73
     4
 74
     0
 42
0.0000000001
 43
0.0000000001
 40
0.0
 40
0.0
 40
0.0
 40
0.0
 40
1.0
 40
1.0
 40
1.0
 40
1.0
 10
73.168000000000006
 20
201.72110000000001
 30
0.0
 10
73.168000000000006
 20
201.72110000000001
 30
0.0
 10
73.168000000000006
 20
76.240899999999996
 30
0.0
 10
73.168000000000006
 20
76.240899999999996
 30
0.0
  0
SPLINE
  5
5D
100
AcDbEntity
  8
RÚteg 1
100
AcDbSpline
210
0.0
220
0.0
230
1.0
 70
     0
 71
     3
 72
     8
 73
     4
 74
     0
 42
0.0000000001
 43
0.0000000001
 40
0.0
 40
0.0
 40
0.0
 40
0.0
 40
1.0
 40
1.0
 40
1.0
 40
1.0
 10
76.197400000000002
 20
201.72110000000001
 30
0.0
 10
76.197400000000002
 20
201.72110000000001
 30
0.0
 10
73.168000000000006
 20
201.72110000000001
 30
0.0
 10
73.168000000000006
 20
201.72110000000001
 30
0.0
  0
SPLINE
  5
5E
100
AcDbEntity
  8
RÚteg 1
100
AcDbSpline
210
0.0
220
0.0
230
1.0
 70
     0
 71
     3
 72
     8
 73
     4
 74
     0
 42
0.0000000001
 43
0.0000000001
 40
0.0
 40
0.0
 40
0.0
 40
0.0
 40
1.0
 40
1.0
 40
1.0
 40
1.0
 10
76.197400000000002
 20
76.240899999999996
 30
0.0
 10
76.197400000000002
 20
76.240899999999996
 30
0.0
 10
76.197400000000002
 20
201.72110000000001
 30
0.0
 10
76.197400000000002
 20
201.72110000000001
 30
0.0
  0
SPLINE
  5
5F
100
AcDbEntity
  8
RÚteg 1
100
AcDbSpline
210
0.0
220
0.0
230
1.0
 70
     0
 71
     3
 72
     8
 73
     4
 74
     0
 42
0.0000000001
 43
0.0000000001
 40
0.0
 40
0.0
 40
0.0
 40
0.0
 40
1.0
 40
1.0
 40
1.0
 40
1.0
 10
92.296300000000002
 20
206.61779999999999
 30
0.0
 10
92.296300000000002
 20
206.61779999999999
 30
0.0
 10
92.296300000000002
 20
71.344499999999996
 30
0.0
 10
92.296300000000002
 20
71.344499999999996
 30
0.0
  0
SPLINE
  5
60
100
AcDbEntity
  8
RÚteg 1
100
AcDbSpline
210
0.0
220
0.0
230
1.0
 70
     0
 71
     3
 72
     8
 73
     4
 74
     0
 42
0.0000000001
 43
0.0000000001
 40
0.0
 40
0.0
 40
0.0
 40
0.0
 40
1.0
 40
1.0
 40
1.0
 40
1.0
 10
28.887
 20
206.61779999999999
 30
0.0
 10
28.887
 20
206.61779999999999
 30
0.0
 10
28.887
 20
71.344499999999996
 30
0.0
 10
28.887
 20
71.344499999999996
 30
0.0
  0
SPLINE
  5
61
100
AcDbEntity
  8
RÚteg 1
100
AcDbSpline
210
0.0
220
0.0
230
1.0
 70
     0
 71
     3
 72
     8
 73
     4
 74
     0
 42
0.0000000001
 43
0.0000000001
 40
0.0
 40
0.0
 40
0.0
 40
0.0
 40
1.0
 40
1.0
 40
1.0
 40
1.0
 10
71.159800000000004
 20
206.61779999999999
 30
0.0
 10
71.159800000000004
 20
206.61779999999999
 30
0.0
 10
71.159800000000004
 20
71.344499999999996
 30
0.0
 10
71.159800000000004
 20
71.344499999999996
 30
0.0
  0
SPLINE
  5
62
100
AcDbEntity
  8
RÚteg 1
100
AcDbSpline
210
0.0
220
0.0
230
1.0
 70
     0
 71
     3
 72
     8
 73
     4
 74
     0
 42
0.0000000001
 43
0.0000000001
 40
0.0
 40
0.0
 40
0.0
 40
0.0
 40
1.0
 40
1.0
 40
1.0
 40
1.0
 10
64.114400000000003
 20
71.344499999999996
 30
0.0
 10
64.114400000000003
 20
71.344499999999996
 30
0.0
 10
64.114400000000003
 20
206.61779999999999
 30
0.0
 10
64.114400000000003
 20
206.61779999999999
 30
0.0
  0
SPLINE
  5
63
100
AcDbEntity
  8
RÚteg 1
100
AcDbSpline
210
0.0
220
0.0
230
1.0
 70
     0
 71
     3
 72
     8
 73
     4
 74
     0
 42
0.0000000001
 43
0.0000000001
 40
0.0
 40
0.0
 40
0.0
 40
0.0
 40
1.0
 40
1.0
 40
1.0
 40
1.0
 10
57.069000000000003
 20
206.61779999999999
 30
0.0
 10
57.069000000000003
 20
206.61779999999999
 30
0.0
 10
57.069000000000003
 20
71.344499999999996
 30
0.0
 10
57.069000000000003
 20
71.344499999999996
 30
0.0
  0
SPLINE
  5
64
100
AcDbEntity
  8
RÚteg 1
100
AcDbSpline
210
0.0
220
0.0
230
1.0
 70
     0
 71
     3
 72
     8
 73
     4
 74
     0
 42
0.0000000001
 43
0.0000000001
 40
0.0
 40
0.0
 40
0.0
 40
0.0
 40
1.0
 40
1.0
 40
1.0
 40
1.0
 10
35.932499999999997
 20
206.61779999999999
 30
0.0
 10
35.932499999999997
 20
206.61779999999999
 30
0.0
 10
35.932499999999997
 20
71.344499999999996
 30
0.0
 10
35.932499999999997
 20
71.344499999999996
 30
0.0
  0
SPLINE
  5
65
100
AcDbEntity
  8
RÚteg 1
100
AcDbSpline
210
0.0
220
0.0
230
1.0
 70
     0
 71
     3
 72
     8
 73
     4
 74
     0
 42
0.0000000001
 43
0.0000000001
 40
0.0
 40
0.0
 40
0.0
 40
0.0
 40
1.0
 40
1.0
 40
1.0
 40
1.0
 10
42.978000000000002
 20
71.344499999999996
 30
0.0
 10
42.978000000000002
 20
71.344499999999996
 30
0.0
 10
42.978000000000002
 20
206.61779999999999
 30
0.0
 10
42.978000000000002
 20
206.61779999999999
 30
0.0
  0
SPLINE
  5
66
100
AcDbEntity
  8
RÚteg 1
100
AcDbSpline
210
0.0
220
0.0
230
1.0
 70
     0
 71
     3
 72
     8
 73
     4
 74
     0
 42
0.0000000001
 43
0.0000000001
 40
0.0
 40
0.0
 40
0.0
 40
0.0
 40
1.0
 40
1.0
 40
1.0
 40
1.0
 10
50.023499999999999
 20
71.344499999999996
 30
0.0
 10
50.023499999999999
 20
71.344499999999996
 30
0.0
 10
50.023499999999999
 20
206.61779999999999
 30
0.0
 10
50.023499999999999
 20
206.61779999999999
 30
0.0
  0
SPLINE
  5
67
100
AcDbEntity
  8
RÚteg 1
100
AcDbSpline
210
0.0
220
0.0
230
1.0
 70
     0
 71
     3
 72
     8
 73
     4
 74
     0
 42
0.0000000001
 43
0.0000000001
 40
0.0
 40
0.0
 40
0.0
 40
0.0
 40
1.0
 40
1.0
 40
1.0
 40
1.0
 10
78.205399999999997
 20
71.344499999999996
 30
0.0
 10
78.205399999999997
 20
71.344499999999996
 30
0.0
 10
78.205399999999997
 20
206.61779999999999
 30
0.0
 10
78.205399999999997
 20
206.61779999999999
 30
0.0
  0
SPLINE
  5
68
100
AcDbEntity
  8
RÚteg 1
100
AcDbSpline
210
0.0
220
0.0
230
1.0
 70
     0
 71
     3
 72
     8
 73
     4
 74
     0
 42
0.0000000001
 43
0.0000000001
 40
0.0
 40
0.0
 40
0.0
 40
0.0
 40
1.0
 40
1.0
 40
1.0
 40
1.0
 10
85.251000000000005
 20
206.61779999999999
 30
0.0
 10
85.251000000000005
 20
206.61779999999999
 30
0.0
 10
85.251000000000005
 20
71.344499999999996
 30
0.0
 10
85.251000000000005
 20
71.344499999999996
 30
0.0
  0
SPLINE
  5
69
100
AcDbEntity
  8
RÚteg 1
100
AcDbSpline
210
0.0
220
0.0
230
1.0
 70
     1
 71
     3
 72
    24
 73
    20
 74
     0
 42
0.0000000001
 43
0.0000000001
 40
0.0
 40
0.0
 40
0.0
 40
0.0
 40
0.2
 40
0.2
 40
0.2
 40
0.2
 40
0.4
 40
0.4
 40
0.4
 40
0.4
 40
0.6000000000000001
 40
0.6000000000000001
 40
0.6000000000000001
 40
0.6000000000000001
 40
0.8
 40
0.8
 40
0.8
 40
0.8
 40
1.0
 40
1.0
 40
1.0
 40
1.0
 10
97.3339
 20
76.240899999999996
 30
0.0
 10
97.3339
 20
76.240899999999996
 30
0.0
 10
97.3339
 20
201.72110000000001
 30
0.0
 10
97.3339
 20
201.72110000000001
 30
0.0
 10
97.3339
 20
201.72110000000001
 30
0.0
 10
97.3339
 20
201.72110000000001
 30
0.0
 10
94.304299999999998
 20
201.72110000000001
 30
0.0
 10
94.304299999999998
 20
201.72110000000001
 30
0.0
 10
94.304299999999998
 20
201.72110000000001
 30
0.0
 10
94.304299999999998
 20
201.72110000000001
 30
0.0
 10
94.304299999999998
 20
76.240899999999996
 30
0.0
 10
94.304299999999998
 20
76.240899999999996
 30
0.0
 10
94.304299999999998
 20
76.240899999999996
 30
0.0
 10
94.304299999999998
 20
76.240899999999996
 30
0.0
 10
97.228200000000001
 20
76.240899999999996
 30
0.0
 10
97.228200000000001
 20
76.240899999999996
 30
0.0
 10
97.228200000000001
 20
76.240899999999996
 30
0.0
 10
97.228200000000001
 20
76.240899999999996
 30
0.0
 10
97.3339
 20
76.240899999999996
 30
0.0
 10
97.3339
 20
76.240899999999996
 30
0.0
  0
SPLINE
  5
6A
100
AcDbEntity
  8
RÚteg 1
100
AcDbSpline
210
0.0
220
0.0
230
1.0
 70
     1
 71
     3
 72
    24
 73
    20
 74
     0
 42
0.0000000001
 43
0.0000000001
 40
0.0
 40
0.0
 40
0.0
 40
0.0
 40
0.2
 40
0.2
 40
0.2
 40
0.2
 40
0.4
 40
0.4
 40
0.4
 40
0.4
 40
0.6000000000000001
 40
0.6000000000000001
 40
0.6000000000000001
 40
0.6000000000000001
 40
0.8
 40
0.8
 40
0.8
 40
0.8
 40
1.0
 40
1.0
 40
1.0
 40
1.0
 10
90.288499999999999
 20
76.240899999999996
 30
0.0
 10
90.288499999999999
 20
76.240899999999996
 30
0.0
 10
90.288499999999999
 20
201.72110000000001
 30
0.0
 10
90.288499999999999
 20
201.72110000000001
 30
0.0
 10
90.288499999999999
 20
201.72110000000001
 30
0.0
 10
90.288499999999999
 20
201.72110000000001
 30
0.0
 10
87.258899999999997
 20
201.72110000000001
 30
0.0
 10
87.258899999999997
 20
201.72110000000001
 30
0.0
 10
87.258899999999997
 20
201.72110000000001
 30
0.0
 10
87.258899999999997
 20
201.72110000000001
 30
0.0
 10
87.258899999999997
 20
76.240899999999996
 30
0.0
 10
87.258899999999997
 20
76.240899999999996
 30
0.0
 10
87.258899999999997
 20
76.240899999999996
 30
0.0
 10
87.258899999999997
 20
76.240899999999996
 30
0.0
 10
90.1828
 20
76.240899999999996
 30
0.0
 10
90.1828
 20
76.240899999999996
 30
0.0
 10
90.1828
 20
76.240899999999996
 30
0.0
 10
90.1828
 20
76.240899999999996
 30
0.0
 10
90.288499999999999
 20
76.240899999999996
 30
0.0
 10
90.288499999999999
 20
76.240899999999996
 30
0.0
  0
SPLINE
  5
6B
100
AcDbEntity
  8
RÚteg 1
100
AcDbSpline
210
0.0
220
0.0
230
1.0
 70
     1
 71
     3
 72
    24
 73
    20
 74
     0
 42
0.0000000001
 43
0.0000000001
 40
0.0
 40
0.0
 40
0.0
 40
0.0
 40
0.2
 40
0.2
 40
0.2
 40
0.2
 40
0.4
 40
0.4
 40
0.4
 40
0.4
 40
0.6000000000000001
 40
0.6000000000000001
 40
0.6000000000000001
 40
0.6000000000000001
 40
0.8
 40
0.8
 40
0.8
 40
0.8
 40
1.0
 40
1.0
 40
1.0
 40
1.0
 10
83.242999999999995
 20
76.240899999999996
 30
0.0
 10
83.242999999999995
 20
76.240899999999996
 30
0.0
 10
83.242999999999995
 20
201.72110000000001
 30
0.0
 10
83.242999999999995
 20
201.72110000000001
 30
0.0
 10
83.242999999999995
 20
201.72110000000001
 30
0.0
 10
83.242999999999995
 20
201.72110000000001
 30
0.0
 10
80.213399999999993
 20
201.72110000000001
 30
0.0
 10
80.213399999999993
 20
201.72110000000001
 30
0.0
 10
80.213399999999993
 20
201.72110000000001
 30
0.0
 10
80.213399999999993
 20
201.72110000000001
 30
0.0
 10
80.213399999999993
 20
76.240899999999996
 30
0.0
 10
80.213399999999993
 20
76.240899999999996
 30
0.0
 10
80.213399999999993
 20
76.240899999999996
 30
0.0
 10
80.213399999999993
 20
76.240899999999996
 30
0.0
 10
83.137299999999996
 20
76.240899999999996
 30
0.0
 10
83.137299999999996
 20
76.240899999999996
 30
0.0
 10
83.137299999999996
 20
76.240899999999996
 30
0.0
 10
83.137299999999996
 20
76.240899999999996
 30
0.0
 10
83.242999999999995
 20
76.240899999999996
 30
0.0
 10
83.242999999999995
 20
76.240899999999996
 30
0.0
  0
SPLINE
  5
6C
100
AcDbEntity
  8
RÚteg 1
100
AcDbSpline
210
0.0
220
0.0
230
1.0
 70
     1
 71
     3
 72
    20
 73
    16
 74
     0
 42
0.0000000001
 43
0.0000000001
 40
0.0
 40
0.0
 40
0.0
 40
0.0
 40
0.25
 40
0.25
 40
0.25
 40
0.25
 40
0.5
 40
0.5
 40
0.5
 40
0.5
 40
0.75
 40
0.75
 40
0.75
 40
0.75
 40
1.0
 40
1.0
 40
1.0
 40
1.0
 10
-9.8278999999999996
 20
215.74170000000001
 30
0.0
 10
-9.8278999999999996
 20
215.74170000000001
 30
0.0
 10
-38.080399999999997
 20
215.74170000000001
 30
0.0
 10
-38.080399999999997
 20
215.74170000000001
 30
0.0
 10
-38.080399999999997
 20
215.74170000000001
 30
0.0
 10
-38.080399999999997
 20
215.74170000000001
 30
0.0
 10
-38.080399999999997
 20
218.63030000000001
 30
0.0
 10
-38.080399999999997
 20
218.63030000000001
 30
0.0
 10
-38.080399999999997
 20
218.63030000000001
 30
0.0
 10
-38.080399999999997
 20
218.63030000000001
 30
0.0
 10
-9.8278999999999996
 20
218.63030000000001
 30
0.0
 10
-9.8278999999999996
 20
218.63030000000001
 30
0.0
 10
-9.8278999999999996
 20
218.63030000000001
 30
0.0
 10
-9.8278999999999996
 20
218.63030000000001
 30
0.0
 10
-9.8278999999999996
 20
215.74170000000001
 30
0.0
 10
-9.8278999999999996
 20
215.74170000000001
 30
0.0
  0
SPLINE
  5
6D
100
AcDbEntity
  8
RÚteg 1
100
AcDbSpline
210
0.0
220
0.0
230
1.0
 70
     1
 71
     3
 72
    20
 73
    16
 74
     0
 42
0.0000000001
 43
0.0000000001
 40
0.0
 40
0.0
 40
0.0
 40
0.0
 40
0.25
 40
0.25
 40
0.25
 40
0.25
 40
0.5
 40
0.5
 40
0.5
 40
0.5
 40
0.75
 40
0.75
 40
0.75
 40
0.75
 40
1.0
 40
1.0
 40
1.0
 40
1.0
 10
-0.7924
 20
203.4933
 30
0.0
 10
-0.7924
 20
203.4933
 30
0.0
 10
-3.6812
 20
203.4933
 30
0.0
 10
-3.6812
 20
203.4933
 30
0.0
 10
-3.6812
 20
203.4933
 30
0.0
 10
-3.6812
 20
203.4933
 30
0.0
 10
-3.6812
 20
210.7011
 30
0.0
 10
-3.6812
 20
210.7011
 30
0.0
 10
-3.6812
 20
210.7011
 30
0.0
 10
-3.6812
 20
210.7011
 30
0.0
 10
-0.7924
 20
210.7011
 30
0.0
 10
-0.7924
 20
210.7011
 30
0.0
 10
-0.7924
 20
210.7011
 30
0.0
 10
-0.7924
 20
210.7011
 30
0.0
 10
-0.7924
 20
203.4933
 30
0.0
 10
-0.7924
 20
203.4933
 30
0.0
  0
SPLINE
  5
6E
100
AcDbEntity
  8
RÚteg 1
100
AcDbSpline
210
0.0
220
0.0
230
1.0
 70
     1
 71
     3
 72
    20
 73
    16
 74
     0
 42
0.0000000001
 43
0.0000000001
 40
0.0
 40
0.0
 40
0.0
 40
0.0
 40
0.25
 40
0.25
 40
0.25
 40
0.25
 40
0.5
 40
0.5
 40
0.5
 40
0.5
 40
0.75
 40
0.75
 40
0.75
 40
0.75
 40
1.0
 40
1.0
 40
1.0
 40
1.0
 10
-3.6812
 20
200.74549999999999
 30
0.0
 10
-3.6812
 20
200.74549999999999
 30
0.0
 10
-0.7924
 20
200.74549999999999
 30
0.0
 10
-0.7924
 20
200.74549999999999
 30
0.0
 10
-0.7924
 20
200.74549999999999
 30
0.0
 10
-0.7924
 20
200.74549999999999
 30
0.0
 10
-0.7924
 20
196.53960000000001
 30
0.0
 10
-0.7924
 20
196.53960000000001
 30
0.0
 10
-0.7924
 20
196.53960000000001
 30
0.0
 10
-0.7924
 20
196.53960000000001
 30
0.0
 10
-3.6812
 20
196.53960000000001
 30
0.0
 10
-3.6812
 20
196.53960000000001
 30
0.0
 10
-3.6812
 20
196.53960000000001
 30
0.0
 10
-3.6812
 20
196.53960000000001
 30
0.0
 10
-3.6812
 20
200.74549999999999
 30
0.0
 10
-3.6812
 20
200.74549999999999
 30
0.0
  0
SPLINE
  5
6F
100
AcDbEntity
  8
RÚteg 1
100
AcDbSpline
210
0.0
220
0.0
230
1.0
 70
     1
 71
     3
 72
    20
 73
    16
 74
     0
 42
0.0000000001
 43
0.0000000001
 40
0.0
 40
0.0
 40
0.0
 40
0.0
 40
0.25
 40
0.25
 40
0.25
 40
0.25
 40
0.5
 40
0.5
 40
0.5
 40
0.5
 40
0.75
 40
0.75
 40
0.75
 40
0.75
 40
1.0
 40
1.0
 40
1.0
 40
1.0
 10
-44.2271
 20
200.74549999999999
 30
0.0
 10
-44.2271
 20
200.74549999999999
 30
0.0
 10
-47.116100000000003
 20
200.74549999999999
 30
0.0
 10
-47.116100000000003
 20
200.74549999999999
 30
0.0
 10
-47.116100000000003
 20
200.74549999999999
 30
0.0
 10
-47.116100000000003
 20
200.74549999999999
 30
0.0
 10
-47.116100000000003
 20
196.53960000000001
 30
0.0
 10
-47.116100000000003
 20
196.53960000000001
 30
0.0
 10
-47.116100000000003
 20
196.53960000000001
 30
0.0
 10
-47.116100000000003
 20
196.53960000000001
 30
0.0
 10
-44.2271
 20
196.53960000000001
 30
0.0
 10
-44.2271
 20
196.53960000000001
 30
0.0
 10
-44.2271
 20
196.53960000000001
 30
0.0
 10
-44.2271
 20
196.53960000000001
 30
0.0
 10
-44.2271
 20
200.74549999999999
 30
0.0
 10
-44.2271
 20
200.74549999999999
 30
0.0
  0
SPLINE
  5
70
100
AcDbEntity
  8
RÚteg 1
100
AcDbSpline
210
0.0
220
0.0
230
1.0
 70
     1
 71
     3
 72
    20
 73
    16
 74
     0
 42
0.0000000001
 43
0.0000000001
 40
0.0
 40
0.0
 40
0.0
 40
0.0
 40
0.25
 40
0.25
 40
0.25
 40
0.25
 40
0.5
 40
0.5
 40
0.5
 40
0.5
 40
0.75
 40
0.75
 40
0.75
 40
0.75
 40
1.0
 40
1.0
 40
1.0
 40
1.0
 10
8.4198000000000004
 20
176.28700000000001
 30
0.0
 10
8.4198000000000004
 20
176.28700000000001
 30
0.0
 10
11.3085
 20
176.28700000000001
 30
0.0
 10
11.3085
 20
176.28700000000001
 30
0.0
 10
11.3085
 20
176.28700000000001
 30
0.0
 10
11.3085
 20
176.28700000000001
 30
0.0
 10
11.3085
 20
197.49379999999999
 30
0.0
 10
11.3085
 20
197.49379999999999
 30
0.0
 10
11.3085
 20
197.49379999999999
 30
0.0
 10
11.3085
 20
197.49379999999999
 30
0.0
 10
8.4198000000000004
 20
197.49379999999999
 30
0.0
 10
8.4198000000000004
 20
197.49379999999999
 30
0.0
 10
8.4198000000000004
 20
197.49379999999999
 30
0.0
 10
8.4198000000000004
 20
197.49379999999999
 30
0.0
 10
8.4198000000000004
 20
176.28700000000001
 30
0.0
 10
8.4198000000000004
 20
176.28700000000001
 30
0.0
  0
SPLINE
  5
71
100
AcDbEntity
  8
RÚteg 1
100
AcDbSpline
210
0.0
220
0.0
230
1.0
 70
     1
 71
     3
 72
    20
 73
    16
 74
     0
 42
0.0000000001
 43
0.0000000001
 40
0.0
 40
0.0
 40
0.0
 40
0.0
 40
0.25
 40
0.25
 40
0.25
 40
0.25
 40
0.5
 40
0.5
 40
0.5
 40
0.5
 40
0.75
 40
0.75
 40
0.75
 40
0.75
 40
1.0
 40
1.0
 40
1.0
 40
1.0
 10
8.4198000000000004
 20
91.740799999999993
 30
0.0
 10
8.4198000000000004
 20
91.740799999999993
 30
0.0
 10
11.3085
 20
91.740799999999993
 30
0.0
 10
11.3085
 20
91.740799999999993
 30
0.0
 10
11.3085
 20
91.740799999999993
 30
0.0
 10
11.3085
 20
91.740799999999993
 30
0.0
 10
11.3085
 20
112.9479
 30
0.0
 10
11.3085
 20
112.9479
 30
0.0
 10
11.3085
 20
112.9479
 30
0.0
 10
11.3085
 20
112.9479
 30
0.0
 10
8.4198000000000004
 20
112.9479
 30
0.0
 10
8.4198000000000004
 20
112.9479
 30
0.0
 10
8.4198000000000004
 20
112.9479
 30
0.0
 10
8.4198000000000004
 20
112.9479
 30
0.0
 10
8.4198000000000004
 20
91.740799999999993
 30
0.0
 10
8.4198000000000004
 20
91.740799999999993
 30
0.0
  0
SPLINE
  5
72
100
AcDbEntity
  8
RÚteg 1
100
AcDbSpline
210
0.0
220
0.0
230
1.0
 70
     1
 71
     3
 72
    20
 73
    16
 74
     0
 42
0.0000000001
 43
0.0000000001
 40
0.0
 40
0.0
 40
0.0
 40
0.0
 40
0.25
 40
0.25
 40
0.25
 40
0.25
 40
0.5
 40
0.5
 40
0.5
 40
0.5
 40
0.75
 40
0.75
 40
0.75
 40
0.75
 40
1.0
 40
1.0
 40
1.0
 40
1.0
 10
-9.8278999999999996
 20
73.493200000000002
 30
0.0
 10
-9.8278999999999996
 20
73.493200000000002
 30
0.0
 10
-38.080399999999997
 20
73.493200000000002
 30
0.0
 10
-38.080399999999997
 20
73.493200000000002
 30
0.0
 10
-38.080399999999997
 20
73.493200000000002
 30
0.0
 10
-38.080399999999997
 20
73.493200000000002
 30
0.0
 10
-38.080399999999997
 20
70.604799999999997
 30
0.0
 10
-38.080399999999997
 20
70.604799999999997
 30
0.0
 10
-38.080399999999997
 20
70.604799999999997
 30
0.0
 10
-38.080399999999997
 20
70.604799999999997
 30
0.0
 10
-9.8278999999999996
 20
70.604799999999997
 30
0.0
 10
-9.8278999999999996
 20
70.604799999999997
 30
0.0
 10
-9.8278999999999996
 20
70.604799999999997
 30
0.0
 10
-9.8278999999999996
 20
70.604799999999997
 30
0.0
 10
-9.8278999999999996
 20
73.493200000000002
 30
0.0
 10
-9.8278999999999996
 20
73.493200000000002
 30
0.0
  0
SPLINE
  5
73
100
AcDbEntity
  8
RÚteg 1
100
AcDbSpline
210
0.0
220
0.0
230
1.0
 70
     1
 71
     3
 72
    20
 73
    16
 74
     0
 42
0.0000000001
 43
0.0000000001
 40
0.0
 40
0.0
 40
0.0
 40
0.0
 40
0.25
 40
0.25
 40
0.25
 40
0.25
 40
0.5
 40
0.5
 40
0.5
 40
0.5
 40
0.75
 40
0.75
 40
0.75
 40
0.75
 40
1.0
 40
1.0
 40
1.0
 40
1.0
 10
-56.328299999999999
 20
91.740799999999993
 30
0.0
 10
-56.328299999999999
 20
91.740799999999993
 30
0.0
 10
-59.216900000000003
 20
91.740799999999993
 30
0.0
 10
-59.216900000000003
 20
91.740799999999993
 30
0.0
 10
-59.216900000000003
 20
91.740799999999993
 30
0.0
 10
-59.216900000000003
 20
91.740799999999993
 30
0.0
 10
-59.216900000000003
 20
112.9479
 30
0.0
 10
-59.216900000000003
 20
112.9479
 30
0.0
 10
-59.216900000000003
 20
112.9479
 30
0.0
 10
-59.216900000000003
 20
112.9479
 30
0.0
 10
-56.328299999999999
 20
112.9479
 30
0.0
 10
-56.328299999999999
 20
112.9479
 30
0.0
 10
-56.328299999999999
 20
112.9479
 30
0.0
 10
-56.328299999999999
 20
112.9479
 30
0.0
 10
-56.328299999999999
 20
91.740799999999993
 30
0.0
 10
-56.328299999999999
 20
91.740799999999993
 30
0.0
  0
SPLINE
  5
74
100
AcDbEntity
  8
RÚteg 1
100
AcDbSpline
210
0.0
220
0.0
230
1.0
 70
     1
 71
     3
 72
    20
 73
    16
 74
     0
 42
0.0000000001
 43
0.0000000001
 40
0.0
 40
0.0
 40
0.0
 40
0.0
 40
0.25
 40
0.25
 40
0.25
 40
0.25
 40
0.5
 40
0.5
 40
0.5
 40
0.5
 40
0.75
 40
0.75
 40
0.75
 40
0.75
 40
1.0
 40
1.0
 40
1.0
 40
1.0
 10
-56.328299999999999
 20
176.28700000000001
 30
0.0
 10
-56.328299999999999
 20
176.28700000000001
 30
0.0
 10
-59.216900000000003
 20
176.28700000000001
 30
0.0
 10
-59.216900000000003
 20
176.28700000000001
 30
0.0
 10
-59.216900000000003
 20
176.28700000000001
 30
0.0
 10
-59.216900000000003
 20
176.28700000000001
 30
0.0
 10
-59.216900000000003
 20
197.49379999999999
 30
0.0
 10
-59.216900000000003
 20
197.49379999999999
 30
0.0
 10
-59.216900000000003
 20
197.49379999999999
 30
0.0
 10
-59.216900000000003
 20
197.49379999999999
 30
0.0
 10
-56.328299999999999
 20
197.49379999999999
 30
0.0
 10
-56.328299999999999
 20
197.49379999999999
 30
0.0
 10
-56.328299999999999
 20
197.49379999999999
 30
0.0
 10
-56.328299999999999
 20
197.49379999999999
 30
0.0
 10
-56.328299999999999
 20
176.28700000000001
 30
0.0
 10
-56.328299999999999
 20
176.28700000000001
 30
0.0
  0
SPLINE
  5
75
100
AcDbEntity
  8
RÚteg 1
100
AcDbSpline
210
0.0
220
0.0
230
1.0
 70
     1
 71
     3
 72
    36
 73
    32
 74
     0
 42
0.0000000001
 43
0.0000000001
 40
0.0
 40
0.0
 40
0.0
 40
0.0
 40
0.125
 40
0.125
 40
0.125
 40
0.125
 40
0.25
 40
0.25
 40
0.25
 40
0.25
 40
0.375
 40
0.375
 40
0.375
 40
0.375
 40
0.5
 40
0.5
 40
0.5
 40
0.5
 40
0.625
 40
0.625
 40
0.625
 40
0.625
 40
0.75
 40
0.75
 40
0.75
 40
0.75
 40
0.875
 40
0.875
 40
0.875
 40
0.875
 40
1.0
 40
1.0
 40
1.0
 40
1.0
 10
-62.7044
 20
74.162400000000005
 30
0.0
 10
-62.7044
 20
74.162400000000005
 30
0.0
 10
-62.703800000000001
 20
215.15020000000001
 30
0.0
 10
-62.703800000000001
 20
215.15020000000001
 30
0.0
 10
-62.703800000000001
 20
215.15020000000001
 30
0.0
 10
-62.671599999999998
 20
218.95009999999999
 30
0.0
 10
-59.536700000000003
 20
222.08500000000001
 30
0.0
 10
-55.736800000000002
 20
222.1172
 30
0.0
 10
-55.736800000000002
 20
222.1172
 30
0.0
 10
-55.736800000000002
 20
222.1172
 30
0.0
 10
7.7504999999999997
 20
222.11779999999999
 30
0.0
 10
7.7504999999999997
 20
222.11779999999999
 30
0.0
 10
7.7504999999999997
 20
222.11779999999999
 30
0.0
 10
11.582000000000001
 20
222.10740000000001
 30
0.0
 10
14.7645
 20
218.99760000000001
 30
0.0
 10
14.795500000000001
 20
215.15020000000001
 30
0.0
 10
14.795500000000001
 20
215.15020000000001
 30
0.0
 10
14.795500000000001
 20
215.15020000000001
 30
0.0
 10
14.7959
 20
74.162400000000005
 30
0.0
 10
14.7959
 20
74.162400000000005
 30
0.0
 10
14.7959
 20
74.162400000000005
 30
0.0
 10
14.785600000000001
 20
70.329499999999996
 30
0.0
 10
11.6761
 20
67.150300000000001
 30
0.0
 10
7.8285999999999998
 20
67.117500000000007
 30
0.0
 10
7.8285999999999998
 20
67.117500000000007
 30
0.0
 10
7.8285999999999998
 20
67.117500000000007
 30
0.0
 10
-55.658900000000003
 20
67.117099999999994
 30
0.0
 10
-55.658900000000003
 20
67.117099999999994
 30
0.0
 10
-55.658900000000003
 20
67.117099999999994
 30
0.0
 10
-59.548999999999999
 20
67.127600000000001
 30
0.0
 10
-62.683199999999999
 20
70.280100000000004
 30
0.0
 10
-62.7044
 20
74.162400000000005
 30
0.0
  0
SPLINE
  5
76
100
AcDbEntity
  8
RÚteg 1
100
AcDbSpline
210
0.0
220
0.0
230
1.0
 70
     1
 71
     3
 72
    20
 73
    16
 74
     0
 42
0.0000000001
 43
0.0000000001
 40
0.0
 40
0.0
 40
0.0
 40
0.0
 40
0.25
 40
0.25
 40
0.25
 40
0.25
 40
0.5
 40
0.5
 40
0.5
 40
0.5
 40
0.75
 40
0.75
 40
0.75
 40
0.75
 40
1.0
 40
1.0
 40
1.0
 40
1.0
 10
-22.474599999999999
 20
87.5501
 30
0.0
 10
-22.474599999999999
 20
87.5501
 30
0.0
 10
-25.433800000000002
 20
87.5501
 30
0.0
 10
-25.433800000000002
 20
87.5501
 30
0.0
 10
-25.433800000000002
 20
87.5501
 30
0.0
 10
-25.433800000000002
 20
87.5501
 30
0.0
 10
-25.433800000000002
 20
186.3279
 30
0.0
 10
-25.433800000000002
 20
186.3279
 30
0.0
 10
-25.433800000000002
 20
186.3279
 30
0.0
 10
-25.433800000000002
 20
186.3279
 30
0.0
 10
-22.474599999999999
 20
186.3279
 30
0.0
 10
-22.474599999999999
 20
186.3279
 30
0.0
 10
-22.474599999999999
 20
186.3279
 30
0.0
 10
-22.474599999999999
 20
186.3279
 30
0.0
 10
-22.474599999999999
 20
87.5501
 30
0.0
 10
-22.474599999999999
 20
87.5501
 30
0.0
  0
SPLINE
  5
77
100
AcDbEntity
  8
RÚteg 1
100
AcDbSpline
210
0.0
220
0.0
230
1.0
 70
     1
 71
     3
 72
    20
 73
    16
 74
     0
 42
0.0000000001
 43
0.0000000001
 40
0.0
 40
0.0
 40
0.0
 40
0.0
 40
0.25
 40
0.25
 40
0.25
 40
0.25
 40
0.5
 40
0.5
 40
0.5
 40
0.5
 40
0.75
 40
0.75
 40
0.75
 40
0.75
 40
1.0
 40
1.0
 40
1.0
 40
1.0
 10
-47.116100000000003
 20
203.4933
 30
0.0
 10
-47.116100000000003
 20
203.4933
 30
0.0
 10
-44.2271
 20
203.4933
 30
0.0
 10
-44.2271
 20
203.4933
 30
0.0
 10
-44.2271
 20
203.4933
 30
0.0
 10
-44.2271
 20
203.4933
 30
0.0
 10
-44.2271
 20
210.7011
 30
0.0
 10
-44.2271
 20
210.7011
 30
0.0
 10
-44.2271
 20
210.7011
 30
0.0
 10
-44.2271
 20
210.7011
 30
0.0
 10
-47.116100000000003
 20
210.7011
 30
0.0
 10
-47.116100000000003
 20
210.7011
 30
0.0
 10
-47.116100000000003
 20
210.7011
 30
0.0
 10
-47.116100000000003
 20
210.7011
 30
0.0
 10
-47.116100000000003
 20
203.4933
 30
0.0
 10
-47.116100000000003
 20
203.4933
 30
0.0
  0
SPLINE
  5
78
100
AcDbEntity
  8
RÚteg 1
100
AcDbSpline
210
0.0
220
0.0
230
1.0
 70
     0
 71
     3
 72
     8
 73
     4
 74
     0
 42
0.0000000001
 43
0.0000000001
 40
0.0
 40
0.0
 40
0.0
 40
0.0
 40
1.0
 40
1.0
 40
1.0
 40
1.0
 10
-9.8278999999999996
 20
200.67500000000001
 30
0.0
 10
-9.8278999999999996
 20
200.67500000000001
 30
0.0
 10
-9.8278999999999996
 20
203.56370000000001
 30
0.0
 10
-9.8278999999999996
 20
203.56370000000001
 30
0.0
  0
SPLINE
  5
79
100
AcDbEntity
  8
RÚteg 1
100
AcDbSpline
210
0.0
220
0.0
230
1.0
 70
     0
 71
     3
 72
    16
 73
    12
 74
     0
 42
0.0000000001
 43
0.0000000001
 40
0.0
 40
0.0
 40
0.0
 40
0.0
 40
0.3333333333333333
 40
0.3333333333333333
 40
0.3333333333333333
 40
0.3333333333333333
 40
0.6666666666666666
 40
0.6666666666666666
 40
0.6666666666666666
 40
0.6666666666666666
 40
1.0
 40
1.0
 40
1.0
 40
1.0
 10
-9.8278999999999996
 20
200.67500000000001
 30
0.0
 10
-9.8278999999999996
 20
200.67500000000001
 30
0.0
 10
-38.080399999999997
 20
200.67500000000001
 30
0.0
 10
-38.080399999999997
 20
200.67500000000001
 30
0.0
 10
-38.080399999999997
 20
200.67500000000001
 30
0.0
 10
-38.080399999999997
 20
200.67500000000001
 30
0.0
 10
-38.080399999999997
 20
203.56370000000001
 30
0.0
 10
-38.080399999999997
 20
203.56370000000001
 30
0.0
 10
-38.080399999999997
 20
203.56370000000001
 30
0.0
 10
-38.080399999999997
 20
203.56370000000001
 30
0.0
 10
-9.8278999999999996
 20
203.56370000000001
 30
0.0
 10
-9.8278999999999996
 20
203.56370000000001
 30
0.0
  0
SPLINE
  5
7A
100
AcDbEntity
  8
RÚteg 1
100
AcDbSpline
210
0.0
220
0.0
230
1.0
 70
     0
 71
     3
 72
     8
 73
     4
 74
     0
 42
0.0000000001
 43
0.0000000001
 40
0.0
 40
0.0
 40
0.0
 40
0.0
 40
1.0
 40
1.0
 40
1.0
 40
1.0
 10
14.7959
 20
206.61779999999999
 30
0.0
 10
14.7959
 20
206.61779999999999
 30
0.0
 10
16.205200000000001
 20
206.61779999999999
 30
0.0
 10
16.205200000000001
 20
206.61779999999999
 30
0.0
  0
SPLINE
  5
7B
100
AcDbEntity
  8
RÚteg 1
100
AcDbSpline
210
0.0
220
0.0
230
1.0
 70
     0
 71
     3
 72
     8
 73
     4
 74
     0
 42
0.0000000001
 43
0.0000000001
 40
0.0
 40
0.0
 40
0.0
 40
0.0
 40
1.0
 40
1.0
 40
1.0
 40
1.0
 10
16.205200000000001
 20
71.344499999999996
 30
0.0
 10
16.205200000000001
 20
71.344499999999996
 30
0.0
 10
14.7959
 20
71.344499999999996
 30
0.0
 10
14.7959
 20
71.344499999999996
 30
0.0
  0
SPLINE
  5
7C
100
AcDbEntity
  8
RÚteg 1
100
AcDbSpline
210
0.0
220
0.0
230
1.0
 70
     0
 71
     3
 72
     8
 73
     4
 74
     0
 42
0.0000000001
 43
0.0000000001
 40
0.0
 40
0.0
 40
0.0
 40
0.0
 40
1.0
 40
1.0
 40
1.0
 40
1.0
 10
14.7959
 20
71.344499999999996
 30
0.0
 10
14.7959
 20
71.344499999999996
 30
0.0
 10
14.7959
 20
74.162400000000005
 30
0.0
 10
14.7959
 20
74.162400000000005
 30
0.0
  0
SPLINE
  5
7D
100
AcDbEntity
  8
RÚteg 1
100
AcDbSpline
210
0.0
220
0.0
230
1.0
 70
     0
 71
     3
 72
    12
 73
     8
 74
     0
 42
0.0000000001
 43
0.0000000001
 40
0.0
 40
0.0
 40
0.0
 40
0.0
 40
0.5
 40
0.5
 40
0.5
 40
0.5
 40
1.0
 40
1.0
 40
1.0
 40
1.0
 10
59.182600000000001
 20
218.5949
 30
0.0
 10
59.182600000000001
 20
218.7818
 30
0.0
 10
59.108400000000003
 20
218.96100000000001
 30
0.0
 10
58.976199999999999
 20
219.0933
 30
0.0
 10
58.976199999999999
 20
219.0933
 30
0.0
 10
58.844099999999997
 20
219.22550000000001
 30
0.0
 10
58.6648
 20
219.2997
 30
0.0
 10
58.477899999999998
 20
219.2997
 30
0.0
  0
SPLINE
  5
7E
100
AcDbEntity
  8
RÚteg 1
100
AcDbSpline
210
0.0
220
0.0
230
1.0
 70
     0
 71
     3
 72
    12
 73
     8
 74
     0
 42
0.0000000001
 43
0.0000000001
 40
0.0
 40
0.0
 40
0.0
 40
0.0
 40
0.5
 40
0.5
 40
0.5
 40
0.5
 40
1.0
 40
1.0
 40
1.0
 40
1.0
 10
51.432600000000001
 20
219.2997
 30
0.0
 10
51.245800000000003
 20
219.2997
 30
0.0
 10
51.066499999999998
 20
219.22550000000001
 30
0.0
 10
50.934399999999997
 20
219.0933
 30
0.0
 10
50.934399999999997
 20
219.0933
 30
0.0
 10
50.802399999999999
 20
218.96100000000001
 30
0.0
 10
50.728099999999998
 20
218.7818
 30
0.0
 10
50.728099999999998
 20
218.5949
 30
0.0
  0
SPLINE
  5
7F
100
AcDbEntity
  8
RÚteg 1
100
AcDbSpline
210
0.0
220
0.0
230
1.0
 70
     0
 71
     3
 72
    12
 73
     8
 74
     0
 42
0.0000000001
 43
0.0000000001
 40
0.0
 40
0.0
 40
0.0
 40
0.0
 40
0.5
 40
0.5
 40
0.5
 40
0.5
 40
1.0
 40
1.0
 40
1.0
 40
1.0
 10
50.728099999999998
 20
211.5496
 30
0.0
 10
50.728099999999998
 20
211.3629
 30
0.0
 10
50.802399999999999
 20
211.18340000000001
 30
0.0
 10
50.934399999999997
 20
211.0514
 30
0.0
 10
50.934399999999997
 20
211.0514
 30
0.0
 10
51.066499999999998
 20
210.91919999999999
 30
0.0
 10
51.245800000000003
 20
210.8449
 30
0.0
 10
51.432600000000001
 20
210.8449
 30
0.0
  0
SPLINE
  5
80
100
AcDbEntity
  8
RÚteg 1
100
AcDbSpline
210
0.0
220
0.0
230
1.0
 70
     0
 71
     3
 72
     8
 73
     4
 74
     0
 42
0.0000000001
 43
0.0000000001
 40
0.0
 40
0.0
 40
0.0
 40
0.0
 40
1.0
 40
1.0
 40
1.0
 40
1.0
 10
51.432600000000001
 20
210.8449
 30
0.0
 10
51.432600000000001
 20
210.8449
 30
0.0
 10
58.477899999999998
 20
210.8449
 30
0.0
 10
58.477899999999998
 20
210.8449
 30
0.0
  0
SPLINE
  5
81
100
AcDbEntity
  8
RÚteg 1
100
AcDbSpline
210
0.0
220
0.0
230
1.0
 70
     0
 71
     3
 72
     8
 73
     4
 74
     0
 42
0.0000000001
 43
0.0000000001
 40
0.0
 40
0.0
 40
0.0
 40
0.0
 40
1.0
 40
1.0
 40
1.0
 40
1.0
 10
58.477899999999998
 20
210.8449
 30
0.0
 10
58.867100000000001
 20
210.8449
 30
0.0
 10
59.182600000000001
 20
211.16040000000001
 30
0.0
 10
59.182600000000001
 20
211.5496
 30
0.0
  0
SPLINE
  5
82
100
AcDbEntity
  8
RÚteg 1
100
AcDbSpline
210
0.0
220
0.0
230
1.0
 70
     0
 71
     3
 72
     8
 73
     4
 74
     0
 42
0.0000000001
 43
0.0000000001
 40
0.0
 40
0.0
 40
0.0
 40
0.0
 40
1.0
 40
1.0
 40
1.0
 40
1.0
 10
66.932599999999994
 20
210.8449
 30
0.0
 10
66.932599999999994
 20
210.8449
 30
0.0
 10
59.887099999999997
 20
210.8449
 30
0.0
 10
59.887099999999997
 20
210.8449
 30
0.0
  0
SPLINE
  5
83
100
AcDbEntity
  8
RÚteg 1
100
AcDbSpline
210
0.0
220
0.0
230
1.0
 70
     0
 71
     3
 72
    12
 73
     8
 74
     0
 42
0.0000000001
 43
0.0000000001
 40
0.0
 40
0.0
 40
0.0
 40
0.0
 40
0.5
 40
0.5
 40
0.5
 40
0.5
 40
1.0
 40
1.0
 40
1.0
 40
1.0
 10
59.182600000000001
 20
211.5496
 30
0.0
 10
59.182600000000001
 20
211.3629
 30
0.0
 10
59.256700000000002
 20
211.18340000000001
 30
0.0
 10
59.3889
 20
211.0514
 30
0.0
 10
59.3889
 20
211.0514
 30
0.0
 10
59.520899999999997
 20
210.91919999999999
 30
0.0
 10
59.700299999999999
 20
210.8449
 30
0.0
 10
59.887099999999997
 20
210.8449
 30
0.0
  0
SPLINE
  5
84
100
AcDbEntity
  8
RÚteg 1
100
AcDbSpline
210
0.0
220
0.0
230
1.0
 70
     0
 71
     3
 72
     8
 73
     4
 74
     0
 42
0.0000000001
 43
0.0000000001
 40
0.0
 40
0.0
 40
0.0
 40
0.0
 40
1.0
 40
1.0
 40
1.0
 40
1.0
 10
59.182600000000001
 20
211.5496
 30
0.0
 10
59.182600000000001
 20
211.5496
 30
0.0
 10
59.182600000000001
 20
218.5949
 30
0.0
 10
59.182600000000001
 20
218.5949
 30
0.0
  0
SPLINE
  5
85
100
AcDbEntity
  8
RÚteg 1
100
AcDbSpline
210
0.0
220
0.0
230
1.0
 70
     0
 71
     3
 72
    12
 73
     8
 74
     0
 42
0.0000000001
 43
0.0000000001
 40
0.0
 40
0.0
 40
0.0
 40
0.0
 40
0.5
 40
0.5
 40
0.5
 40
0.5
 40
1.0
 40
1.0
 40
1.0
 40
1.0
 10
59.887099999999997
 20
219.2997
 30
0.0
 10
59.700299999999999
 20
219.2997
 30
0.0
 10
59.520899999999997
 20
219.22550000000001
 30
0.0
 10
59.3889
 20
219.0933
 30
0.0
 10
59.3889
 20
219.0933
 30
0.0
 10
59.256700000000002
 20
218.96100000000001
 30
0.0
 10
59.182600000000001
 20
218.7818
 30
0.0
 10
59.182600000000001
 20
218.5949
 30
0.0
  0
SPLINE
  5
86
100
AcDbEntity
  8
RÚteg 1
100
AcDbSpline
210
0.0
220
0.0
230
1.0
 70
     0
 71
     3
 72
    12
 73
     8
 74
     0
 42
0.0000000001
 43
0.0000000001
 40
0.0
 40
0.0
 40
0.0
 40
0.0
 40
0.5
 40
0.5
 40
0.5
 40
0.5
 40
1.0
 40
1.0
 40
1.0
 40
1.0
 10
67.637200000000007
 20
218.5949
 30
0.0
 10
67.637200000000007
 20
218.7818
 30
0.0
 10
67.562899999999999
 20
218.96100000000001
 30
0.0
 10
67.430899999999994
 20
219.0933
 30
0.0
 10
67.430899999999994
 20
219.0933
 30
0.0
 10
67.2988
 20
219.22550000000001
 30
0.0
 10
67.119600000000005
 20
219.2997
 30
0.0
 10
66.932599999999994
 20
219.2997
 30
0.0
  0
SPLINE
  5
87
100
AcDbEntity
  8
RÚteg 1
100
AcDbSpline
210
0.0
220
0.0
230
1.0
 70
     0
 71
     3
 72
     8
 73
     4
 74
     0
 42
0.0000000001
 43
0.0000000001
 40
0.0
 40
0.0
 40
0.0
 40
0.0
 40
1.0
 40
1.0
 40
1.0
 40
1.0
 10
66.932599999999994
 20
210.8449
 30
0.0
 10
67.321600000000004
 20
210.8449
 30
0.0
 10
67.637200000000007
 20
211.16040000000001
 30
0.0
 10
67.637200000000007
 20
211.5496
 30
0.0
  0
SPLINE
  5
88
100
AcDbEntity
  8
RÚteg 1
100
AcDbSpline
210
0.0
220
0.0
230
1.0
 70
     0
 71
     3
 72
     8
 73
     4
 74
     0
 42
0.0000000001
 43
0.0000000001
 40
0.0
 40
0.0
 40
0.0
 40
0.0
 40
1.0
 40
1.0
 40
1.0
 40
1.0
 10
50.728099999999998
 20
211.5496
 30
0.0
 10
50.728099999999998
 20
211.5496
 30
0.0
 10
50.728099999999998
 20
218.5949
 30
0.0
 10
50.728099999999998
 20
218.5949
 30
0.0
  0
SPLINE
  5
89
100
AcDbEntity
  8
RÚteg 1
100
AcDbSpline
210
0.0
220
0.0
230
1.0
 70
     0
 71
     3
 72
    12
 73
     8
 74
     0
 42
0.0000000001
 43
0.0000000001
 40
0.0
 40
0.0
 40
0.0
 40
0.0
 40
0.5
 40
0.5
 40
0.5
 40
0.5
 40
1.0
 40
1.0
 40
1.0
 40
1.0
 10
50.728099999999998
 20
218.5949
 30
0.0
 10
50.728099999999998
 20
218.7818
 30
0.0
 10
50.653799999999997
 20
218.96100000000001
 30
0.0
 10
50.521599999999999
 20
219.0933
 30
0.0
 10
50.521599999999999
 20
219.0933
 30
0.0
 10
50.389499999999998
 20
219.22550000000001
 30
0.0
 10
50.2102
 20
219.2997
 30
0.0
 10
50.023499999999999
 20
219.2997
 30
0.0
  0
SPLINE
  5
8A
100
AcDbEntity
  8
RÚteg 1
100
AcDbSpline
210
0.0
220
0.0
230
1.0
 70
     0
 71
     3
 72
    12
 73
     8
 74
     0
 42
0.0000000001
 43
0.0000000001
 40
0.0
 40
0.0
 40
0.0
 40
0.0
 40
0.5
 40
0.5
 40
0.5
 40
0.5
 40
1.0
 40
1.0
 40
1.0
 40
1.0
 10
42.978000000000002
 20
219.2997
 30
0.0
 10
42.7911
 20
219.2997
 30
0.0
 10
42.611800000000002
 20
219.22550000000001
 30
0.0
 10
42.479700000000001
 20
219.0933
 30
0.0
 10
42.479700000000001
 20
219.0933
 30
0.0
 10
42.347700000000003
 20
218.96100000000001
 30
0.0
 10
42.273400000000002
 20
218.7818
 30
0.0
 10
42.273400000000002
 20
218.5949
 30
0.0
  0
SPLINE
  5
8B
100
AcDbEntity
  8
RÚteg 1
100
AcDbSpline
210
0.0
220
0.0
230
1.0
 70
     0
 71
     3
 72
     8
 73
     4
 74
     0
 42
0.0000000001
 43
0.0000000001
 40
0.0
 40
0.0
 40
0.0
 40
0.0
 40
1.0
 40
1.0
 40
1.0
 40
1.0
 10
42.273400000000002
 20
218.5949
 30
0.0
 10
42.273400000000002
 20
218.5949
 30
0.0
 10
42.273400000000002
 20
211.5496
 30
0.0
 10
42.273400000000002
 20
211.5496
 30
0.0
  0
SPLINE
  5
8C
100
AcDbEntity
  8
RÚteg 1
100
AcDbSpline
210
0.0
220
0.0
230
1.0
 70
     0
 71
     3
 72
    12
 73
     8
 74
     0
 42
0.0000000001
 43
0.0000000001
 40
0.0
 40
0.0
 40
0.0
 40
0.0
 40
0.5
 40
0.5
 40
0.5
 40
0.5
 40
1.0
 40
1.0
 40
1.0
 40
1.0
 10
42.273400000000002
 20
211.5496
 30
0.0
 10
42.273400000000002
 20
211.3629
 30
0.0
 10
42.347700000000003
 20
211.18340000000001
 30
0.0
 10
42.479700000000001
 20
211.0514
 30
0.0
 10
42.479700000000001
 20
211.0514
 30
0.0
 10
42.611800000000002
 20
210.91919999999999
 30
0.0
 10
42.7911
 20
210.8449
 30
0.0
 10
42.978000000000002
 20
210.8449
 30
0.0
  0
SPLINE
  5
8D
100
AcDbEntity
  8
RÚteg 1
100
AcDbSpline
210
0.0
220
0.0
230
1.0
 70
     0
 71
     3
 72
     8
 73
     4
 74
     0
 42
0.0000000001
 43
0.0000000001
 40
0.0
 40
0.0
 40
0.0
 40
0.0
 40
1.0
 40
1.0
 40
1.0
 40
1.0
 10
42.978000000000002
 20
210.8449
 30
0.0
 10
42.978000000000002
 20
210.8449
 30
0.0
 10
50.023499999999999
 20
210.8449
 30
0.0
 10
50.023499999999999
 20
210.8449
 30
0.0
  0
SPLINE
  5
8E
100
AcDbEntity
  8
RÚteg 1
100
AcDbSpline
210
0.0
220
0.0
230
1.0
 70
     0
 71
     3
 72
     8
 73
     4
 74
     0
 42
0.0000000001
 43
0.0000000001
 40
0.0
 40
0.0
 40
0.0
 40
0.0
 40
1.0
 40
1.0
 40
1.0
 40
1.0
 10
50.023499999999999
 20
210.8449
 30
0.0
 10
50.412599999999998
 20
210.8449
 30
0.0
 10
50.728099999999998
 20
211.16040000000001
 30
0.0
 10
50.728099999999998
 20
211.5496
 30
0.0
  0
SPLINE
  5
8F
100
AcDbEntity
  8
RÚteg 1
100
AcDbSpline
210
0.0
220
0.0
230
1.0
 70
     0
 71
     3
 72
     8
 73
     4
 74
     0
 42
0.0000000001
 43
0.0000000001
 40
0.0
 40
0.0
 40
0.0
 40
0.0
 40
1.0
 40
1.0
 40
1.0
 40
1.0
 10
76.091800000000006
 20
211.5496
 30
0.0
 10
76.091800000000006
 20
211.5496
 30
0.0
 10
76.091800000000006
 20
218.5949
 30
0.0
 10
76.091800000000006
 20
218.5949
 30
0.0
  0
SPLINE
  5
90
100
AcDbEntity
  8
RÚteg 1
100
AcDbSpline
210
0.0
220
0.0
230
1.0
 70
     0
 71
     3
 72
    12
 73
     8
 74
     0
 42
0.0000000001
 43
0.0000000001
 40
0.0
 40
0.0
 40
0.0
 40
0.0
 40
0.5
 40
0.5
 40
0.5
 40
0.5
 40
1.0
 40
1.0
 40
1.0
 40
1.0
 10
76.091800000000006
 20
218.5949
 30
0.0
 10
76.091800000000006
 20
218.7818
 30
0.0
 10
76.017600000000002
 20
218.96100000000001
 30
0.0
 10
75.885400000000004
 20
219.0933
 30
0.0
 10
75.885400000000004
 20
219.0933
 30
0.0
 10
75.753200000000007
 20
219.22550000000001
 30
0.0
 10
75.573999999999998
 20
219.2997
 30
0.0
 10
75.387100000000004
 20
219.2997
 30
0.0
  0
SPLINE
  5
91
100
AcDbEntity
  8
RÚteg 1
100
AcDbSpline
210
0.0
220
0.0
230
1.0
 70
     0
 71
     3
 72
    12
 73
     8
 74
     0
 42
0.0000000001
 43
0.0000000001
 40
0.0
 40
0.0
 40
0.0
 40
0.0
 40
0.5
 40
0.5
 40
0.5
 40
0.5
 40
1.0
 40
1.0
 40
1.0
 40
1.0
 10
68.341700000000003
 20
219.2997
 30
0.0
 10
68.154899999999998
 20
219.2997
 30
0.0
 10
67.975499999999997
 20
219.22550000000001
 30
0.0
 10
67.843599999999995
 20
219.0933
 30
0.0
 10
67.843599999999995
 20
219.0933
 30
0.0
 10
67.711600000000004
 20
218.96100000000001
 30
0.0
 10
67.637200000000007
 20
218.7818
 30
0.0
 10
67.637200000000007
 20
218.5949
 30
0.0
  0
SPLINE
  5
92
100
AcDbEntity
  8
RÚteg 1
100
AcDbSpline
210
0.0
220
0.0
230
1.0
 70
     0
 71
     3
 72
     8
 73
     4
 74
     0
 42
0.0000000001
 43
0.0000000001
 40
0.0
 40
0.0
 40
0.0
 40
0.0
 40
1.0
 40
1.0
 40
1.0
 40
1.0
 10
67.637200000000007
 20
218.5949
 30
0.0
 10
67.637200000000007
 20
218.5949
 30
0.0
 10
67.637200000000007
 20
211.5496
 30
0.0
 10
67.637200000000007
 20
211.5496
 30
0.0
  0
SPLINE
  5
93
100
AcDbEntity
  8
RÚteg 1
100
AcDbSpline
210
0.0
220
0.0
230
1.0
 70
     0
 71
     3
 72
    12
 73
     8
 74
     0
 42
0.0000000001
 43
0.0000000001
 40
0.0
 40
0.0
 40
0.0
 40
0.0
 40
0.5
 40
0.5
 40
0.5
 40
0.5
 40
1.0
 40
1.0
 40
1.0
 40
1.0
 10
67.637200000000007
 20
211.5496
 30
0.0
 10
67.637200000000007
 20
211.3629
 30
0.0
 10
67.711600000000004
 20
211.18340000000001
 30
0.0
 10
67.843599999999995
 20
211.0514
 30
0.0
 10
67.843599999999995
 20
211.0514
 30
0.0
 10
67.975499999999997
 20
210.91919999999999
 30
0.0
 10
68.154899999999998
 20
210.8449
 30
0.0
 10
68.341700000000003
 20
210.8449
 30
0.0
  0
SPLINE
  5
94
100
AcDbEntity
  8
RÚteg 1
100
AcDbSpline
210
0.0
220
0.0
230
1.0
 70
     0
 71
     3
 72
     8
 73
     4
 74
     0
 42
0.0000000001
 43
0.0000000001
 40
0.0
 40
0.0
 40
0.0
 40
0.0
 40
1.0
 40
1.0
 40
1.0
 40
1.0
 10
68.341700000000003
 20
210.8449
 30
0.0
 10
68.341700000000003
 20
210.8449
 30
0.0
 10
75.387100000000004
 20
210.8449
 30
0.0
 10
75.387100000000004
 20
210.8449
 30
0.0
  0
SPLINE
  5
95
100
AcDbEntity
  8
RÚteg 1
100
AcDbSpline
210
0.0
220
0.0
230
1.0
 70
     0
 71
     3
 72
     8
 73
     4
 74
     0
 42
0.0000000001
 43
0.0000000001
 40
0.0
 40
0.0
 40
0.0
 40
0.0
 40
1.0
 40
1.0
 40
1.0
 40
1.0
 10
75.387100000000004
 20
210.8449
 30
0.0
 10
75.776200000000003
 20
210.8449
 30
0.0
 10
76.091800000000006
 20
211.16040000000001
 30
0.0
 10
76.091800000000006
 20
211.5496
 30
0.0
  0
SPLINE
  5
96
100
AcDbEntity
  8
RÚteg 1
100
AcDbSpline
210
0.0
220
0.0
230
1.0
 70
     0
 71
     3
 72
    24
 73
    20
 74
     0
 42
0.0000000001
 43
0.0000000001
 40
0.0
 40
0.0
 40
0.0
 40
0.0
 40
0.2
 40
0.2
 40
0.2
 40
0.2
 40
0.4
 40
0.4
 40
0.4
 40
0.4
 40
0.6000000000000001
 40
0.6000000000000001
 40
0.6000000000000001
 40
0.6000000000000001
 40
0.8
 40
0.8
 40
0.8
 40
0.8
 40
1.0
 40
1.0
 40
1.0
 40
1.0
 10
42.978000000000002
 20
219.2997
 30
0.0
 10
42.978000000000002
 20
219.2997
 30
0.0
 10
45.056399999999996
 20
219.2997
 30
0.0
 10
45.056399999999996
 20
219.2997
 30
0.0
 10
45.056399999999996
 20
219.2997
 30
0.0
 10
45.056399999999996
 20
219.2997
 30
0.0
 10
45.056399999999996
 20
215.03710000000001
 30
0.0
 10
45.056399999999996
 20
215.03710000000001
 30
0.0
 10
45.056399999999996
 20
215.03710000000001
 30
0.0
 10
45.056399999999996
 20
215.03710000000001
 30
0.0
 10
47.945300000000003
 20
215.03710000000001
 30
0.0
 10
47.945300000000003
 20
215.03710000000001
 30
0.0
 10
47.945300000000003
 20
215.03710000000001
 30
0.0
 10
47.945300000000003
 20
215.03710000000001
 30
0.0
 10
47.945300000000003
 20
219.2997
 30
0.0
 10
47.945300000000003
 20
219.2997
 30
0.0
 10
47.945300000000003
 20
219.2997
 30
0.0
 10
47.945300000000003
 20
219.2997
 30
0.0
 10
50.023499999999999
 20
219.2997
 30
0.0
 10
50.023499999999999
 20
219.2997
 30
0.0
  0
SPLINE
  5
97
100
AcDbEntity
  8
RÚteg 1
100
AcDbSpline
210
0.0
220
0.0
230
1.0
 70
     0
 71
     3
 72
    24
 73
    20
 74
     0
 42
0.0000000001
 43
0.0000000001
 40
0.0
 40
0.0
 40
0.0
 40
0.0
 40
0.2
 40
0.2
 40
0.2
 40
0.2
 40
0.4
 40
0.4
 40
0.4
 40
0.4
 40
0.6000000000000001
 40
0.6000000000000001
 40
0.6000000000000001
 40
0.6000000000000001
 40
0.8
 40
0.8
 40
0.8
 40
0.8
 40
1.0
 40
1.0
 40
1.0
 40
1.0
 10
51.432600000000001
 20
219.2997
 30
0.0
 10
51.432600000000001
 20
219.2997
 30
0.0
 10
53.510899999999999
 20
219.2997
 30
0.0
 10
53.510899999999999
 20
219.2997
 30
0.0
 10
53.510899999999999
 20
219.2997
 30
0.0
 10
53.510899999999999
 20
219.2997
 30
0.0
 10
53.510899999999999
 20
215.03710000000001
 30
0.0
 10
53.510899999999999
 20
215.03710000000001
 30
0.0
 10
53.510899999999999
 20
215.03710000000001
 30
0.0
 10
53.510899999999999
 20
215.03710000000001
 30
0.0
 10
56.399700000000003
 20
215.03710000000001
 30
0.0
 10
56.399700000000003
 20
215.03710000000001
 30
0.0
 10
56.399700000000003
 20
215.03710000000001
 30
0.0
 10
56.399700000000003
 20
215.03710000000001
 30
0.0
 10
56.399700000000003
 20
219.2997
 30
0.0
 10
56.399700000000003
 20
219.2997
 30
0.0
 10
56.399700000000003
 20
219.2997
 30
0.0
 10
56.399700000000003
 20
219.2997
 30
0.0
 10
58.477899999999998
 20
219.2997
 30
0.0
 10
58.477899999999998
 20
219.2997
 30
0.0
  0
SPLINE
  5
98
100
AcDbEntity
  8
RÚteg 1
100
AcDbSpline
210
0.0
220
0.0
230
1.0
 70
     0
 71
     3
 72
    24
 73
    20
 74
     0
 42
0.0000000001
 43
0.0000000001
 40
0.0
 40
0.0
 40
0.0
 40
0.0
 40
0.2
 40
0.2
 40
0.2
 40
0.2
 40
0.4
 40
0.4
 40
0.4
 40
0.4
 40
0.6000000000000001
 40
0.6000000000000001
 40
0.6000000000000001
 40
0.6000000000000001
 40
0.8
 40
0.8
 40
0.8
 40
0.8
 40
1.0
 40
1.0
 40
1.0
 40
1.0
 10
59.887099999999997
 20
219.2997
 30
0.0
 10
59.887099999999997
 20
219.2997
 30
0.0
 10
61.965499999999999
 20
219.2997
 30
0.0
 10
61.965499999999999
 20
219.2997
 30
0.0
 10
61.965499999999999
 20
219.2997
 30
0.0
 10
61.965499999999999
 20
219.2997
 30
0.0
 10
61.965499999999999
 20
215.03710000000001
 30
0.0
 10
61.965499999999999
 20
215.03710000000001
 30
0.0
 10
61.965499999999999
 20
215.03710000000001
 30
0.0
 10
61.965499999999999
 20
215.03710000000001
 30
0.0
 10
64.854100000000003
 20
215.03710000000001
 30
0.0
 10
64.854100000000003
 20
215.03710000000001
 30
0.0
 10
64.854100000000003
 20
215.03710000000001
 30
0.0
 10
64.854100000000003
 20
215.03710000000001
 30
0.0
 10
64.854100000000003
 20
219.2997
 30
0.0
 10
64.854100000000003
 20
219.2997
 30
0.0
 10
64.854100000000003
 20
219.2997
 30
0.0
 10
64.854100000000003
 20
219.2997
 30
0.0
 10
66.932599999999994
 20
219.2997
 30
0.0
 10
66.932599999999994
 20
219.2997
 30
0.0
  0
SPLINE
  5
99
100
AcDbEntity
  8
RÚteg 1
100
AcDbSpline
210
0.0
220
0.0
230
1.0
 70
     0
 71
     3
 72
    24
 73
    20
 74
     0
 42
0.0000000001
 43
0.0000000001
 40
0.0
 40
0.0
 40
0.0
 40
0.0
 40
0.2
 40
0.2
 40
0.2
 40
0.2
 40
0.4
 40
0.4
 40
0.4
 40
0.4
 40
0.6000000000000001
 40
0.6000000000000001
 40
0.6000000000000001
 40
0.6000000000000001
 40
0.8
 40
0.8
 40
0.8
 40
0.8
 40
1.0
 40
1.0
 40
1.0
 40
1.0
 10
75.387100000000004
 20
219.2997
 30
0.0
 10
75.387100000000004
 20
219.2997
 30
0.0
 10
73.308899999999994
 20
219.2997
 30
0.0
 10
73.308899999999994
 20
219.2997
 30
0.0
 10
73.308899999999994
 20
219.2997
 30
0.0
 10
73.308899999999994
 20
219.2997
 30
0.0
 10
73.308899999999994
 20
215.03710000000001
 30
0.0
 10
73.308899999999994
 20
215.03710000000001
 30
0.0
 10
73.308899999999994
 20
215.03710000000001
 30
0.0
 10
73.308899999999994
 20
215.03710000000001
 30
0.0
 10
70.420199999999994
 20
215.03710000000001
 30
0.0
 10
70.420199999999994
 20
215.03710000000001
 30
0.0
 10
70.420199999999994
 20
215.03710000000001
 30
0.0
 10
70.420199999999994
 20
215.03710000000001
 30
0.0
 10
70.420199999999994
 20
219.2997
 30
0.0
 10
70.420199999999994
 20
219.2997
 30
0.0
 10
70.420199999999994
 20
219.2997
 30
0.0
 10
70.420199999999994
 20
219.2997
 30
0.0
 10
68.341700000000003
 20
219.2997
 30
0.0
 10
68.341700000000003
 20
219.2997
 30
0.0
  0
SPLINE
  5
9A
100
AcDbEntity
  8
RÚteg 1
100
AcDbSpline
210
0.0
220
0.0
230
1.0
 70
     1
 71
     3
 72
    16
 73
    12
 74
     0
 42
0.0000000001
 43
0.0000000001
 40
0.0
 40
0.0
 40
0.0
 40
0.0
 40
0.3333333333333333
 40
0.3333333333333333
 40
0.3333333333333333
 40
0.3333333333333333
 40
0.6666666666666666
 40
0.6666666666666666
 40
0.6666666666666666
 40
0.6666666666666666
 40
1.0
 40
1.0
 40
1.0
 40
1.0
 10
16.1539
 20
218.15129999999999
 30
0.0
 10
14.0375
 20
213.0402
 30
0.0
 10
19.360800000000001
 20
208.08770000000001
 30
0.0
 10
24.2682
 20
210.4727
 30
0.0
 10
24.2682
 20
210.4727
 30
0.0
 10
29.124300000000002
 20
212.8331
 30
0.0
 10
28.570699999999999
 20
219.9725
 30
0.0
 10
23.399000000000001
 20
221.55019999999999
 30
0.0
 10
23.399000000000001
 20
221.55019999999999
 30
0.0
 10
20.4696
 20
222.44390000000001
 30
0.0
 10
17.350200000000001
 20
220.95650000000001
 30
0.0
 10
16.1539
 20
218.15129999999999
 30
0.0
  0
SPLINE
  5
9B
100
AcDbEntity
  8
RÚteg 1
100
AcDbSpline
210
0.0
220
0.0
230
1.0
 70
     1
 71
     3
 72
    16
 73
    12
 74
     0
 42
0.0000000001
 43
0.0000000001
 40
0.0
 40
0.0
 40
0.0
 40
0.0
 40
0.3333333333333333
 40
0.3333333333333333
 40
0.3333333333333333
 40
0.3333333333333333
 40
0.6666666666666666
 40
0.6666666666666666
 40
0.6666666666666666
 40
0.6666666666666666
 40
1.0
 40
1.0
 40
1.0
 40
1.0
 10
40.508600000000001
 20
218.15129999999999
 30
0.0
 10
42.642000000000003
 20
212.9847
 30
0.0
 10
37.216500000000003
 20
208.04759999999999
 30
0.0
 10
32.325099999999999
 20
210.50710000000001
 30
0.0
 10
32.325099999999999
 20
210.50710000000001
 30
0.0
 10
27.495999999999999
 20
212.93510000000001
 30
0.0
 10
28.148099999999999
 20
220.05619999999999
 30
0.0
 10
33.329300000000003
 20
221.56999999999999
 30
0.0
 10
33.329300000000003
 20
221.56999999999999
 30
0.0
 10
36.244100000000003
 20
222.42140000000001
 30
0.0
 10
39.322200000000002
 20
220.93360000000001
 30
0.0
 10
40.508600000000001
 20
218.15129999999999
 30
0.0
  0
SPLINE
  5
9C
100
AcDbEntity
  8
RÚteg 1
100
AcDbSpline
210
0.0
220
0.0
230
1.0
 70
     1
 71
     3
 72
    20
 73
    16
 74
     0
 42
0.0000000001
 43
0.0000000001
 40
0.0
 40
0.0
 40
0.0
 40
0.0
 40
0.25
 40
0.25
 40
0.25
 40
0.25
 40
0.5
 40
0.5
 40
0.5
 40
0.5
 40
0.75
 40
0.75
 40
0.75
 40
0.75
 40
1.0
 40
1.0
 40
1.0
 40
1.0
 10
36.449100000000001
 20
214.3964
 30
0.0
 10
36.449100000000001
 20
214.3964
 30
0.0
 10
36.449100000000001
 20
217.2852
 30
0.0
 10
36.449100000000001
 20
217.2852
 30
0.0
 10
36.449100000000001
 20
217.2852
 30
0.0
 10
36.449100000000001
 20
217.2852
 30
0.0
 10
33.560299999999998
 20
217.2852
 30
0.0
 10
33.560299999999998
 20
217.2852
 30
0.0
 10
33.560299999999998
 20
217.2852
 30
0.0
 10
33.560299999999998
 20
217.2852
 30
0.0
 10
33.560299999999998
 20
214.3964
 30
0.0
 10
33.560299999999998
 20
214.3964
 30
0.0
 10
33.560299999999998
 20
214.3964
 30
0.0
 10
33.560299999999998
 20
214.3964
 30
0.0
 10
36.449100000000001
 20
214.3964
 30
0.0
 10
36.449100000000001
 20
214.3964
 30
0.0
  0
SPLINE
  5
9D
100
AcDbEntity
  8
RÚteg 1
100
AcDbSpline
210
0.0
220
0.0
230
1.0
 70
     1
 71
     3
 72
    20
 73
    16
 74
     0
 42
0.0000000001
 43
0.0000000001
 40
0.0
 40
0.0
 40
0.0
 40
0.0
 40
0.25
 40
0.25
 40
0.25
 40
0.25
 40
0.5
 40
0.5
 40
0.5
 40
0.5
 40
0.75
 40
0.75
 40
0.75
 40
0.75
 40
1.0
 40
1.0
 40
1.0
 40
1.0
 10
20.2133
 20
214.3964
 30
0.0
 10
20.2133
 20
214.3964
 30
0.0
 10
20.2133
 20
217.2852
 30
0.0
 10
20.2133
 20
217.2852
 30
0.0
 10
20.2133
 20
217.2852
 30
0.0
 10
20.2133
 20
217.2852
 30
0.0
 10
23.101900000000001
 20
217.2852
 30
0.0
 10
23.101900000000001
 20
217.2852
 30
0.0
 10
23.101900000000001
 20
217.2852
 30
0.0
 10
23.101900000000001
 20
217.2852
 30
0.0
 10
23.101900000000001
 20
214.3964
 30
0.0
 10
23.101900000000001
 20
214.3964
 30
0.0
 10
23.101900000000001
 20
214.3964
 30
0.0
 10
23.101900000000001
 20
214.3964
 30
0.0
 10
20.2133
 20
214.3964
 30
0.0
 10
20.2133
 20
214.3964
 30
0.0
  0
ENDSEC
  0
SECTION
  2
OBJECTS
  0
DICTIONARY
  5
19
100
AcDbDictionary
280
     0
281
     1
  3
ACAD_GROUP
350
1A
  3
ACAD_MLINESTYLE
350
1B
  3
ACAD_LAYOUT
350
1E
  3
ACAD_PLOTSETTINGS
350
22
  3
ACAD_PLOTSTYLENAME
350
1F
  3
ACAD_WIPEOUT_VARS
350
23
  0
DICTIONARY
  5
1A
102
{ACAD_REACTORS
330
19
102
}
100
AcDbDictionary
280
     0
281
     1
  0
DICTIONARY
  5
1B
102
{ACAD_REACTORS
330
19
102
}
100
AcDbDictionary
280
     0
281
     1
  3
Standard
350
1C
  0
MLINESTYLE
  5
1C
102
{ACAD_REACTORS
330
1B
102
}
100
AcDbMlineStyle
  2
Standard
 70
     0
  3

 62
     0
 51
90.0
 52
90.0
 71
     2
 49
0.5
 62
   256
  6
BYLAYER
 49
-0.5
 62
   256
  6
BYLAYER
  0
ACDBDICTIONARYWDFLT
  5
1F
102
{ACAD_REACTORS
330
19
102
}
100
AcDbDictionary
281
     1
  3
Normal
350
1D
100
AcDbDictionaryWithDefault
340
1D
  0
ACDBPLACEHOLDER
  5
1D
102
{ACAD_REACTORS
330
1F
102
}
  0
LAYOUT
  5
20
102
{ACAD_REACTORS
330
1E
102
}
100
AcDbPlotSettings
  1

  2

  4

  6

 40
0.0
 41
0.0
 42
0.0
 43
0.0
 44
0.0
 45
0.0
 46
0.0
 47
0.0
 48
0.0
 49
0.0
140
0.0
141
0.0
142
1.0
143
1.0
 70
  1024
 72
     0
 73
     0
 74
     0
  7

 75
     0
147
1.0
148
0.0
149
0.0
100
AcDbLayout
  1
Model
 70
     0
 71
     0
 10
0.0
 20
0.0
 11
0.0
 21
0.0
 12
0.0
 22
0.0
 32
0.0
 14
0.0
 24
0.0
 34
0.0
 15
0.0
 25
0.0
 35
0.0
146
0.0
 13
0.0
 23
0.0
 33
0.0
 16
0.0
 26
0.0
 36
0.0
 17
0.0
 27
0.0
 37
0.0
 76
     0
330
A
331
0
345
0
346
0
  0
LAYOUT
  5
21
102
{ACAD_REACTORS
330
1E
102
}
100
AcDbPlotSettings
  1

  2

  4

  6

 40
0.0
 41
0.0
 42
0.0
 43
0.0
 44
0.0
 45
0.0
 46
0.0
 47
0.0
 48
0.0
 49
0.0
140
0.0
141
0.0
142
1.0
143
1.0
 70
     0
 72
     0
 73
     0
 74
     0
  7

 75
     0
147
1.0
148
0.0
149
0.0
100
AcDbLayout
  1
Layout1
 70
     0
 71
     0
 10
0.0
 20
0.0
 11
0.0
 21
0.0
 12
0.0
 22
0.0
 32
0.0
 14
0.0
 24
0.0
 34
0.0
 15
0.0
 25
0.0
 35
0.0
146
0.0
 13
0.0
 23
0.0
 33
0.0
 16
0.0
 26
0.0
 36
0.0
 17
0.0
 27
0.0
 37
0.0
 76
     0
330
B
331
0
345
0
346
0
  0
DICTIONARY
  5
1E
102
{ACAD_REACTORS
330
19
102
}
100
AcDbDictionary
280
     0
281
     1
  3
Layout1
350
21
  3
Model
350
20
  0
DICTIONARY
  5
22
102
{ACAD_REACTORS
330
19
102
}
100
AcDbDictionary
280
     0
281
     1
  0
WIPEOUTVARIABLES
  5
23
100
AcDbWipeoutVariables
 70
     1
  0
ENDSEC
  0
EOF
