  0
SECTION
  2
HEADER
  9
$ACADVER
  1
AC1015
  9
$ACADMAINTVER
 70
     6
  9
$DWGCODEPAGE
  3
DOS850
  9
$INSBASE
 10
0.0
 20
0.0
 30
0.0
  9
$EXTMIN
 10
176.7585
 20
67.7419
 30
1.000000E+20
  9
$EXTMAX
 10
332.0512
 20
218.4067
 30
-1.000000E+20
  9
$LIMMIN
 10
0.0
 20
0.0
  9
$LIMMAX
 10
0.0
 20
0.0
  9
$ORTHOMODE
 70
     0
  9
$REGENMODE
 70
     1
  9
$FILLMODE
 70
     1
  9
$QTEXTMODE
 70
     0
  9
$MIRRTEXT
 70
     1
  9
$LTSCALE
 40
1.0
  9
$ATTMODE
 70
     1
  9
$TEXTSIZE
 40
0.2
  9
$TRACEWID
 40
0.05
  9
$TEXTSTYLE
  7
Standard
  9
$CLAYER
  8
0
  9
$CELTYPE
  6
Continuous
  9
$CECOLOR
 62
   256
  9
$CELTSCALE
 40
1.0
  9
$DISPSILH
 70
     0
  9
$DIMSCALE
 40
1.0
  9
$DIMASZ
 40
0.18
  9
$DIMEXO
 40
0.0625
  9
$DIMDLI
 40
0.38
  9
$DIMRND
 40
0.0
  9
$DIMDLE
 40
0.0
  9
$DIMEXE
 40
0.18
  9
$DIMTP
 40
0.0
  9
$DIMTM
 40
0.0
  9
$DIMTXT
 40
0.18
  9
$DIMCEN
 40
0.09
  9
$DIMTSZ
 40
0.0
  9
$DIMTOL
 70
     0
  9
$DIMLIM
 70
     0
  9
$DIMTIH
 70
     1
  9
$DIMTOH
 70
     1
  9
$DIMSE1
 70
     0
  9
$DIMSE2
 70
     0
  9
$DIMTAD
 70
     0
  9
$DIMZIN
 70
     0
  9
$DIMBLK
  1

  9
$DIMASO
 70
     1
  9
$DIMSHO
 70
     1
  9
$DIMPOST
  1

  9
$DIMAPOST
  1

  9
$DIMALT
 70
     0
  9
$DIMALTD
 70
     2
  9
$DIMALTF
 40
25.4
  9
$DIMLFAC
 40
1.0
  9
$DIMTOFL
 70
     0
  9
$DIMTVP
 40
0.0
  9
$DIMTIX
 70
     0
  9
$DIMSOXD
 70
     0
  9
$DIMSAH
 70
     0
  9
$DIMBLK1
  1

  9
$DIMBLK2
  1

  9
$DIMSTYLE
  2
Standard
  9
$DIMCLRD
 70
     0
  9
$DIMCLRE
 70
     0
  9
$DIMCLRT
 70
     0
  9
$DIMTFAC
 40
1.0
  9
$DIMGAP
 40
0.09
  9
$DIMJUST
 70
     0
  9
$DIMSD1
 70
     0
  9
$DIMSD2
 70
     0
  9
$DIMTOLJ
 70
     1
  9
$DIMTZIN
 70
     0
  9
$DIMALTZ
 70
     0
  9
$DIMALTTZ
 70
     0
  9
$DIMUPT
 70
     0
  9
$DIMDEC
 70
     4
  9
$DIMTDEC
 70
     4
  9
$DIMALTU
 70
     2
  9
$DIMALTTD
 70
     2
  9
$DIMTXSTY
  7
Standard
  9
$DIMAUNIT
 70
     0
  9
$DIMADEC
 70
     0
  9
$DIMALTRND
 40
0.0
  9
$DIMAZIN
 70
     0
  9
$DIMDSEP
 70
     0
  9
$DIMATFIT
 70
     3
  9
$DIMFRAC
 70
     0
  9
$DIMLDRBLK
  1

  9
$DIMLUNIT
 70
     2
  9
$DIMLWD
 70
     0
  9
$DIMLWE
 70
     0
  9
$DIMTMOVE
 70
     0
  9
$LUNITS
 70
     2
  9
$LUPREC
 70
     4
  9
$SKETCHINC
 40
0.1
  9
$FILLETRAD
 40
0.0
  9
$AUNITS
 70
     0
  9
$AUPREC
 70
     0
  9
$MENU
  1
acad
  9
$ELEVATION
 40
0.0
  9
$PELEVATION
 40
0.0
  9
$THICKNESS
 40
0.0
  9
$LIMCHECK
 70
     0
  9
$CHAMFERA
 40
0.0
  9
$CHAMFERB
 40
0.0
  9
$CHAMFERC
 40
0.0
  9
$CHAMFERD
 40
0.0
  9
$SKPOLY
 70
     0
  9
$TDCREATE
 40
0.000000000
  9
$TDUCREATE
 40
0.000000000
  9
$TDUPDATE
 40
0.000000000
  9
$TDUUPDATE
 40
0.000000000
  9
$TDINDWG
 40
0.0000000000
  9
$TDUSRTIMER
 40
0.0000000000
  9
$USRTIMER
 70
     1
  9
$ANGBASE
 50
0.0
  9
$ANGDIR
 70
     0
  9
$PDMODE
 70
     0
  9
$PDSIZE
 40
0.0
  9
$PLINEWID
 40
0.0
  9
$SPLFRAME
 70
     0
  9
$SPLINETYPE
 70
     6
  9
$SPLINESEGS
 70
     8
  9
$HANDSEED
  5
65
  9
$SURFTAB1
 70
     6
  9
$SURFTAB2
 70
     6
  9
$SURFTYPE
 70
     6
  9
$SURFU
 70
     6
  9
$SURFV
 70
     6
  9
$UCSBASE
  2

  9
$UCSNAME
  2

  9
$UCSORG
 10
0.0
 20
0.0
 30
0.0
  9
$UCSXDIR
 10
1.0
 20
0.0
 30
0.0
  9
$UCSYDIR
 10
0.0
 20
1.0
 30
0.0
  9
$UCSORTHOREF
  2

  9
$UCSORTHOVIEW
 70
     0
  9
$UCSORGTOP
 10
0.0
 20
0.0
 30
0.0
  9
$UCSORGBOTTOM
 10
0.0
 20
0.0
 30
0.0
  9
$UCSORGLEFT
 10
0.0
 20
0.0
 30
0.0
  9
$UCSORGRIGHT
 10
0.0
 20
0.0
 30
0.0
  9
$UCSORGFRONT
 10
0.0
 20
0.0
 30
0.0
  9
$UCSORGBACK
 10
0.0
 20
0.0
 30
0.0
  9
$PUCSBASE
  2

  9
$PUCSNAME
  2

  9
$PUCSORG
 10
0.0
 20
0.0
 30
0.0
  9
$PUCSXDIR
 10
1.0
 20
0.0
 30
0.0
  9
$PUCSYDIR
 10
0.0
 20
1.0
 30
0.0
  9
$PUCSORTHOREF
  2

  9
$PUCSORTHOVIEW
 70
     0
  9
$PUCSORGTOP
 10
0.0
 20
0.0
 30
0.0
  9
$PUCSORGBOTTOM
 10
0.0
 20
0.0
 30
0.0
  9
$PUCSORGLEFT
 10
0.0
 20
0.0
 30
0.0
  9
$PUCSORGRIGHT
 10
0.0
 20
0.0
 30
0.0
  9
$PUCSORGFRONT
 10
0.0
 20
0.0
 30
0.0
  9
$PUCSORGBACK
 10
0.0
 20
0.0
 30
0.0
  9
$USERI1
 70
     0
  9
$USERI2
 70
     0
  9
$USERI3
 70
     0
  9
$USERI4
 70
     0
  9
$USERI5
 70
     0
  9
$USERR1
 40
0.0
  9
$USERR2
 40
0.0
  9
$USERR3
 40
0.0
  9
$USERR4
 40
0.0
  9
$USERR5
 40
0.0
  9
$WORLDVIEW
 70
     1
  9
$SHADEDGE
 70
     3
  9
$SHADEDIF
 70
    70
  9
$TILEMODE
 70
     1
  9
$MAXACTVP
 70
    16
  9
$PINSBASE
 10
0.0
 20
0.0
 30
0.0
  9
$PLIMCHECK
 70
     0
  9
$PEXTMIN
 10
1.000000E+20
 20
1.000000E+20
 30
1.000000E+20
  9
$PEXTMAX
 10
-1.000000E+20
 20
-1.000000E+20
 30
-1.000000E+20
  9
$PLIMMIN
 10
0.0
 20
0.0
  9
$PLIMMAX
 10
12.0
 20
9.0
  9
$UNITMODE
 70
     0
  9
$VISRETAIN
 70
     0
  9
$PLINEGEN
 70
     1
  9
$PSLTSCALE
 70
     0
  9
$TREEDEPTH
 70
  3020
  9
$CMLSTYLE
  2
Standard
  9
$CMLJUST
 70
     0
  9
$CMLSCALE
 40
1.0
  9
$PROXYGRAPHICS
 70
     0
  9
$MEASUREMENT
 70
     0
  9
$CELWEIGHT
370
     0
  9
$ENDCAPS
280
     0
  9
$JOINSTYLE
280
     0
  9
$LWDISPLAY
290
     0
  9
$INSUNITS
 70
     4
  9
$HYPERLINKBASE
  1

  9
$XEDIT
290
     1
  9
$CEPSNTYPE
380
     0
  9
$PSTYLEMODE
290
     1
  9
$FINGERPRINTGUID
  2

  9
$VERSIONGUID
  2

  9
$EXTNAMES
290
     1
  9
$PSVPSCALE
 40
0.0
  0
ENDSEC
  0
SECTION
  2
CLASSES
  0
CLASS
  1
LWPOLYLINE
  2
AcDbPolyline
  3
AutoCAD 2000
 90
    32768
280
     0
281
     1
  0
CLASS
  1
IMAGE
  2
AcDbRasterImage
  3
ISM
 90
    32895
280
     0
281
     1
  0
CLASS
  1
OLE2FRAME
  2
AcDbOle2Frame
  3
AutoCAD 2000
 90
    32768
280
     0
281
     1
  0
CLASS
  1
HATCH
  2
AcDbHatch
  3
AutoCAD 2000
 90
    32768
280
     0
281
     1
  0
CLASS
  1
DICTIONARYVAR
  2
AcDbDictionaryVar
  3
AutoCAD 2000
 90
    32768
280
     0
281
     0
  0
CLASS
  1
RASTERVARIABLES
  2
AcDbRasterVariables
  3
ISM
 90
    32768
280
     0
281
     0
  0
CLASS
  1
IMAGEDEF
  2
AcDbRasterImageDef
  3
ISM
 90
    32768
280
     0
281
     0
  0
CLASS
  1
IMAGEDEF_REACTOR
  2
AcDbRasterImageDefReactor
  3
ISM
 90
    32769
280
     0
281
     0
  0
CLASS
  1
IDBUFFER
  2
AcDbIdBuffer
  3
AutoCAD 2000
 90
    32768
280
     0
281
     0
  0
CLASS
  1
SPATIAL_FILTER
  2
AcDbSpatialFilter
  3
AutoCAD 2000
 90
    32768
280
     0
281
     0
  0
CLASS
  1
XRECORD
  2
AcDbXrecord
  3
AutoCAD 2000
 90
    32768
280
     0
281
     0
  0
CLASS
  1
SORTENTSTABLE
  2
AcDbSortentsTable
  3
AutoCAD 2000
 90
    32768
280
     0
281
     0
  0
CLASS
  1
LAYER_INDEX
  2
AcDbLayerIndex
  3
AutoCAD 2000
 90
    32768
280
     0
281
     0
  0
CLASS
  1
SPATIAL_INDEX
  2
AcDbSpatialIndex
  3
AutoCAD 2000
 90
    32768
280
     0
281
     0
  0
CLASS
  1
OBJECT_PTR
  2
CAseDLPNTableRecord
  3
"ASE-LPNTableRecord"
 90
    32769
280
     0
281
     0
  0
CLASS
  1
LAYOUT
  2
AcDbLayout
  3
AutoCAD 2000
 90
        0
280
     0
281
     0
  0
CLASS
  1
PLOTSETTINGS
  2
AcDbPlotSettings
  3
AutoCAD 2000
 90
    32768
280
     0
281
     0
  0
CLASS
  1
ACDBDICTIONARYWDFLT
  2
AcDbDictionaryWithDefault
  3
AutoCAD 2000
 90
        0
280
     0
281
     0
  0
CLASS
  1
ACDBPLACEHOLDER
  2
AcDbPlaceHolder
  3
AutoCAD 2000
 90
        0
280
     0
281
     0
  0
CLASS
  1
VBA_PROJECT
  2
AcDbVbaProject
  3
acadvba
 90
    32768
280
     0
281
     0
  0
CLASS
  1
WIPEOUT
  2
AcDbWipeout
  3
WipeOut|AutoCAD Express Tool|expresstools@autodesk.com
 90
    32895
280
     0
281
     1
  0
CLASS
  1
WIPEOUTVARIABLES
  2
AcDbWipeoutVariables
  3
WipeOut|AutoCAD Express Tool|expresstools@autodesk.com
 90
        0
280
     0
281
     0
  0
CLASS
  1
RTEXT
  2
RText
  3
RText|AutoCAD Express Tool|expresstools@autodesk.com
 90
    32768
280
     0
281
     1
  0
CLASS
  1
ARCALIGNEDTEXT
  2
AcDbArcAlignedText
  3
ATEXT|AutoCAD Express Tool|expresstools@autodesk.com
 90
    32768
280
     0
281
     1
  0
ENDSEC
  0
SECTION
  2
TABLES
  0
TABLE
  2
VPORT
  5
7
100
AcDbSymbolTable
 70
     1
  0
VPORT
  5
15
100
AcDbSymbolTableRecord
100
AcDbViewportTableRecord
  2
*ACTIVE
 70
     0
 10
0.0
 20
0.0
 11
1.0
 21
1.0
 12
6.591288
 22
4.579184
 13
0.0
 23
0.0
 14
1.0
 24
1.0
 15
0.0
 25
0.0
 16
0.0
 26
0.0
 36
1.0
 17
0.0
 27
0.0
 37
0.0
 40
9.158369
 41
0.688564
 42
50.0
 43
0.0
 44
0.0
 50
0.0
 51
0.0
 71
     0
 72
   100
 73
     1
 74
     1
 75
     0
 76
     0
 77
     0
 78
     0
281
     0
 65
     0
110
0.0
120
0.0
130
0.0
111
1.0
121
0.0
131
0.0
112
0.0
122
1.0
132
0.0
345
0
346
0
 79
     0
146
0.0
  0
ENDTAB
  0
TABLE
  2
LTYPE
  5
4
100
AcDbSymbolTable
 70
     3
  0
LTYPE
  5
11
100
AcDbSymbolTableRecord
100
AcDbLinetypeTableRecord
  2
ByBlock
 70
    64
  3

 72
    65
 73
     0
 40
0.0
  0
LTYPE
  5
12
100
AcDbSymbolTableRecord
100
AcDbLinetypeTableRecord
  2
ByLayer
 70
    64
  3

 72
    65
 73
     0
 40
0.0
  0
LTYPE
  5
13
100
AcDbSymbolTableRecord
100
AcDbLinetypeTableRecord
  2
Continuous
 70
    64
  3
Solid line
 72
    65
 73
     0
 40
0.0
  0
ENDTAB
  0
TABLE
  2
LAYER
  5
2
100
AcDbSymbolTable
 70
     2
  0
LAYER
  5
14
100
AcDbSymbolTableRecord
100
AcDbLayerTableRecord
  2
0
 70
     0
 62
     7
  6
Continuous
290
     1
370
    -3
390
1D
  0
LAYER
  5
24
100
AcDbSymbolTableRecord
100
AcDbLayerTableRecord
  2
RÚteg 1
 70
     0
 62
     7
  6
Continuous
290
     1
370
    -3
390
1F
  0
ENDTAB
  0
TABLE
  2
STYLE
  5
3
100
AcDbSymbolTable
 70
     1
  0
STYLE
  5
17
100
AcDbSymbolTableRecord
100
AcDbTextStyleTableRecord
  2
Standard
 70
     0
 40
0.0
 41
1.0
 50
0.0
 71
     0
 42
0.0
  3
txt
  4

  0
ENDTAB
  0
TABLE
  2
VIEW
  5
5
100
AcDbSymbolTable
 70
     0
  0
ENDTAB
  0
TABLE
  2
UCS
  5
6
100
AcDbSymbolTable
 70
     0
  0
ENDTAB
  0
TABLE
  2
APPID
  5
8
100
AcDbSymbolTable
 70
     1
  0
APPID
  5
16
100
AcDbSymbolTableRecord
100
AcDbRegAppTableRecord
  2
ACAD
 70
     0
  0
ENDTAB
  0
TABLE
  2
DIMSTYLE
  5
9
100
AcDbSymbolTable
 70
     1
100
AcDbDimStyleTable
 71
     0
  0
DIMSTYLE
105
18
100
AcDbSymbolTableRecord
100
AcDbDimStyleTableRecord
  2
Standard
 70
     0
  3

  4

 40
1.0
 41
0.18
 42
0.0625
 43
0.38
 44
0.18
 45
0.0
 46
0.0
 47
0.0
 48
0.0
 71
     0
 72
     0
 73
     1
 74
     1
 75
     0
 76
     0
 77
     0
 78
     0
 79
     0
140
0.18
141
0.09
142
0.0
143
25.4
144
1.0
145
0.0
146
1.0
147
0.09
148
0.0
170
     0
171
     2
172
     0
173
     0
174
     0
175
     0
176
     0
177
     0
178
     0
179
     0
271
     4
272
     4
273
     2
274
     2
275
     0
276
     0
277
     2
278
    46
279
     0
280
     0
281
     0
282
     0
283
     1
284
     0
285
     0
286
     0
288
     0
340
17
341
0
342
0
343
0
344
0
371
    -2
372
    -2
  0
ENDTAB
  0
TABLE
  2
BLOCK_RECORD
  5
1
100
AcDbSymbolTable
 70
     0
  0
BLOCK_RECORD
  5
A
100
AcDbSymbolTableRecord
100
AcDbBlockTableRecord
  2
*MODEL_SPACE
340
20
  0
BLOCK_RECORD
  5
B
100
AcDbSymbolTableRecord
100
AcDbBlockTableRecord
  2
*PAPER_SPACE
340
21
  0
ENDTAB
  0
ENDSEC
  0
SECTION
  2
BLOCKS
  0
BLOCK
  5
D
100
AcDbEntity
  8
0
100
AcDbBlockBegin
  2
*MODEL_SPACE
 70
     0
 10
0.0
 20
0.0
 30
0.0
  3
*MODEL_SPACE
  1

  0
ENDBLK
  5
E
100
AcDbEntity
  8
0
100
AcDbBlockEnd
  0
BLOCK
  5
F
100
AcDbEntity
 67
     1
  8
0
100
AcDbBlockBegin
  2
*PAPER_SPACE
 70
     0
 10
0.0
 20
0.0
 30
0.0
  3
*PAPER_SPACE
  1

  0
ENDBLK
  5
10
100
AcDbEntity
 67
     1
  8
0
100
AcDbBlockEnd
  0
ENDSEC
  0
SECTION
  2
ENTITIES
  0
SPLINE
  5
25
100
AcDbEntity
  8
RÚteg 1
100
AcDbSpline
210
0.0
220
0.0
230
1.0
 70
     1
 71
     3
 72
    60
 73
    56
 74
     0
 42
0.0000000001
 43
0.0000000001
 40
0.0
 40
0.0
 40
0.0
 40
0.0
 40
0.0714285714285714
 40
0.0714285714285714
 40
0.0714285714285714
 40
0.0714285714285714
 40
0.1428571428571429
 40
0.1428571428571429
 40
0.1428571428571429
 40
0.1428571428571429
 40
0.2142857142857143
 40
0.2142857142857143
 40
0.2142857142857143
 40
0.2142857142857143
 40
0.2857142857142857
 40
0.2857142857142857
 40
0.2857142857142857
 40
0.2857142857142857
 40
0.3571428571428571
 40
0.3571428571428571
 40
0.3571428571428571
 40
0.3571428571428571
 40
0.4285714285714285
 40
0.4285714285714285
 40
0.4285714285714285
 40
0.4285714285714285
 40
0.4999999999999999
 40
0.4999999999999999
 40
0.4999999999999999
 40
0.4999999999999999
 40
0.5714285714285713
 40
0.5714285714285713
 40
0.5714285714285713
 40
0.5714285714285713
 40
0.6428571428571427
 40
0.6428571428571427
 40
0.6428571428571427
 40
0.6428571428571427
 40
0.7142857142857141
 40
0.7142857142857141
 40
0.7142857142857141
 40
0.7142857142857141
 40
0.7857142857142855
 40
0.7857142857142855
 40
0.7857142857142855
 40
0.7857142857142855
 40
0.8571428571428569
 40
0.8571428571428569
 40
0.8571428571428569
 40
0.8571428571428569
 40
0.9285714285714283
 40
0.9285714285714283
 40
0.9285714285714283
 40
0.9285714285714283
 40
1.0
 40
1.0
 40
1.0
 40
1.0
 10
219.97329999999999
 20
124.6828
 30
0.0
 10
219.97329999999999
 20
124.6828
 30
0.0
 10
214.4076
 20
124.6828
 30
0.0
 10
214.4076
 20
124.6828
 30
0.0
 10
214.4076
 20
124.6828
 30
0.0
 10
214.4076
 20
124.6828
 30
0.0
 10
214.4076
 20
120.6541
 30
0.0
 10
214.4076
 20
120.6541
 30
0.0
 10
214.4076
 20
120.6541
 30
0.0
 10
214.4076
 20
120.6541
 30
0.0
 10
211.44900000000001
 20
120.6541
 30
0.0
 10
211.44900000000001
 20
120.6541
 30
0.0
 10
211.44900000000001
 20
120.6541
 30
0.0
 10
211.44900000000001
 20
120.6541
 30
0.0
 10
211.44900000000001
 20
124.6828
 30
0.0
 10
211.44900000000001
 20
124.6828
 30
0.0
 10
211.44900000000001
 20
124.6828
 30
0.0
 10
211.44900000000001
 20
124.6828
 30
0.0
 10
205.8836
 20
124.6828
 30
0.0
 10
205.8836
 20
124.6828
 30
0.0
 10
205.8836
 20
124.6828
 30
0.0
 10
205.8836
 20
124.6828
 30
0.0
 10
205.8836
 20
127.50069999999999
 30
0.0
 10
205.8836
 20
127.50069999999999
 30
0.0
 10
205.8836
 20
127.50069999999999
 30
0.0
 10
205.8836
 20
127.50069999999999
 30
0.0
 10
211.44900000000001
 20
127.50069999999999
 30
0.0
 10
211.44900000000001
 20
127.50069999999999
 30
0.0
 10
211.44900000000001
 20
127.50069999999999
 30
0.0
 10
211.44900000000001
 20
127.50069999999999
 30
0.0
 10
211.44900000000001
 20
131.93780000000001
 30
0.0
 10
211.44900000000001
 20
131.93780000000001
 30
0.0
 10
211.44900000000001
 20
131.93780000000001
 30
0.0
 10
211.44900000000001
 20
131.93780000000001
 30
0.0
 10
214.4076
 20
131.93780000000001
 30
0.0
 10
214.4076
 20
131.93780000000001
 30
0.0
 10
214.4076
 20
131.93780000000001
 30
0.0
 10
214.4076
 20
131.93780000000001
 30
0.0
 10
214.4076
 20
127.50069999999999
 30
0.0
 10
214.4076
 20
127.50069999999999
 30
0.0
 10
214.4076
 20
127.50069999999999
 30
0.0
 10
214.4076
 20
127.50069999999999
 30
0.0
 10
217.15530000000001
 20
127.50069999999999
 30
0.0
 10
217.15530000000001
 20
127.50069999999999
 30
0.0
 10
217.15530000000001
 20
127.50069999999999
 30
0.0
 10
217.15530000000001
 20
127.50069999999999
 30
0.0
 10
217.15530000000001
 20
131.5292
 30
0.0
 10
217.15530000000001
 20
131.5292
 30
0.0
 10
217.15530000000001
 20
131.5292
 30
0.0
 10
217.15530000000001
 20
131.5292
 30
0.0
 10
219.97329999999999
 20
131.5292
 30
0.0
 10
219.97329999999999
 20
131.5292
 30
0.0
 10
219.97329999999999
 20
131.5292
 30
0.0
 10
219.97329999999999
 20
131.5292
 30
0.0
 10
219.97329999999999
 20
124.6828
 30
0.0
 10
219.97329999999999
 20
124.6828
 30
0.0
  0
SPLINE
  5
26
100
AcDbEntity
  8
RÚteg 1
100
AcDbSpline
210
0.0
220
0.0
230
1.0
 70
     1
 71
     3
 72
   132
 73
   128
 74
     0
 42
0.0000000001
 43
0.0000000001
 40
0.0
 40
0.0
 40
0.0
 40
0.0
 40
0.03125
 40
0.03125
 40
0.03125
 40
0.03125
 40
0.0625
 40
0.0625
 40
0.0625
 40
0.0625
 40
0.09375
 40
0.09375
 40
0.09375
 40
0.09375
 40
0.125
 40
0.125
 40
0.125
 40
0.125
 40
0.15625
 40
0.15625
 40
0.15625
 40
0.15625
 40
0.1875
 40
0.1875
 40
0.1875
 40
0.1875
 40
0.21875
 40
0.21875
 40
0.21875
 40
0.21875
 40
0.25
 40
0.25
 40
0.25
 40
0.25
 40
0.28125
 40
0.28125
 40
0.28125
 40
0.28125
 40
0.3125
 40
0.3125
 40
0.3125
 40
0.3125
 40
0.34375
 40
0.34375
 40
0.34375
 40
0.34375
 40
0.375
 40
0.375
 40
0.375
 40
0.375
 40
0.40625
 40
0.40625
 40
0.40625
 40
0.40625
 40
0.4375
 40
0.4375
 40
0.4375
 40
0.4375
 40
0.46875
 40
0.46875
 40
0.46875
 40
0.46875
 40
0.5
 40
0.5
 40
0.5
 40
0.5
 40
0.53125
 40
0.53125
 40
0.53125
 40
0.53125
 40
0.5625
 40
0.5625
 40
0.5625
 40
0.5625
 40
0.59375
 40
0.59375
 40
0.59375
 40
0.59375
 40
0.625
 40
0.625
 40
0.625
 40
0.625
 40
0.65625
 40
0.65625
 40
0.65625
 40
0.65625
 40
0.6875
 40
0.6875
 40
0.6875
 40
0.6875
 40
0.71875
 40
0.71875
 40
0.71875
 40
0.71875
 40
0.75
 40
0.75
 40
0.75
 40
0.75
 40
0.78125
 40
0.78125
 40
0.78125
 40
0.78125
 40
0.8125
 40
0.8125
 40
0.8125
 40
0.8125
 40
0.84375
 40
0.84375
 40
0.84375
 40
0.84375
 40
0.875
 40
0.875
 40
0.875
 40
0.875
 40
0.90625
 40
0.90625
 40
0.90625
 40
0.90625
 40
0.9375
 40
0.9375
 40
0.9375
 40
0.9375
 40
0.96875
 40
0.96875
 40
0.96875
 40
0.96875
 40
1.0
 40
1.0
 40
1.0
 40
1.0
 10
237.1841
 20
119.3698
 30
0.0
 10
231.54900000000001
 20
114.1515
 30
0.0
 10
222.5035
 20
118.0545
 30
0.0
 10
222.43899999999999
 20
125.73520000000001
 30
0.0
 10
222.43899999999999
 20
125.73520000000001
 30
0.0
 10
222.43899999999999
 20
125.73520000000001
 30
0.0
 10
222.43899999999999
 20
141.74430000000001
 30
0.0
 10
222.43899999999999
 20
141.74430000000001
 30
0.0
 10
222.43899999999999
 20
141.74430000000001
 30
0.0
 10
222.4074
 20
146.99780000000001
 30
0.0
 10
218.18450000000001
 20
151.22669999999999
 30
0.0
 10
212.92840000000001
 20
151.25470000000001
 30
0.0
 10
212.92840000000001
 20
151.25470000000001
 30
0.0
 10
207.67519999999999
 20
151.22669999999999
 30
0.0
 10
203.44589999999999
 20
146.9975
 30
0.0
 10
203.4179
 20
141.74430000000001
 30
0.0
 10
203.4179
 20
141.74430000000001
 30
0.0
 10
203.4179
 20
141.74430000000001
 30
0.0
 10
203.4179
 20
125.73520000000001
 30
0.0
 10
203.4179
 20
125.73520000000001
 30
0.0
 10
203.4179
 20
125.73520000000001
 30
0.0
 10
203.34970000000001
 20
118.0557
 30
0.0
 10
194.3073
 20
114.1486
 30
0.0
 10
188.67250000000001
 20
119.3698
 30
0.0
 10
188.67250000000001
 20
119.3698
 30
0.0
 10
186.3708
 20
121.53870000000001
 30
0.0
 10
182.90600000000001
 20
121.908
 30
0.0
 10
180.1987
 20
120.2728
 30
0.0
 10
180.1987
 20
120.2728
 30
0.0
 10
177.4915
 20
118.63760000000001
 30
0.0
 10
176.20599999999999
 20
115.39870000000001
 30
0.0
 10
177.05459999999999
 20
112.3522
 30
0.0
 10
177.05459999999999
 20
112.3522
 30
0.0
 10
177.9033
 20
109.30540000000001
 30
0.0
 10
180.67840000000001
 20
107.1979
 30
0.0
 10
183.84119999999999
 20
107.1979
 30
0.0
 10
183.84119999999999
 20
107.1979
 30
0.0
 10
183.84119999999999
 20
107.1979
 30
0.0
 10
192.6217
 20
107.1979
 30
0.0
 10
192.6217
 20
107.1979
 30
0.0
 10
192.6217
 20
107.1979
 30
0.0
 10
192.6217
 20
107.1979
 30
0.0
 10
192.6217
 20
102.9709
 30
0.0
 10
192.6217
 20
102.9709
 30
0.0
 10
192.6217
 20
102.9709
 30
0.0
 10
192.6217
 20
102.9709
 30
0.0
 10
189.6627
 20
102.9709
 30
0.0
 10
189.6627
 20
102.9709
 30
0.0
 10
189.6627
 20
102.9709
 30
0.0
 10
189.6627
 20
102.9709
 30
0.0
 10
189.6627
 20
101.56189999999999
 30
0.0
 10
189.6627
 20
101.56189999999999
 30
0.0
 10
189.6627
 20
101.56189999999999
 30
0.0
 10
189.6627
 20
101.56189999999999
 30
0.0
 10
186.70410000000001
 20
101.56189999999999
 30
0.0
 10
186.70410000000001
 20
101.56189999999999
 30
0.0
 10
186.70410000000001
 20
101.56189999999999
 30
0.0
 10
186.70410000000001
 20
101.56189999999999
 30
0.0
 10
186.70410000000001
 20
98.744
 30
0.0
 10
186.70410000000001
 20
98.744
 30
0.0
 10
186.70410000000001
 20
98.744
 30
0.0
 10
186.70410000000001
 20
98.744
 30
0.0
 10
189.6627
 20
98.744
 30
0.0
 10
189.6627
 20
98.744
 30
0.0
 10
189.6627
 20
98.744
 30
0.0
 10
189.6627
 20
98.744
 30
0.0
 10
189.6627
 20
97.335099999999997
 30
0.0
 10
189.6627
 20
97.335099999999997
 30
0.0
 10
189.6627
 20
97.335099999999997
 30
0.0
 10
189.6627
 20
97.335099999999997
 30
0.0
 10
192.6217
 20
97.335099999999997
 30
0.0
 10
192.6217
 20
97.335099999999997
 30
0.0
 10
192.6217
 20
97.335099999999997
 30
0.0
 10
194.0883
 20
87.162400000000005
 30
0.0
 10
202.6516
 20
79.700800000000001
 30
0.0
 10
212.92840000000001
 20
79.651700000000005
 30
0.0
 10
212.92840000000001
 20
79.651700000000005
 30
0.0
 10
223.20500000000001
 20
79.700800000000001
 30
0.0
 10
231.76849999999999
 20
87.162400000000005
 30
0.0
 10
233.23509999999999
 20
97.335099999999997
 30
0.0
 10
233.23509999999999
 20
97.335099999999997
 30
0.0
 10
233.23509999999999
 20
97.335099999999997
 30
0.0
 10
236.19380000000001
 20
97.335099999999997
 30
0.0
 10
236.19380000000001
 20
97.335099999999997
 30
0.0
 10
236.19380000000001
 20
97.335099999999997
 30
0.0
 10
236.19380000000001
 20
97.335099999999997
 30
0.0
 10
236.19380000000001
 20
98.744
 30
0.0
 10
236.19380000000001
 20
98.744
 30
0.0
 10
236.19380000000001
 20
98.744
 30
0.0
 10
236.19380000000001
 20
98.744
 30
0.0
 10
239.15260000000001
 20
98.744
 30
0.0
 10
239.15260000000001
 20
98.744
 30
0.0
 10
239.15260000000001
 20
98.744
 30
0.0
 10
239.15260000000001
 20
98.744
 30
0.0
 10
239.15260000000001
 20
101.56189999999999
 30
0.0
 10
239.15260000000001
 20
101.56189999999999
 30
0.0
 10
239.15260000000001
 20
101.56189999999999
 30
0.0
 10
239.15260000000001
 20
101.56189999999999
 30
0.0
 10
236.19380000000001
 20
101.56189999999999
 30
0.0
 10
236.19380000000001
 20
101.56189999999999
 30
0.0
 10
236.19380000000001
 20
101.56189999999999
 30
0.0
 10
236.19380000000001
 20
101.56189999999999
 30
0.0
 10
236.19380000000001
 20
102.9709
 30
0.0
 10
236.19380000000001
 20
102.9709
 30
0.0
 10
236.19380000000001
 20
102.9709
 30
0.0
 10
236.19380000000001
 20
102.9709
 30
0.0
 10
233.23509999999999
 20
102.9709
 30
0.0
 10
233.23509999999999
 20
102.9709
 30
0.0
 10
233.23509999999999
 20
102.9709
 30
0.0
 10
233.23509999999999
 20
102.9709
 30
0.0
 10
233.23509999999999
 20
107.1979
 30
0.0
 10
233.23509999999999
 20
107.1979
 30
0.0
 10
233.23509999999999
 20
107.1979
 30
0.0
 10
233.23509999999999
 20
107.1979
 30
0.0
 10
242.0155
 20
107.1979
 30
0.0
 10
242.0155
 20
107.1979
 30
0.0
 10
242.0155
 20
107.1979
 30
0.0
 10
245.1782
 20
107.1979
 30
0.0
 10
247.95310000000001
 20
109.30540000000001
 30
0.0
 10
248.80199999999999
 20
112.3522
 30
0.0
 10
248.80199999999999
 20
112.3522
 30
0.0
 10
249.6506
 20
115.39870000000001
 30
0.0
 10
248.36510000000001
 20
118.63760000000001
 30
0.0
 10
245.65790000000001
 20
120.2728
 30
0.0
 10
245.65790000000001
 20
120.2728
 30
0.0
 10
242.95089999999999
 20
121.908
 30
0.0
 10
239.48589999999999
 20
121.53870000000001
 30
0.0
 10
237.1841
 20
119.3698
 30
0.0
  0
SPLINE
  5
27
100
AcDbEntity
  8
RÚteg 1
100
AcDbSpline
210
0.0
220
0.0
230
1.0
 70
     1
 71
     3
 72
    16
 73
    12
 74
     0
 42
0.0000000001
 43
0.0000000001
 40
0.0
 40
0.0
 40
0.0
 40
0.0
 40
0.3333333333333333
 40
0.3333333333333333
 40
0.3333333333333333
 40
0.3333333333333333
 40
0.6666666666666666
 40
0.6666666666666666
 40
0.6666666666666666
 40
0.6666666666666666
 40
1.0
 40
1.0
 40
1.0
 40
1.0
 10
207.6918
 20
142.44880000000001
 30
0.0
 10
208.01679999999999
 20
144.78729999999999
 30
0.0
 10
209.88499999999999
 20
146.65610000000001
 30
0.0
 10
212.22370000000001
 20
146.98079999999999
 30
0.0
 10
212.22370000000001
 20
146.98079999999999
 30
0.0
 10
212.22370000000001
 20
146.98079999999999
 30
0.0
 10
212.22370000000001
 20
142.44880000000001
 30
0.0
 10
212.22370000000001
 20
142.44880000000001
 30
0.0
 10
212.22370000000001
 20
142.44880000000001
 30
0.0
 10
212.22370000000001
 20
142.44880000000001
 30
0.0
 10
207.6918
 20
142.44880000000001
 30
0.0
 10
207.6918
 20
142.44880000000001
 30
0.0
  0
SPLINE
  5
28
100
AcDbEntity
  8
RÚteg 1
100
AcDbSpline
210
0.0
220
0.0
230
1.0
 70
     1
 71
     3
 72
    16
 73
    12
 74
     0
 42
0.0000000001
 43
0.0000000001
 40
0.0
 40
0.0
 40
0.0
 40
0.0
 40
0.3333333333333333
 40
0.3333333333333333
 40
0.3333333333333333
 40
0.3333333333333333
 40
0.6666666666666666
 40
0.6666666666666666
 40
0.6666666666666666
 40
0.6666666666666666
 40
1.0
 40
1.0
 40
1.0
 40
1.0
 10
213.63290000000001
 20
136.50800000000001
 30
0.0
 10
215.97149999999999
 20
136.833
 30
0.0
 10
217.83969999999999
 20
138.70099999999999
 30
0.0
 10
218.16480000000001
 20
141.03980000000001
 30
0.0
 10
218.16480000000001
 20
141.03980000000001
 30
0.0
 10
218.16480000000001
 20
141.03980000000001
 30
0.0
 10
213.63290000000001
 20
141.03980000000001
 30
0.0
 10
213.63290000000001
 20
141.03980000000001
 30
0.0
 10
213.63290000000001
 20
141.03980000000001
 30
0.0
 10
213.63290000000001
 20
141.03980000000001
 30
0.0
 10
213.63290000000001
 20
136.50800000000001
 30
0.0
 10
213.63290000000001
 20
136.50800000000001
 30
0.0
  0
SPLINE
  5
29
100
AcDbEntity
  8
RÚteg 1
100
AcDbSpline
210
0.0
220
0.0
230
1.0
 70
     1
 71
     3
 72
    16
 73
    12
 74
     0
 42
0.0000000001
 43
0.0000000001
 40
0.0
 40
0.0
 40
0.0
 40
0.0
 40
0.3333333333333333
 40
0.3333333333333333
 40
0.3333333333333333
 40
0.3333333333333333
 40
0.6666666666666666
 40
0.6666666666666666
 40
0.6666666666666666
 40
0.6666666666666666
 40
1.0
 40
1.0
 40
1.0
 40
1.0
 10
213.63290000000001
 20
142.44880000000001
 30
0.0
 10
213.63290000000001
 20
142.44880000000001
 30
0.0
 10
218.16480000000001
 20
142.44880000000001
 30
0.0
 10
218.16480000000001
 20
142.44880000000001
 30
0.0
 10
218.16480000000001
 20
142.44880000000001
 30
0.0
 10
217.83969999999999
 20
144.78749999999999
 30
0.0
 10
215.97149999999999
 20
146.6557
 30
0.0
 10
213.63290000000001
 20
146.98079999999999
 30
0.0
 10
213.63290000000001
 20
146.98079999999999
 30
0.0
 10
213.63290000000001
 20
146.98079999999999
 30
0.0
 10
213.63290000000001
 20
142.44880000000001
 30
0.0
 10
213.63290000000001
 20
142.44880000000001
 30
0.0
  0
SPLINE
  5
2A
100
AcDbEntity
  8
RÚteg 1
100
AcDbSpline
210
0.0
220
0.0
230
1.0
 70
     1
 71
     3
 72
    16
 73
    12
 74
     0
 42
0.0000000001
 43
0.0000000001
 40
0.0
 40
0.0
 40
0.0
 40
0.0
 40
0.3333333333333333
 40
0.3333333333333333
 40
0.3333333333333333
 40
0.3333333333333333
 40
0.6666666666666666
 40
0.6666666666666666
 40
0.6666666666666666
 40
0.6666666666666666
 40
1.0
 40
1.0
 40
1.0
 40
1.0
 10
212.22370000000001
 20
136.50800000000001
 30
0.0
 10
209.88499999999999
 20
136.83240000000001
 30
0.0
 10
208.01679999999999
 20
138.7013
 30
0.0
 10
207.6918
 20
141.03980000000001
 30
0.0
 10
207.6918
 20
141.03980000000001
 30
0.0
 10
207.6918
 20
141.03980000000001
 30
0.0
 10
212.22370000000001
 20
141.03980000000001
 30
0.0
 10
212.22370000000001
 20
141.03980000000001
 30
0.0
 10
212.22370000000001
 20
141.03980000000001
 30
0.0
 10
212.22370000000001
 20
141.03980000000001
 30
0.0
 10
212.22370000000001
 20
136.50800000000001
 30
0.0
 10
212.22370000000001
 20
136.50800000000001
 30
0.0
  0
SPLINE
  5
2B
100
AcDbEntity
  8
RÚteg 1
100
AcDbSpline
210
0.0
220
0.0
230
1.0
 70
     1
 71
     3
 72
    20
 73
    16
 74
     0
 42
0.0000000001
 43
0.0000000001
 40
0.0
 40
0.0
 40
0.0
 40
0.0
 40
0.25
 40
0.25
 40
0.25
 40
0.25
 40
0.5
 40
0.5
 40
0.5
 40
0.5
 40
0.75
 40
0.75
 40
0.75
 40
0.75
 40
1.0
 40
1.0
 40
1.0
 40
1.0
 10
210.77959999999999
 20
114.73690000000001
 30
0.0
 10
210.77959999999999
 20
114.73690000000001
 30
0.0
 10
210.77959999999999
 20
117.6254
 30
0.0
 10
210.77959999999999
 20
117.6254
 30
0.0
 10
210.77959999999999
 20
117.6254
 30
0.0
 10
210.77959999999999
 20
117.6254
 30
0.0
 10
215.07689999999999
 20
117.6254
 30
0.0
 10
215.07689999999999
 20
117.6254
 30
0.0
 10
215.07689999999999
 20
117.6254
 30
0.0
 10
215.07689999999999
 20
117.6254
 30
0.0
 10
215.07689999999999
 20
114.73690000000001
 30
0.0
 10
215.07689999999999
 20
114.73690000000001
 30
0.0
 10
215.07689999999999
 20
114.73690000000001
 30
0.0
 10
215.07689999999999
 20
114.73690000000001
 30
0.0
 10
210.77959999999999
 20
114.73690000000001
 30
0.0
 10
210.77959999999999
 20
114.73690000000001
 30
0.0
  0
SPLINE
  5
2C
100
AcDbEntity
  8
RÚteg 1
100
AcDbSpline
210
0.0
220
0.0
230
1.0
 70
     1
 71
     3
 72
    20
 73
    16
 74
     0
 42
0.0000000001
 43
0.0000000001
 40
0.0
 40
0.0
 40
0.0
 40
0.0
 40
0.25
 40
0.25
 40
0.25
 40
0.25
 40
0.5
 40
0.5
 40
0.5
 40
0.5
 40
0.75
 40
0.75
 40
0.75
 40
0.75
 40
1.0
 40
1.0
 40
1.0
 40
1.0
 10
218.3596
 20
113.85760000000001
 30
0.0
 10
218.3596
 20
113.85760000000001
 30
0.0
 10
219.8039
 20
116.35890000000001
 30
0.0
 10
219.8039
 20
116.35890000000001
 30
0.0
 10
219.8039
 20
116.35890000000001
 30
0.0
 10
219.8039
 20
116.35890000000001
 30
0.0
 10
223.52539999999999
 20
114.2102
 30
0.0
 10
223.52539999999999
 20
114.2102
 30
0.0
 10
223.52539999999999
 20
114.2102
 30
0.0
 10
223.52539999999999
 20
114.2102
 30
0.0
 10
222.0813
 20
111.7088
 30
0.0
 10
222.0813
 20
111.7088
 30
0.0
 10
222.0813
 20
111.7088
 30
0.0
 10
222.0813
 20
111.7088
 30
0.0
 10
218.3596
 20
113.85760000000001
 30
0.0
 10
218.3596
 20
113.85760000000001
 30
0.0
  0
SPLINE
  5
2D
100
AcDbEntity
  8
RÚteg 1
100
AcDbSpline
210
0.0
220
0.0
230
1.0
 70
     1
 71
     3
 72
    20
 73
    16
 74
     0
 42
0.0000000001
 43
0.0000000001
 40
0.0
 40
0.0
 40
0.0
 40
0.0
 40
0.25
 40
0.25
 40
0.25
 40
0.25
 40
0.5
 40
0.5
 40
0.5
 40
0.5
 40
0.75
 40
0.75
 40
0.75
 40
0.75
 40
1.0
 40
1.0
 40
1.0
 40
1.0
 10
224.48419999999999
 20
109.30589999999999
 30
0.0
 10
224.48419999999999
 20
109.30589999999999
 30
0.0
 10
226.98570000000001
 20
110.7501
 30
0.0
 10
226.98570000000001
 20
110.7501
 30
0.0
 10
226.98570000000001
 20
110.7501
 30
0.0
 10
226.98570000000001
 20
110.7501
 30
0.0
 10
229.1343
 20
107.0283
 30
0.0
 10
229.1343
 20
107.0283
 30
0.0
 10
229.1343
 20
107.0283
 30
0.0
 10
229.1343
 20
107.0283
 30
0.0
 10
226.63310000000001
 20
105.58410000000001
 30
0.0
 10
226.63310000000001
 20
105.58410000000001
 30
0.0
 10
226.63310000000001
 20
105.58410000000001
 30
0.0
 10
226.63310000000001
 20
105.58410000000001
 30
0.0
 10
224.48419999999999
 20
109.30589999999999
 30
0.0
 10
224.48419999999999
 20
109.30589999999999
 30
0.0
  0
SPLINE
  5
2E
100
AcDbEntity
  8
RÚteg 1
100
AcDbSpline
210
0.0
220
0.0
230
1.0
 70
     1
 71
     3
 72
    20
 73
    16
 74
     0
 42
0.0000000001
 43
0.0000000001
 40
0.0
 40
0.0
 40
0.0
 40
0.0
 40
0.25
 40
0.25
 40
0.25
 40
0.25
 40
0.5
 40
0.5
 40
0.5
 40
0.5
 40
0.75
 40
0.75
 40
0.75
 40
0.75
 40
1.0
 40
1.0
 40
1.0
 40
1.0
 10
230.4008
 20
102.3015
 30
0.0
 10
230.4008
 20
102.3015
 30
0.0
 10
227.51249999999999
 20
102.3015
 30
0.0
 10
227.51249999999999
 20
102.3015
 30
0.0
 10
227.51249999999999
 20
102.3015
 30
0.0
 10
227.51249999999999
 20
102.3015
 30
0.0
 10
227.51249999999999
 20
98.004099999999994
 30
0.0
 10
227.51249999999999
 20
98.004099999999994
 30
0.0
 10
227.51249999999999
 20
98.004099999999994
 30
0.0
 10
227.51249999999999
 20
98.004099999999994
 30
0.0
 10
230.4008
 20
98.004099999999994
 30
0.0
 10
230.4008
 20
98.004099999999994
 30
0.0
 10
230.4008
 20
98.004099999999994
 30
0.0
 10
230.4008
 20
98.004099999999994
 30
0.0
 10
230.4008
 20
102.3015
 30
0.0
 10
230.4008
 20
102.3015
 30
0.0
  0
SPLINE
  5
2F
100
AcDbEntity
  8
RÚteg 1
100
AcDbSpline
210
0.0
220
0.0
230
1.0
 70
     1
 71
     3
 72
    20
 73
    16
 74
     0
 42
0.0000000001
 43
0.0000000001
 40
0.0
 40
0.0
 40
0.0
 40
0.0
 40
0.25
 40
0.25
 40
0.25
 40
0.25
 40
0.5
 40
0.5
 40
0.5
 40
0.5
 40
0.75
 40
0.75
 40
0.75
 40
0.75
 40
1.0
 40
1.0
 40
1.0
 40
1.0
 10
226.98570000000001
 20
89.555800000000005
 30
0.0
 10
226.98570000000001
 20
89.555800000000005
 30
0.0
 10
224.48419999999999
 20
91.000100000000003
 30
0.0
 10
224.48419999999999
 20
91.000100000000003
 30
0.0
 10
224.48419999999999
 20
91.000100000000003
 30
0.0
 10
224.48419999999999
 20
91.000100000000003
 30
0.0
 10
226.63310000000001
 20
94.721500000000006
 30
0.0
 10
226.63310000000001
 20
94.721500000000006
 30
0.0
 10
226.63310000000001
 20
94.721500000000006
 30
0.0
 10
226.63310000000001
 20
94.721500000000006
 30
0.0
 10
229.1343
 20
93.277500000000003
 30
0.0
 10
229.1343
 20
93.277500000000003
 30
0.0
 10
229.1343
 20
93.277500000000003
 30
0.0
 10
229.1343
 20
93.277500000000003
 30
0.0
 10
226.98570000000001
 20
89.555800000000005
 30
0.0
 10
226.98570000000001
 20
89.555800000000005
 30
0.0
  0
SPLINE
  5
30
100
AcDbEntity
  8
RÚteg 1
100
AcDbSpline
210
0.0
220
0.0
230
1.0
 70
     1
 71
     3
 72
    20
 73
    16
 74
     0
 42
0.0000000001
 43
0.0000000001
 40
0.0
 40
0.0
 40
0.0
 40
0.0
 40
0.25
 40
0.25
 40
0.25
 40
0.25
 40
0.5
 40
0.5
 40
0.5
 40
0.5
 40
0.75
 40
0.75
 40
0.75
 40
0.75
 40
1.0
 40
1.0
 40
1.0
 40
1.0
 10
218.3596
 20
86.448300000000003
 30
0.0
 10
218.3596
 20
86.448300000000003
 30
0.0
 10
219.8039
 20
83.946899999999999
 30
0.0
 10
219.8039
 20
83.946899999999999
 30
0.0
 10
219.8039
 20
83.946899999999999
 30
0.0
 10
219.8039
 20
83.946899999999999
 30
0.0
 10
223.52539999999999
 20
86.095500000000001
 30
0.0
 10
223.52539999999999
 20
86.095500000000001
 30
0.0
 10
223.52539999999999
 20
86.095500000000001
 30
0.0
 10
223.52539999999999
 20
86.095500000000001
 30
0.0
 10
222.0813
 20
88.596900000000005
 30
0.0
 10
222.0813
 20
88.596900000000005
 30
0.0
 10
222.0813
 20
88.596900000000005
 30
0.0
 10
222.0813
 20
88.596900000000005
 30
0.0
 10
218.3596
 20
86.448300000000003
 30
0.0
 10
218.3596
 20
86.448300000000003
 30
0.0
  0
SPLINE
  5
31
100
AcDbEntity
  8
RÚteg 1
100
AcDbSpline
210
0.0
220
0.0
230
1.0
 70
     1
 71
     3
 72
    20
 73
    16
 74
     0
 42
0.0000000001
 43
0.0000000001
 40
0.0
 40
0.0
 40
0.0
 40
0.0
 40
0.25
 40
0.25
 40
0.25
 40
0.25
 40
0.5
 40
0.5
 40
0.5
 40
0.5
 40
0.75
 40
0.75
 40
0.75
 40
0.75
 40
1.0
 40
1.0
 40
1.0
 40
1.0
 10
215.07689999999999
 20
82.680300000000003
 30
0.0
 10
215.07689999999999
 20
82.680300000000003
 30
0.0
 10
215.07689999999999
 20
85.568799999999996
 30
0.0
 10
215.07689999999999
 20
85.568799999999996
 30
0.0
 10
215.07689999999999
 20
85.568799999999996
 30
0.0
 10
215.07689999999999
 20
85.568799999999996
 30
0.0
 10
210.77959999999999
 20
85.568799999999996
 30
0.0
 10
210.77959999999999
 20
85.568799999999996
 30
0.0
 10
210.77959999999999
 20
85.568799999999996
 30
0.0
 10
210.77959999999999
 20
85.568799999999996
 30
0.0
 10
210.77959999999999
 20
82.680300000000003
 30
0.0
 10
210.77959999999999
 20
82.680300000000003
 30
0.0
 10
210.77959999999999
 20
82.680300000000003
 30
0.0
 10
210.77959999999999
 20
82.680300000000003
 30
0.0
 10
215.07689999999999
 20
82.680300000000003
 30
0.0
 10
215.07689999999999
 20
82.680300000000003
 30
0.0
  0
SPLINE
  5
32
100
AcDbEntity
  8
RÚteg 1
100
AcDbSpline
210
0.0
220
0.0
230
1.0
 70
     1
 71
     3
 72
    20
 73
    16
 74
     0
 42
0.0000000001
 43
0.0000000001
 40
0.0
 40
0.0
 40
0.0
 40
0.0
 40
0.25
 40
0.25
 40
0.25
 40
0.25
 40
0.5
 40
0.5
 40
0.5
 40
0.5
 40
0.75
 40
0.75
 40
0.75
 40
0.75
 40
1.0
 40
1.0
 40
1.0
 40
1.0
 10
202.3313
 20
86.095500000000001
 30
0.0
 10
202.3313
 20
86.095500000000001
 30
0.0
 10
203.7756
 20
88.596900000000005
 30
0.0
 10
203.7756
 20
88.596900000000005
 30
0.0
 10
203.7756
 20
88.596900000000005
 30
0.0
 10
203.7756
 20
88.596900000000005
 30
0.0
 10
207.49700000000001
 20
86.448300000000003
 30
0.0
 10
207.49700000000001
 20
86.448300000000003
 30
0.0
 10
207.49700000000001
 20
86.448300000000003
 30
0.0
 10
207.49700000000001
 20
86.448300000000003
 30
0.0
 10
206.05289999999999
 20
83.946899999999999
 30
0.0
 10
206.05289999999999
 20
83.946899999999999
 30
0.0
 10
206.05289999999999
 20
83.946899999999999
 30
0.0
 10
206.05289999999999
 20
83.946899999999999
 30
0.0
 10
202.3313
 20
86.095500000000001
 30
0.0
 10
202.3313
 20
86.095500000000001
 30
0.0
  0
SPLINE
  5
33
100
AcDbEntity
  8
RÚteg 1
100
AcDbSpline
210
0.0
220
0.0
230
1.0
 70
     1
 71
     3
 72
    20
 73
    16
 74
     0
 42
0.0000000001
 43
0.0000000001
 40
0.0
 40
0.0
 40
0.0
 40
0.0
 40
0.25
 40
0.25
 40
0.25
 40
0.25
 40
0.5
 40
0.5
 40
0.5
 40
0.5
 40
0.75
 40
0.75
 40
0.75
 40
0.75
 40
1.0
 40
1.0
 40
1.0
 40
1.0
 10
196.72229999999999
 20
93.277500000000003
 30
0.0
 10
196.72229999999999
 20
93.277500000000003
 30
0.0
 10
199.22389999999999
 20
94.721500000000006
 30
0.0
 10
199.22389999999999
 20
94.721500000000006
 30
0.0
 10
199.22389999999999
 20
94.721500000000006
 30
0.0
 10
199.22389999999999
 20
94.721500000000006
 30
0.0
 10
201.3724
 20
91.000100000000003
 30
0.0
 10
201.3724
 20
91.000100000000003
 30
0.0
 10
201.3724
 20
91.000100000000003
 30
0.0
 10
201.3724
 20
91.000100000000003
 30
0.0
 10
198.87090000000001
 20
89.555800000000005
 30
0.0
 10
198.87090000000001
 20
89.555800000000005
 30
0.0
 10
198.87090000000001
 20
89.555800000000005
 30
0.0
 10
198.87090000000001
 20
89.555800000000005
 30
0.0
 10
196.72229999999999
 20
93.277500000000003
 30
0.0
 10
196.72229999999999
 20
93.277500000000003
 30
0.0
  0
SPLINE
  5
34
100
AcDbEntity
  8
RÚteg 1
100
AcDbSpline
210
0.0
220
0.0
230
1.0
 70
     1
 71
     3
 72
    20
 73
    16
 74
     0
 42
0.0000000001
 43
0.0000000001
 40
0.0
 40
0.0
 40
0.0
 40
0.0
 40
0.25
 40
0.25
 40
0.25
 40
0.25
 40
0.5
 40
0.5
 40
0.5
 40
0.5
 40
0.75
 40
0.75
 40
0.75
 40
0.75
 40
1.0
 40
1.0
 40
1.0
 40
1.0
 10
195.4556
 20
98.004099999999994
 30
0.0
 10
195.4556
 20
98.004099999999994
 30
0.0
 10
198.3442
 20
98.004099999999994
 30
0.0
 10
198.3442
 20
98.004099999999994
 30
0.0
 10
198.3442
 20
98.004099999999994
 30
0.0
 10
198.3442
 20
98.004099999999994
 30
0.0
 10
198.3442
 20
102.3015
 30
0.0
 10
198.3442
 20
102.3015
 30
0.0
 10
198.3442
 20
102.3015
 30
0.0
 10
198.3442
 20
102.3015
 30
0.0
 10
195.4556
 20
102.3015
 30
0.0
 10
195.4556
 20
102.3015
 30
0.0
 10
195.4556
 20
102.3015
 30
0.0
 10
195.4556
 20
102.3015
 30
0.0
 10
195.4556
 20
98.004099999999994
 30
0.0
 10
195.4556
 20
98.004099999999994
 30
0.0
  0
SPLINE
  5
35
100
AcDbEntity
  8
RÚteg 1
100
AcDbSpline
210
0.0
220
0.0
230
1.0
 70
     1
 71
     3
 72
    20
 73
    16
 74
     0
 42
0.0000000001
 43
0.0000000001
 40
0.0
 40
0.0
 40
0.0
 40
0.0
 40
0.25
 40
0.25
 40
0.25
 40
0.25
 40
0.5
 40
0.5
 40
0.5
 40
0.5
 40
0.75
 40
0.75
 40
0.75
 40
0.75
 40
1.0
 40
1.0
 40
1.0
 40
1.0
 10
196.72229999999999
 20
107.0283
 30
0.0
 10
196.72229999999999
 20
107.0283
 30
0.0
 10
199.22389999999999
 20
105.58410000000001
 30
0.0
 10
199.22389999999999
 20
105.58410000000001
 30
0.0
 10
199.22389999999999
 20
105.58410000000001
 30
0.0
 10
199.22389999999999
 20
105.58410000000001
 30
0.0
 10
201.3724
 20
109.30589999999999
 30
0.0
 10
201.3724
 20
109.30589999999999
 30
0.0
 10
201.3724
 20
109.30589999999999
 30
0.0
 10
201.3724
 20
109.30589999999999
 30
0.0
 10
198.87090000000001
 20
110.7501
 30
0.0
 10
198.87090000000001
 20
110.7501
 30
0.0
 10
198.87090000000001
 20
110.7501
 30
0.0
 10
198.87090000000001
 20
110.7501
 30
0.0
 10
196.72229999999999
 20
107.0283
 30
0.0
 10
196.72229999999999
 20
107.0283
 30
0.0
  0
SPLINE
  5
36
100
AcDbEntity
  8
RÚteg 1
100
AcDbSpline
210
0.0
220
0.0
230
1.0
 70
     1
 71
     3
 72
    20
 73
    16
 74
     0
 42
0.0000000001
 43
0.0000000001
 40
0.0
 40
0.0
 40
0.0
 40
0.0
 40
0.25
 40
0.25
 40
0.25
 40
0.25
 40
0.5
 40
0.5
 40
0.5
 40
0.5
 40
0.75
 40
0.75
 40
0.75
 40
0.75
 40
1.0
 40
1.0
 40
1.0
 40
1.0
 10
206.05289999999999
 20
116.35890000000001
 30
0.0
 10
206.05289999999999
 20
116.35890000000001
 30
0.0
 10
207.49700000000001
 20
113.85760000000001
 30
0.0
 10
207.49700000000001
 20
113.85760000000001
 30
0.0
 10
207.49700000000001
 20
113.85760000000001
 30
0.0
 10
207.49700000000001
 20
113.85760000000001
 30
0.0
 10
203.7756
 20
111.7088
 30
0.0
 10
203.7756
 20
111.7088
 30
0.0
 10
203.7756
 20
111.7088
 30
0.0
 10
203.7756
 20
111.7088
 30
0.0
 10
202.3313
 20
114.2102
 30
0.0
 10
202.3313
 20
114.2102
 30
0.0
 10
202.3313
 20
114.2102
 30
0.0
 10
202.3313
 20
114.2102
 30
0.0
 10
206.05289999999999
 20
116.35890000000001
 30
0.0
 10
206.05289999999999
 20
116.35890000000001
 30
0.0
  0
SPLINE
  5
37
100
AcDbEntity
  8
RÚteg 1
100
AcDbSpline
210
0.0
220
0.0
230
1.0
 70
     1
 71
     3
 72
    28
 73
    24
 74
     0
 42
0.0000000001
 43
0.0000000001
 40
0.0
 40
0.0
 40
0.0
 40
0.0
 40
0.1666666666666667
 40
0.1666666666666667
 40
0.1666666666666667
 40
0.1666666666666667
 40
0.3333333333333333
 40
0.3333333333333333
 40
0.3333333333333333
 40
0.3333333333333333
 40
0.5
 40
0.5
 40
0.5
 40
0.5
 40
0.6666666666666666
 40
0.6666666666666666
 40
0.6666666666666666
 40
0.6666666666666666
 40
0.8333333333333333
 40
0.8333333333333333
 40
0.8333333333333333
 40
0.8333333333333333
 40
1.0
 40
1.0
 40
1.0
 40
1.0
 10
305.13780000000003
 20
191.0326
 30
0.0
 10
305.13780000000003
 20
191.0326
 30
0.0
 10
293.86599999999999
 20
191.0326
 30
0.0
 10
293.86599999999999
 20
191.0326
 30
0.0
 10
293.86599999999999
 20
191.0326
 30
0.0
 10
293.86599999999999
 20
191.0326
 30
0.0
 10
293.86599999999999
 20
188.14420000000001
 30
0.0
 10
293.86599999999999
 20
188.14420000000001
 30
0.0
 10
293.86599999999999
 20
188.14420000000001
 30
0.0
 10
293.86599999999999
 20
188.14420000000001
 30
0.0
 10
308.02609999999999
 20
188.14420000000001
 30
0.0
 10
308.02609999999999
 20
188.14420000000001
 30
0.0
 10
308.02609999999999
 20
188.14420000000001
 30
0.0
 10
308.02609999999999
 20
188.14420000000001
 30
0.0
 10
308.02609999999999
 20
195.06110000000001
 30
0.0
 10
308.02609999999999
 20
195.06110000000001
 30
0.0
 10
308.02609999999999
 20
195.06110000000001
 30
0.0
 10
308.02609999999999
 20
195.06110000000001
 30
0.0
 10
305.13780000000003
 20
195.06110000000001
 30
0.0
 10
305.13780000000003
 20
195.06110000000001
 30
0.0
 10
305.13780000000003
 20
195.06110000000001
 30
0.0
 10
305.13780000000003
 20
195.06110000000001
 30
0.0
 10
305.13780000000003
 20
191.0326
 30
0.0
 10
305.13780000000003
 20
191.0326
 30
0.0
  0
SPLINE
  5
38
100
AcDbEntity
  8
RÚteg 1
100
AcDbSpline
210
0.0
220
0.0
230
1.0
 70
     0
 71
     3
 72
    28
 73
    24
 74
     0
 42
0.0000000001
 43
0.0000000001
 40
0.0
 40
0.0
 40
0.0
 40
0.0
 40
0.1666666666666667
 40
0.1666666666666667
 40
0.1666666666666667
 40
0.1666666666666667
 40
0.3333333333333333
 40
0.3333333333333333
 40
0.3333333333333333
 40
0.3333333333333333
 40
0.5
 40
0.5
 40
0.5
 40
0.5
 40
0.6666666666666666
 40
0.6666666666666666
 40
0.6666666666666666
 40
0.6666666666666666
 40
0.8333333333333333
 40
0.8333333333333333
 40
0.8333333333333333
 40
0.8333333333333333
 40
1.0
 40
1.0
 40
1.0
 40
1.0
 10
329.19499999999999
 20
135.41069999999999
 30
0.0
 10
329.19499999999999
 20
135.41069999999999
 30
0.0
 10
329.19499999999999
 20
114.2761
 30
0.0
 10
329.19499999999999
 20
114.2761
 30
0.0
 10
329.19499999999999
 20
114.2761
 30
0.0
 10
329.19499999999999
 20
114.2761
 30
0.0
 10
332.01310000000001
 20
114.2761
 30
0.0
 10
332.01310000000001
 20
114.2761
 30
0.0
 10
332.01310000000001
 20
114.2761
 30
0.0
 10
332.01310000000001
 20
114.2761
 30
0.0
 10
332.01310000000001
 20
93.141499999999994
 30
0.0
 10
332.01310000000001
 20
93.141499999999994
 30
0.0
 10
332.01310000000001
 20
93.141499999999994
 30
0.0
 10
332.01310000000001
 20
93.141499999999994
 30
0.0
 10
329.19499999999999
 20
93.141499999999994
 30
0.0
 10
329.19499999999999
 20
93.141499999999994
 30
0.0
 10
329.19499999999999
 20
93.141499999999994
 30
0.0
 10
329.19499999999999
 20
93.141499999999994
 30
0.0
 10
329.19499999999999
 20
72.006900000000002
 30
0.0
 10
329.19499999999999
 20
72.006900000000002
 30
0.0
 10
329.19499999999999
 20
72.006900000000002
 30
0.0
 10
329.19499999999999
 20
72.006900000000002
 30
0.0
 10
322.15030000000002
 20
72.006900000000002
 30
0.0
 10
322.15030000000002
 20
72.006900000000002
 30
0.0
  0
SPLINE
  5
39
100
AcDbEntity
  8
RÚteg 1
100
AcDbSpline
210
0.0
220
0.0
230
1.0
 70
     0
 71
     3
 72
     8
 73
     4
 74
     0
 42
0.0000000001
 43
0.0000000001
 40
0.0
 40
0.0
 40
0.0
 40
0.0
 40
1.0
 40
1.0
 40
1.0
 40
1.0
 10
329.19499999999999
 20
135.41069999999999
 30
0.0
 10
329.19499999999999
 20
135.41069999999999
 30
0.0
 10
315.10520000000002
 20
135.41069999999999
 30
0.0
 10
315.10520000000002
 20
135.41069999999999
 30
0.0
  0
SPLINE
  5
3A
100
AcDbEntity
  8
RÚteg 1
100
AcDbSpline
210
0.0
220
0.0
230
1.0
 70
     0
 71
     3
 72
    12
 73
     8
 74
     0
 42
0.0000000001
 43
0.0000000001
 40
0.0
 40
0.0
 40
0.0
 40
0.0
 40
0.5
 40
0.5
 40
0.5
 40
0.5
 40
1.0
 40
1.0
 40
1.0
 40
1.0
 10
322.15030000000002
 20
72.006900000000002
 30
0.0
 10
322.15030000000002
 20
72.006900000000002
 30
0.0
 10
322.15030000000002
 20
135.41069999999999
 30
0.0
 10
322.15030000000002
 20
135.41069999999999
 30
0.0
 10
322.15030000000002
 20
135.41069999999999
 30
0.0
 10
322.15030000000002
 20
135.41069999999999
 30
0.0
 10
322.15030000000002
 20
198.81450000000001
 30
0.0
 10
322.15030000000002
 20
198.81450000000001
 30
0.0
  0
SPLINE
  5
3B
100
AcDbEntity
  8
RÚteg 1
100
AcDbSpline
210
0.0
220
0.0
230
1.0
 70
     0
 71
     3
 72
    28
 73
    24
 74
     0
 42
0.0000000001
 43
0.0000000001
 40
0.0
 40
0.0
 40
0.0
 40
0.0
 40
0.1666666666666667
 40
0.1666666666666667
 40
0.1666666666666667
 40
0.1666666666666667
 40
0.3333333333333333
 40
0.3333333333333333
 40
0.3333333333333333
 40
0.3333333333333333
 40
0.5
 40
0.5
 40
0.5
 40
0.5
 40
0.6666666666666666
 40
0.6666666666666666
 40
0.6666666666666666
 40
0.6666666666666666
 40
0.8333333333333333
 40
0.8333333333333333
 40
0.8333333333333333
 40
0.8333333333333333
 40
1.0
 40
1.0
 40
1.0
 40
1.0
 10
329.19499999999999
 20
135.41069999999999
 30
0.0
 10
329.19499999999999
 20
135.41069999999999
 30
0.0
 10
329.19499999999999
 20
156.5453
 30
0.0
 10
329.19499999999999
 20
156.5453
 30
0.0
 10
329.19499999999999
 20
156.5453
 30
0.0
 10
329.19499999999999
 20
156.5453
 30
0.0
 10
332.01310000000001
 20
156.5453
 30
0.0
 10
332.01310000000001
 20
156.5453
 30
0.0
 10
332.01310000000001
 20
156.5453
 30
0.0
 10
332.01310000000001
 20
156.5453
 30
0.0
 10
332.01310000000001
 20
177.6798
 30
0.0
 10
332.01310000000001
 20
177.6798
 30
0.0
 10
332.01310000000001
 20
177.6798
 30
0.0
 10
332.01310000000001
 20
177.6798
 30
0.0
 10
329.19499999999999
 20
177.6798
 30
0.0
 10
329.19499999999999
 20
177.6798
 30
0.0
 10
329.19499999999999
 20
177.6798
 30
0.0
 10
329.19499999999999
 20
177.6798
 30
0.0
 10
329.19499999999999
 20
198.81450000000001
 30
0.0
 10
329.19499999999999
 20
198.81450000000001
 30
0.0
 10
329.19499999999999
 20
198.81450000000001
 30
0.0
 10
329.19499999999999
 20
198.81450000000001
 30
0.0
 10
322.15030000000002
 20
198.81450000000001
 30
0.0
 10
322.15030000000002
 20
198.81450000000001
 30
0.0
  0
SPLINE
  5
3C
100
AcDbEntity
  8
RÚteg 1
100
AcDbSpline
210
0.0
220
0.0
230
1.0
 70
     0
 71
     3
 72
    16
 73
    12
 74
     0
 42
0.0000000001
 43
0.0000000001
 40
0.0
 40
0.0
 40
0.0
 40
0.0
 40
0.3333333333333333
 40
0.3333333333333333
 40
0.3333333333333333
 40
0.3333333333333333
 40
0.6666666666666666
 40
0.6666666666666666
 40
0.6666666666666666
 40
0.6666666666666666
 40
1.0
 40
1.0
 40
1.0
 40
1.0
 10
315.10520000000002
 20
135.41069999999999
 30
0.0
 10
315.10520000000002
 20
135.41069999999999
 30
0.0
 10
315.10520000000002
 20
114.3464
 30
0.0
 10
315.10520000000002
 20
114.3464
 30
0.0
 10
315.10520000000002
 20
114.3464
 30
0.0
 10
315.10520000000002
 20
114.3464
 30
0.0
 10
315.10520000000002
 20
114.2761
 30
0.0
 10
315.10520000000002
 20
114.2761
 30
0.0
 10
315.10520000000002
 20
114.2761
 30
0.0
 10
315.10520000000002
 20
114.2761
 30
0.0
 10
315.10520000000002
 20
114.3464
 30
0.0
 10
315.10520000000002
 20
114.3464
 30
0.0
  0
SPLINE
  5
3D
100
AcDbEntity
  8
RÚteg 1
100
AcDbSpline
210
0.0
220
0.0
230
1.0
 70
     0
 71
     3
 72
    24
 73
    20
 74
     0
 42
0.0000000001
 43
0.0000000001
 40
0.0
 40
0.0
 40
0.0
 40
0.0
 40
0.2
 40
0.2
 40
0.2
 40
0.2
 40
0.4
 40
0.4
 40
0.4
 40
0.4
 40
0.6000000000000001
 40
0.6000000000000001
 40
0.6000000000000001
 40
0.6000000000000001
 40
0.8
 40
0.8
 40
0.8
 40
0.8
 40
1.0
 40
1.0
 40
1.0
 40
1.0
 10
312.28750000000002
 20
114.2761
 30
0.0
 10
312.28750000000002
 20
114.2761
 30
0.0
 10
312.28750000000002
 20
93.141499999999994
 30
0.0
 10
312.28750000000002
 20
93.141499999999994
 30
0.0
 10
312.28750000000002
 20
93.141499999999994
 30
0.0
 10
312.28750000000002
 20
93.141499999999994
 30
0.0
 10
315.10520000000002
 20
93.141499999999994
 30
0.0
 10
315.10520000000002
 20
93.141499999999994
 30
0.0
 10
315.10520000000002
 20
93.141499999999994
 30
0.0
 10
315.10520000000002
 20
93.141499999999994
 30
0.0
 10
315.10520000000002
 20
72.006900000000002
 30
0.0
 10
315.10520000000002
 20
72.006900000000002
 30
0.0
 10
315.10520000000002
 20
72.006900000000002
 30
0.0
 10
315.10520000000002
 20
72.006900000000002
 30
0.0
 10
322.15030000000002
 20
72.006900000000002
 30
0.0
 10
322.15030000000002
 20
72.006900000000002
 30
0.0
 10
322.15030000000002
 20
72.006900000000002
 30
0.0
 10
322.15030000000002
 20
72.006900000000002
 30
0.0
 10
315.10520000000002
 20
72.006900000000002
 30
0.0
 10
315.10520000000002
 20
72.006900000000002
 30
0.0
  0
SPLINE
  5
3E
100
AcDbEntity
  8
RÚteg 1
100
AcDbSpline
210
0.0
220
0.0
230
1.0
 70
     0
 71
     3
 72
    28
 73
    24
 74
     0
 42
0.0000000001
 43
0.0000000001
 40
0.0
 40
0.0
 40
0.0
 40
0.0
 40
0.1666666666666667
 40
0.1666666666666667
 40
0.1666666666666667
 40
0.1666666666666667
 40
0.3333333333333333
 40
0.3333333333333333
 40
0.3333333333333333
 40
0.3333333333333333
 40
0.5
 40
0.5
 40
0.5
 40
0.5
 40
0.6666666666666666
 40
0.6666666666666666
 40
0.6666666666666666
 40
0.6666666666666666
 40
0.8333333333333333
 40
0.8333333333333333
 40
0.8333333333333333
 40
0.8333333333333333
 40
1.0
 40
1.0
 40
1.0
 40
1.0
 10
322.15030000000002
 20
198.81450000000001
 30
0.0
 10
322.15030000000002
 20
198.81450000000001
 30
0.0
 10
315.10520000000002
 20
198.81450000000001
 30
0.0
 10
315.10520000000002
 20
198.81450000000001
 30
0.0
 10
315.10520000000002
 20
198.81450000000001
 30
0.0
 10
315.10520000000002
 20
198.81450000000001
 30
0.0
 10
315.10520000000002
 20
177.6798
 30
0.0
 10
315.10520000000002
 20
177.6798
 30
0.0
 10
315.10520000000002
 20
177.6798
 30
0.0
 10
315.10520000000002
 20
177.6798
 30
0.0
 10
312.28750000000002
 20
177.6798
 30
0.0
 10
312.28750000000002
 20
177.6798
 30
0.0
 10
312.28750000000002
 20
177.6798
 30
0.0
 10
312.28750000000002
 20
177.6798
 30
0.0
 10
312.28750000000002
 20
156.5453
 30
0.0
 10
312.28750000000002
 20
156.5453
 30
0.0
 10
312.28750000000002
 20
156.5453
 30
0.0
 10
312.28750000000002
 20
156.5453
 30
0.0
 10
315.10520000000002
 20
156.5453
 30
0.0
 10
315.10520000000002
 20
156.5453
 30
0.0
 10
315.10520000000002
 20
156.5453
 30
0.0
 10
315.10520000000002
 20
156.5453
 30
0.0
 10
315.10520000000002
 20
135.41069999999999
 30
0.0
 10
315.10520000000002
 20
135.41069999999999
 30
0.0
  0
SPLINE
  5
3F
100
AcDbEntity
  8
RÚteg 1
100
AcDbSpline
210
0.0
220
0.0
230
1.0
 70
     1
 71
     3
 72
   292
 73
   288
 74
     0
 42
0.0000000001
 43
0.0000000001
 40
0.0
 40
0.0
 40
0.0
 40
0.0
 40
0.0138888888888889
 40
0.0138888888888889
 40
0.0138888888888889
 40
0.0138888888888889
 40
0.0277777777777778
 40
0.0277777777777778
 40
0.0277777777777778
 40
0.0277777777777778
 40
0.0416666666666667
 40
0.0416666666666667
 40
0.0416666666666667
 40
0.0416666666666667
 40
0.0555555555555556
 40
0.0555555555555556
 40
0.0555555555555556
 40
0.0555555555555556
 40
0.0694444444444444
 40
0.0694444444444444
 40
0.0694444444444444
 40
0.0694444444444444
 40
0.0833333333333333
 40
0.0833333333333333
 40
0.0833333333333333
 40
0.0833333333333333
 40
0.0972222222222222
 40
0.0972222222222222
 40
0.0972222222222222
 40
0.0972222222222222
 40
0.1111111111111111
 40
0.1111111111111111
 40
0.1111111111111111
 40
0.1111111111111111
 40
0.125
 40
0.125
 40
0.125
 40
0.125
 40
0.1388888888888889
 40
0.1388888888888889
 40
0.1388888888888889
 40
0.1388888888888889
 40
0.1527777777777778
 40
0.1527777777777778
 40
0.1527777777777778
 40
0.1527777777777778
 40
0.1666666666666667
 40
0.1666666666666667
 40
0.1666666666666667
 40
0.1666666666666667
 40
0.1805555555555556
 40
0.1805555555555556
 40
0.1805555555555556
 40
0.1805555555555556
 40
0.1944444444444445
 40
0.1944444444444445
 40
0.1944444444444445
 40
0.1944444444444445
 40
0.2083333333333334
 40
0.2083333333333334
 40
0.2083333333333334
 40
0.2083333333333334
 40
0.2222222222222223
 40
0.2222222222222223
 40
0.2222222222222223
 40
0.2222222222222223
 40
0.2361111111111112
 40
0.2361111111111112
 40
0.2361111111111112
 40
0.2361111111111112
 40
0.2500000000000001
 40
0.2500000000000001
 40
0.2500000000000001
 40
0.2500000000000001
 40
0.263888888888889
 40
0.263888888888889
 40
0.263888888888889
 40
0.263888888888889
 40
0.2777777777777779
 40
0.2777777777777779
 40
0.2777777777777779
 40
0.2777777777777779
 40
0.2916666666666667
 40
0.2916666666666667
 40
0.2916666666666667
 40
0.2916666666666667
 40
0.3055555555555556
 40
0.3055555555555556
 40
0.3055555555555556
 40
0.3055555555555556
 40
0.3194444444444445
 40
0.3194444444444445
 40
0.3194444444444445
 40
0.3194444444444445
 40
0.3333333333333334
 40
0.3333333333333334
 40
0.3333333333333334
 40
0.3333333333333334
 40
0.3472222222222223
 40
0.3472222222222223
 40
0.3472222222222223
 40
0.3472222222222223
 40
0.3611111111111112
 40
0.3611111111111112
 40
0.3611111111111112
 40
0.3611111111111112
 40
0.3750000000000001
 40
0.3750000000000001
 40
0.3750000000000001
 40
0.3750000000000001
 40
0.388888888888889
 40
0.388888888888889
 40
0.388888888888889
 40
0.388888888888889
 40
0.4027777777777779
 40
0.4027777777777779
 40
0.4027777777777779
 40
0.4027777777777779
 40
0.4166666666666668
 40
0.4166666666666668
 40
0.4166666666666668
 40
0.4166666666666668
 40
0.4305555555555557
 40
0.4305555555555557
 40
0.4305555555555557
 40
0.4305555555555557
 40
0.4444444444444446
 40
0.4444444444444446
 40
0.4444444444444446
 40
0.4444444444444446
 40
0.4583333333333335
 40
0.4583333333333335
 40
0.4583333333333335
 40
0.4583333333333335
 40
0.4722222222222224
 40
0.4722222222222224
 40
0.4722222222222224
 40
0.4722222222222224
 40
0.4861111111111113
 40
0.4861111111111113
 40
0.4861111111111113
 40
0.4861111111111113
 40
0.5000000000000001
 40
0.5000000000000001
 40
0.5000000000000001
 40
0.5000000000000001
 40
0.513888888888889
 40
0.513888888888889
 40
0.513888888888889
 40
0.513888888888889
 40
0.5277777777777778
 40
0.5277777777777778
 40
0.5277777777777778
 40
0.5277777777777778
 40
0.5416666666666666
 40
0.5416666666666666
 40
0.5416666666666666
 40
0.5416666666666666
 40
0.5555555555555555
 40
0.5555555555555555
 40
0.5555555555555555
 40
0.5555555555555555
 40
0.5694444444444443
 40
0.5694444444444443
 40
0.5694444444444443
 40
0.5694444444444443
 40
0.5833333333333332
 40
0.5833333333333332
 40
0.5833333333333332
 40
0.5833333333333332
 40
0.597222222222222
 40
0.597222222222222
 40
0.597222222222222
 40
0.597222222222222
 40
0.6111111111111108
 40
0.6111111111111108
 40
0.6111111111111108
 40
0.6111111111111108
 40
0.6249999999999997
 40
0.6249999999999997
 40
0.6249999999999997
 40
0.6249999999999997
 40
0.6388888888888885
 40
0.6388888888888885
 40
0.6388888888888885
 40
0.6388888888888885
 40
0.6527777777777774
 40
0.6527777777777774
 40
0.6527777777777774
 40
0.6527777777777774
 40
0.6666666666666662
 40
0.6666666666666662
 40
0.6666666666666662
 40
0.6666666666666662
 40
0.680555555555555
 40
0.680555555555555
 40
0.680555555555555
 40
0.680555555555555
 40
0.6944444444444439
 40
0.6944444444444439
 40
0.6944444444444439
 40
0.6944444444444439
 40
0.7083333333333327
 40
0.7083333333333327
 40
0.7083333333333327
 40
0.7083333333333327
 40
0.7222222222222215
 40
0.7222222222222215
 40
0.7222222222222215
 40
0.7222222222222215
 40
0.7361111111111104
 40
0.7361111111111104
 40
0.7361111111111104
 40
0.7361111111111104
 40
0.7499999999999992
 40
0.7499999999999992
 40
0.7499999999999992
 40
0.7499999999999992
 40
0.7638888888888881
 40
0.7638888888888881
 40
0.7638888888888881
 40
0.7638888888888881
 40
0.7777777777777769
 40
0.7777777777777769
 40
0.7777777777777769
 40
0.7777777777777769
 40
0.7916666666666657
 40
0.7916666666666657
 40
0.7916666666666657
 40
0.7916666666666657
 40
0.8055555555555546
 40
0.8055555555555546
 40
0.8055555555555546
 40
0.8055555555555546
 40
0.8194444444444434
 40
0.8194444444444434
 40
0.8194444444444434
 40
0.8194444444444434
 40
0.8333333333333323
 40
0.8333333333333323
 40
0.8333333333333323
 40
0.8333333333333323
 40
0.8472222222222211
 40
0.8472222222222211
 40
0.8472222222222211
 40
0.8472222222222211
 40
0.8611111111111099
 40
0.8611111111111099
 40
0.8611111111111099
 40
0.8611111111111099
 40
0.8749999999999988
 40
0.8749999999999988
 40
0.8749999999999988
 40
0.8749999999999988
 40
0.8888888888888876
 40
0.8888888888888876
 40
0.8888888888888876
 40
0.8888888888888876
 40
0.9027777777777765
 40
0.9027777777777765
 40
0.9027777777777765
 40
0.9027777777777765
 40
0.9166666666666653
 40
0.9166666666666653
 40
0.9166666666666653
 40
0.9166666666666653
 40
0.9305555555555541
 40
0.9305555555555541
 40
0.9305555555555541
 40
0.9305555555555541
 40
0.944444444444443
 40
0.944444444444443
 40
0.944444444444443
 40
0.944444444444443
 40
0.9583333333333318
 40
0.9583333333333318
 40
0.9583333333333318
 40
0.9583333333333318
 40
0.9722222222222207
 40
0.9722222222222207
 40
0.9722222222222207
 40
0.9722222222222207
 40
0.9861111111111095
 40
0.9861111111111095
 40
0.9861111111111095
 40
0.9861111111111095
 40
1.0
 40
1.0
 40
1.0
 40
1.0
 10
284.11559999999997
 20
146.27670000000001
 30
0.0
 10
282.90379999999999
 20
146.72399999999999
 30
0.0
 10
282.50970000000001
 20
146.76599999999999
 30
0.0
 10
281.30489999999998
 20
147.0284
 30
0.0
 10
281.30489999999998
 20
147.0284
 30
0.0
 10
281.14729999999997
 20
147.06280000000001
 30
0.0
 10
281.02760000000001
 20
147.20689999999999
 30
0.0
 10
281.02760000000001
 20
147.369
 30
0.0
 10
281.02760000000001
 20
147.369
 30
0.0
 10
281.02760000000001
 20
147.369
 30
0.0
 10
281.02749999999997
 20
149.88669999999999
 30
0.0
 10
281.02749999999997
 20
149.88669999999999
 30
0.0
 10
281.02749999999997
 20
149.88669999999999
 30
0.0
 10
281.02749999999997
 20
149.88669999999999
 30
0.0
 10
276.80070000000001
 20
149.88669999999999
 30
0.0
 10
276.80070000000001
 20
149.88669999999999
 30
0.0
 10
276.80070000000001
 20
149.88669999999999
 30
0.0
 10
276.80070000000001
 20
149.52879999999999
 30
0.0
 10
276.8458
 20
147.45140000000001
 30
0.0
 10
276.78289999999998
 20
147.26230000000001
 30
0.0
 10
276.78289999999998
 20
147.26230000000001
 30
0.0
 10
276.6816
 20
146.95830000000001
 30
0.0
 10
276.26639999999998
 20
146.98679999999999
 30
0.0
 10
275.96640000000002
 20
146.92570000000001
 30
0.0
 10
275.96640000000002
 20
146.92570000000001
 30
0.0
 10
275.04739999999998
 20
146.73840000000001
 30
0.0
 10
274.55340000000001
 20
146.5421
 30
0.0
 10
273.69540000000001
 20
146.27070000000001
 30
0.0
 10
273.69540000000001
 20
146.27070000000001
 30
0.0
 10
273.54129999999998
 20
146.22200000000001
 30
0.0
 10
273.36709999999999
 20
146.2868
 30
0.0
 10
273.28539999999998
 20
146.4271
 30
0.0
 10
273.28539999999998
 20
146.4271
 30
0.0
 10
273.28539999999998
 20
146.4271
 30
0.0
 10
272.02629999999999
 20
148.60769999999999
 30
0.0
 10
272.02629999999999
 20
148.60769999999999
 30
0.0
 10
272.02629999999999
 20
148.60769999999999
 30
0.0
 10
272.02629999999999
 20
148.60769999999999
 30
0.0
 10
268.36559999999997
 20
146.49420000000001
 30
0.0
 10
268.36559999999997
 20
146.49420000000001
 30
0.0
 10
268.36559999999997
 20
146.49420000000001
 30
0.0
 10
268.55200000000002
 20
146.17160000000001
 30
0.0
 10
269.62529999999998
 20
144.40459999999999
 30
0.0
 10
269.6635
 20
144.20859999999999
 30
0.0
 10
269.6635
 20
144.20859999999999
 30
0.0
 10
269.72390000000001
 20
143.89769999999999
 30
0.0
 10
269.3485
 20
143.71029999999999
 30
0.0
 10
269.14960000000002
 20
143.53530000000001
 30
0.0
 10
269.14960000000002
 20
143.53530000000001
 30
0.0
 10
268.33370000000002
 20
142.81639999999999
 30
0.0
 10
268.16239999999999
 20
142.5461
 30
0.0
 10
267.48230000000001
 20
141.8075
 30
0.0
 10
267.48230000000001
 20
141.8075
 30
0.0
 10
267.37329999999997
 20
141.6891
 30
0.0
 10
267.1909
 20
141.66130000000001
 30
0.0
 10
267.05119999999999
 20
141.74039999999999
 30
0.0
 10
267.05119999999999
 20
141.74039999999999
 30
0.0
 10
267.05119999999999
 20
141.74039999999999
 30
0.0
 10
264.8707
 20
142.9992
 30
0.0
 10
264.8707
 20
142.9992
 30
0.0
 10
264.8707
 20
142.9992
 30
0.0
 10
264.8707
 20
142.9992
 30
0.0
 10
262.75720000000001
 20
139.33850000000001
 30
0.0
 10
262.75720000000001
 20
139.33850000000001
 30
0.0
 10
262.75720000000001
 20
139.33850000000001
 30
0.0
 10
263.07369999999997
 20
139.1557
 30
0.0
 10
264.88389999999998
 20
138.16300000000001
 30
0.0
 10
265.02120000000002
 20
138.01079999999999
 30
0.0
 10
265.02120000000002
 20
138.01079999999999
 30
0.0
 10
265.23469999999998
 20
137.77459999999999
 30
0.0
 10
264.99919999999997
 20
137.41749999999999
 30
0.0
 10
264.90820000000002
 20
137.1464
 30
0.0
 10
264.90820000000002
 20
137.1464
 30
0.0
 10
264.61290000000002
 20
136.26609999999999
 30
0.0
 10
264.52890000000002
 20
135.71619999999999
 30
0.0
 10
264.33629999999999
 20
134.84139999999999
 30
0.0
 10
264.33629999999999
 20
134.84139999999999
 30
0.0
 10
264.30149999999998
 20
134.68299999999999
 30
0.0
 10
264.1583
 20
134.5659
 30
0.0
 10
263.9957
 20
134.5643
 30
0.0
 10
263.9957
 20
134.5643
 30
0.0
 10
263.9957
 20
134.5643
 30
0.0
 10
261.47800000000001
 20
134.5642
 30
0.0
 10
261.47800000000001
 20
134.5642
 30
0.0
 10
261.47800000000001
 20
134.5642
 30
0.0
 10
261.47800000000001
 20
134.5642
 30
0.0
 10
261.47800000000001
 20
130.3374
 30
0.0
 10
261.47800000000001
 20
130.3374
 30
0.0
 10
261.47800000000001
 20
130.3374
 30
0.0
 10
261.84930000000003
 20
130.3374
 30
0.0
 10
263.91669999999999
 20
130.3835
 30
0.0
 10
264.10610000000003
 20
130.31819999999999
 30
0.0
 10
264.10610000000003
 20
130.31819999999999
 30
0.0
 10
264.40609999999998
 20
130.21549999999999
 30
0.0
 10
264.37869999999998
 20
129.79949999999999
 30
0.0
 10
264.4391
 20
129.50309999999999
 30
0.0
 10
264.4391
 20
129.50309999999999
 30
0.0
 10
264.62650000000002
 20
128.58420000000001
 30
0.0
 10
264.82279999999997
 20
128.09010000000001
 30
0.0
 10
265.0942
 20
127.2324
 30
0.0
 10
265.0942
 20
127.2324
 30
0.0
 10
265.14269999999999
 20
127.07810000000001
 30
0.0
 10
265.07799999999997
 20
126.904
 30
0.0
 10
264.93759999999997
 20
126.8219
 30
0.0
 10
264.93759999999997
 20
126.8219
 30
0.0
 10
264.93759999999997
 20
126.8219
 30
0.0
 10
262.75720000000001
 20
125.563
 30
0.0
 10
262.75720000000001
 20
125.563
 30
0.0
 10
262.75720000000001
 20
125.563
 30
0.0
 10
262.75720000000001
 20
125.563
 30
0.0
 10
264.8707
 20
121.90260000000001
 30
0.0
 10
264.8707
 20
121.90260000000001
 30
0.0
 10
264.8707
 20
121.90260000000001
 30
0.0
 10
265.1952
 20
122.09
 30
0.0
 10
266.95999999999998
 20
123.16200000000001
 30
0.0
 10
267.15640000000002
 20
123.2002
 30
0.0
 10
267.15640000000002
 20
123.2002
 30
0.0
 10
267.46710000000002
 20
123.2604
 30
0.0
 10
267.65379999999999
 20
122.886
 30
0.0
 10
267.82940000000002
 20
122.6862
 30
0.0
 10
267.82940000000002
 20
122.6862
 30
0.0
 10
268.5444
 20
121.8746
 30
0.0
 10
268.82130000000001
 20
121.697
 30
0.0
 10
269.55759999999998
 20
121.01909999999999
 30
0.0
 10
269.55759999999998
 20
121.01909999999999
 30
0.0
 10
269.67529999999999
 20
120.9106
 30
0.0
 10
269.70429999999999
 20
120.72709999999999
 30
0.0
 10
269.62459999999999
 20
120.58799999999999
 30
0.0
 10
269.62459999999999
 20
120.58799999999999
 30
0.0
 10
269.62459999999999
 20
120.58799999999999
 30
0.0
 10
268.36559999999997
 20
118.4074
 30
0.0
 10
268.36559999999997
 20
118.4074
 30
0.0
 10
268.36559999999997
 20
118.4074
 30
0.0
 10
268.36559999999997
 20
118.4074
 30
0.0
 10
272.02629999999999
 20
116.2941
 30
0.0
 10
272.02629999999999
 20
116.2941
 30
0.0
 10
272.02629999999999
 20
116.2941
 30
0.0
 10
272.21800000000002
 20
116.626
 30
0.0
 10
273.20409999999998
 20
118.4264
 30
0.0
 10
273.35680000000002
 20
118.5608
 30
0.0
 10
273.35680000000002
 20
118.5608
 30
0.0
 10
273.59410000000003
 20
118.7694
 30
0.0
 10
273.94690000000003
 20
118.5361
 30
0.0
 10
274.21839999999997
 20
118.44499999999999
 30
0.0
 10
274.21839999999997
 20
118.44499999999999
 30
0.0
 10
275.09879999999998
 20
118.15000000000001
 30
0.0
 10
275.64920000000001
 20
118.0654
 30
0.0
 10
276.52339999999998
 20
117.873
 30
0.0
 10
276.52339999999998
 20
117.873
 30
0.0
 10
276.68189999999998
 20
117.8383
 30
0.0
 10
276.79899999999998
 20
117.6951
 30
0.0
 10
276.80070000000001
 20
117.5326
 30
0.0
 10
276.80070000000001
 20
117.5326
 30
0.0
 10
276.80070000000001
 20
117.5326
 30
0.0
 10
276.80070000000001
 20
115.01479999999999
 30
0.0
 10
276.80070000000001
 20
115.01479999999999
 30
0.0
 10
276.80070000000001
 20
115.01479999999999
 30
0.0
 10
276.80070000000001
 20
115.01479999999999
 30
0.0
 10
281.02749999999997
 20
115.01479999999999
 30
0.0
 10
281.02749999999997
 20
115.01479999999999
 30
0.0
 10
281.02749999999997
 20
115.01479999999999
 30
0.0
 10
281.02749999999997
 20
115.3805
 30
0.0
 10
280.98219999999998
 20
117.44410000000001
 30
0.0
 10
281.04520000000002
 20
117.63930000000001
 30
0.0
 10
281.04520000000002
 20
117.63930000000001
 30
0.0
 10
281.14350000000002
 20
117.9425
 30
0.0
 10
281.5684
 20
117.9162
 30
0.0
 10
281.86169999999998
 20
117.9761
 30
0.0
 10
281.86169999999998
 20
117.9761
 30
0.0
 10
282.7808
 20
118.1632
 30
0.0
 10
283.2747
 20
118.3595
 30
0.0
 10
284.13229999999999
 20
118.631
 30
0.0
 10
284.13229999999999
 20
118.631
 30
0.0
 10
284.2867
 20
118.6797
 30
0.0
 10
284.46089999999998
 20
118.6147
 30
0.0
 10
284.54300000000001
 20
118.4744
 30
0.0
 10
284.54300000000001
 20
118.4744
 30
0.0
 10
284.54300000000001
 20
118.4744
 30
0.0
 10
285.80189999999999
 20
116.2941
 30
0.0
 10
285.80189999999999
 20
116.2941
 30
0.0
 10
285.80189999999999
 20
116.2941
 30
0.0
 10
285.80189999999999
 20
116.2941
 30
0.0
 10
289.46249999999998
 20
118.4074
 30
0.0
 10
289.46249999999998
 20
118.4074
 30
0.0
 10
289.46249999999998
 20
118.4074
 30
0.0
 10
289.28359999999998
 20
118.71720000000001
 30
0.0
 10
288.20519999999999
 20
120.4944
 30
0.0
 10
288.16550000000001
 20
120.6892
 30
0.0
 10
288.16550000000001
 20
120.6892
 30
0.0
 10
288.10160000000002
 20
121.0027
 30
0.0
 10
288.47669999999999
 20
121.18859999999999
 30
0.0
 10
288.67849999999999
 20
121.3664
 30
0.0
 10
288.67849999999999
 20
121.3664
 30
0.0
 10
289.34100000000001
 20
121.9502
 30
0.0
 10
289.76080000000002
 20
122.4502
 30
0.0
 10
290.3433
 20
123.0915
 30
0.0
 10
290.3433
 20
123.0915
 30
0.0
 10
290.45190000000002
 20
123.21129999999999
 30
0.0
 10
290.63650000000001
 20
123.2418
 30
0.0
 10
290.77679999999998
 20
123.1613
 30
0.0
 10
290.77679999999998
 20
123.1613
 30
0.0
 10
290.77679999999998
 20
123.1613
 30
0.0
 10
292.95749999999998
 20
121.90260000000001
 30
0.0
 10
292.95749999999998
 20
121.90260000000001
 30
0.0
 10
292.95749999999998
 20
121.90260000000001
 30
0.0
 10
292.95749999999998
 20
121.90260000000001
 30
0.0
 10
295.07080000000002
 20
125.563
 30
0.0
 10
295.07080000000002
 20
125.563
 30
0.0
 10
295.07080000000002
 20
125.563
 30
0.0
 10
294.7482
 20
125.74939999999999
 30
0.0
 10
292.93459999999999
 20
126.7433
 30
0.0
 10
292.80439999999999
 20
126.8935
 30
0.0
 10
292.80439999999999
 20
126.8935
 30
0.0
 10
292.59629999999999
 20
127.13330000000001
 30
0.0
 10
292.82670000000002
 20
127.4778
 30
0.0
 10
292.91980000000001
 20
127.75539999999999
 30
0.0
 10
292.91980000000001
 20
127.75539999999999
 30
0.0
 10
293.21480000000003
 20
128.6353
 30
0.0
 10
293.29950000000002
 20
129.1858
 30
0.0
 10
293.49160000000001
 20
130.06020000000001
 30
0.0
 10
293.49160000000001
 20
130.06020000000001
 30
0.0
 10
293.5265
 20
130.21870000000001
 30
0.0
 10
293.66969999999998
 20
130.3357
 30
0.0
 10
293.83229999999998
 20
130.3374
 30
0.0
 10
293.83229999999998
 20
130.3374
 30
0.0
 10
293.83229999999998
 20
130.3374
 30
0.0
 10
296.35000000000002
 20
130.3374
 30
0.0
 10
296.35000000000002
 20
130.3374
 30
0.0
 10
296.35000000000002
 20
130.3374
 30
0.0
 10
296.35000000000002
 20
130.3374
 30
0.0
 10
296.35000000000002
 20
134.5642
 30
0.0
 10
296.35000000000002
 20
134.5642
 30
0.0
 10
296.35000000000002
 20
134.5642
 30
0.0
 10
295.98430000000002
 20
134.5642
 30
0.0
 10
293.90980000000002
 20
134.5181
 30
0.0
 10
293.72190000000001
 20
134.58320000000001
 30
0.0
 10
293.72190000000001
 20
134.58320000000001
 30
0.0
 10
293.42160000000001
 20
134.68709999999999
 30
0.0
 10
293.44970000000001
 20
135.0994
 30
0.0
 10
293.3888
 20
135.39850000000001
 30
0.0
 10
293.3888
 20
135.39850000000001
 30
0.0
 10
293.18439999999998
 20
136.4042
 30
0.0
 10
293.01859999999999
 20
136.76009999999999
 30
0.0
 10
292.73289999999997
 20
137.6728
 30
0.0
 10
292.73289999999997
 20
137.6728
 30
0.0
 10
292.68490000000003
 20
137.8262
 30
0.0
 10
292.75229999999999
 20
137.99809999999999
 30
0.0
 10
292.89019999999999
 20
138.0797
 30
0.0
 10
292.89019999999999
 20
138.0797
 30
0.0
 10
292.89019999999999
 20
138.0797
 30
0.0
 10
295.07080000000002
 20
139.33850000000001
 30
0.0
 10
295.07080000000002
 20
139.33850000000001
 30
0.0
 10
295.07080000000002
 20
139.33850000000001
 30
0.0
 10
295.07080000000002
 20
139.33850000000001
 30
0.0
 10
292.95749999999998
 20
142.9992
 30
0.0
 10
292.95749999999998
 20
142.9992
 30
0.0
 10
292.95749999999998
 20
142.9992
 30
0.0
 10
292.63690000000003
 20
142.81399999999999
 30
0.0
 10
290.86700000000002
 20
141.73910000000001
 30
0.0
 10
290.67189999999999
 20
141.70150000000001
 30
0.0
 10
290.67189999999999
 20
141.70150000000001
 30
0.0
 10
290.36059999999998
 20
141.6414
 30
0.0
 10
290.17520000000002
 20
142.0147
 30
0.0
 10
289.9984
 20
142.21530000000001
 30
0.0
 10
289.9984
 20
142.21530000000001
 30
0.0
 10
289.46530000000001
 20
142.82050000000001
 30
0.0
 10
288.87220000000002
 20
143.3432
 30
0.0
 10
288.2731
 20
143.8801
 30
0.0
 10
288.2731
 20
143.8801
 30
0.0
 10
288.15300000000002
 20
143.98779999999999
 30
0.0
 10
288.1234
 20
144.17400000000001
 30
0.0
 10
288.20359999999999
 20
144.31360000000001
 30
0.0
 10
288.20359999999999
 20
144.31360000000001
 30
0.0
 10
288.20359999999999
 20
144.31360000000001
 30
0.0
 10
289.46249999999998
 20
146.49420000000001
 30
0.0
 10
289.46249999999998
 20
146.49420000000001
 30
0.0
 10
289.46249999999998
 20
146.49420000000001
 30
0.0
 10
289.46249999999998
 20
146.49420000000001
 30
0.0
 10
285.80189999999999
 20
148.60769999999999
 30
0.0
 10
285.80189999999999
 20
148.60769999999999
 30
0.0
 10
285.80189999999999
 20
148.60769999999999
 30
0.0
 10
285.6216
 20
148.2955
 30
0.0
 10
284.62430000000001
 20
146.47739999999999
 30
0.0
 10
284.47430000000003
 20
146.34360000000001
 30
0.0
 10
284.47430000000003
 20
146.34360000000001
 30
0.0
 10
284.37720000000002
 20
146.25710000000001
 30
0.0
 10
284.23719999999997
 20
146.23099999999999
 30
0.0
 10
284.11559999999997
 20
146.27670000000001
 30
0.0
  0
SPLINE
  5
40
100
AcDbEntity
  8
RÚteg 1
100
AcDbSpline
210
0.0
220
0.0
230
1.0
 70
     1
 71
     3
 72
   184
 73
   180
 74
     0
 42
0.0000000001
 43
0.0000000001
 40
0.0
 40
0.0
 40
0.0
 40
0.0
 40
0.0222222222222222
 40
0.0222222222222222
 40
0.0222222222222222
 40
0.0222222222222222
 40
0.0444444444444444
 40
0.0444444444444444
 40
0.0444444444444444
 40
0.0444444444444444
 40
0.0666666666666667
 40
0.0666666666666667
 40
0.0666666666666667
 40
0.0666666666666667
 40
0.0888888888888889
 40
0.0888888888888889
 40
0.0888888888888889
 40
0.0888888888888889
 40
0.1111111111111111
 40
0.1111111111111111
 40
0.1111111111111111
 40
0.1111111111111111
 40
0.1333333333333333
 40
0.1333333333333333
 40
0.1333333333333333
 40
0.1333333333333333
 40
0.1555555555555556
 40
0.1555555555555556
 40
0.1555555555555556
 40
0.1555555555555556
 40
0.1777777777777778
 40
0.1777777777777778
 40
0.1777777777777778
 40
0.1777777777777778
 40
0.2
 40
0.2
 40
0.2
 40
0.2
 40
0.2222222222222222
 40
0.2222222222222222
 40
0.2222222222222222
 40
0.2222222222222222
 40
0.2444444444444445
 40
0.2444444444444445
 40
0.2444444444444445
 40
0.2444444444444445
 40
0.2666666666666667
 40
0.2666666666666667
 40
0.2666666666666667
 40
0.2666666666666667
 40
0.2888888888888889
 40
0.2888888888888889
 40
0.2888888888888889
 40
0.2888888888888889
 40
0.3111111111111111
 40
0.3111111111111111
 40
0.3111111111111111
 40
0.3111111111111111
 40
0.3333333333333333
 40
0.3333333333333333
 40
0.3333333333333333
 40
0.3333333333333333
 40
0.3555555555555555
 40
0.3555555555555555
 40
0.3555555555555555
 40
0.3555555555555555
 40
0.3777777777777777
 40
0.3777777777777777
 40
0.3777777777777777
 40
0.3777777777777777
 40
0.3999999999999999
 40
0.3999999999999999
 40
0.3999999999999999
 40
0.3999999999999999
 40
0.4222222222222221
 40
0.4222222222222221
 40
0.4222222222222221
 40
0.4222222222222221
 40
0.4444444444444443
 40
0.4444444444444443
 40
0.4444444444444443
 40
0.4444444444444443
 40
0.4666666666666665
 40
0.4666666666666665
 40
0.4666666666666665
 40
0.4666666666666665
 40
0.4888888888888887
 40
0.4888888888888887
 40
0.4888888888888887
 40
0.4888888888888887
 40
0.5111111111111109
 40
0.5111111111111109
 40
0.5111111111111109
 40
0.5111111111111109
 40
0.5333333333333331
 40
0.5333333333333331
 40
0.5333333333333331
 40
0.5333333333333331
 40
0.5555555555555554
 40
0.5555555555555554
 40
0.5555555555555554
 40
0.5555555555555554
 40
0.5777777777777776
 40
0.5777777777777776
 40
0.5777777777777776
 40
0.5777777777777776
 40
0.5999999999999999
 40
0.5999999999999999
 40
0.5999999999999999
 40
0.5999999999999999
 40
0.6222222222222221
 40
0.6222222222222221
 40
0.6222222222222221
 40
0.6222222222222221
 40
0.6444444444444444
 40
0.6444444444444444
 40
0.6444444444444444
 40
0.6444444444444444
 40
0.6666666666666666
 40
0.6666666666666666
 40
0.6666666666666666
 40
0.6666666666666666
 40
0.6888888888888889
 40
0.6888888888888889
 40
0.6888888888888889
 40
0.6888888888888889
 40
0.7111111111111111
 40
0.7111111111111111
 40
0.7111111111111111
 40
0.7111111111111111
 40
0.7333333333333334
 40
0.7333333333333334
 40
0.7333333333333334
 40
0.7333333333333334
 40
0.7555555555555557
 40
0.7555555555555557
 40
0.7555555555555557
 40
0.7555555555555557
 40
0.7777777777777779
 40
0.7777777777777779
 40
0.7777777777777779
 40
0.7777777777777779
 40
0.8000000000000002
 40
0.8000000000000002
 40
0.8000000000000002
 40
0.8000000000000002
 40
0.8222222222222224
 40
0.8222222222222224
 40
0.8222222222222224
 40
0.8222222222222224
 40
0.8444444444444447
 40
0.8444444444444447
 40
0.8444444444444447
 40
0.8444444444444447
 40
0.8666666666666669
 40
0.8666666666666669
 40
0.8666666666666669
 40
0.8666666666666669
 40
0.8888888888888892
 40
0.8888888888888892
 40
0.8888888888888892
 40
0.8888888888888892
 40
0.9111111111111114
 40
0.9111111111111114
 40
0.9111111111111114
 40
0.9111111111111114
 40
0.9333333333333337
 40
0.9333333333333337
 40
0.9333333333333337
 40
0.9333333333333337
 40
0.9555555555555559
 40
0.9555555555555559
 40
0.9555555555555559
 40
0.9555555555555559
 40
0.9777777777777782
 40
0.9777777777777782
 40
0.9777777777777782
 40
0.9777777777777782
 40
1.0
 40
1.0
 40
1.0
 40
1.0
 10
274.23009999999999
 20
158.214
 30
0.0
 10
273.53840000000002
 20
158.01650000000001
 30
0.0
 10
273.07549999999998
 20
157.2928
 30
0.0
 10
273.20339999999999
 20
156.57470000000001
 30
0.0
 10
273.20339999999999
 20
156.57470000000001
 30
0.0
 10
273.22739999999999
 20
156.4393
 30
0.0
 10
273.3329
 20
156.32810000000001
 30
0.0
 10
273.46629999999999
 20
156.29519999999999
 30
0.0
 10
273.46629999999999
 20
156.29519999999999
 30
0.0
 10
273.65539999999999
 20
156.2491
 30
0.0
 10
274.8562
 20
155.9221
 30
0.0
 10
275.04820000000001
 20
155.94730000000001
 30
0.0
 10
275.04820000000001
 20
155.94730000000001
 30
0.0
 10
275.3759
 20
155.99029999999999
 30
0.0
 10
275.50959999999998
 20
156.70949999999999
 30
0.0
 10
276.24650000000003
 20
156.459
 30
0.0
 10
276.24650000000003
 20
156.459
 30
0.0
 10
277.33210000000003
 20
156.09020000000001
 30
0.0
 10
276.60079999999999
 20
154.45140000000001
 30
0.0
 10
275.60300000000001
 20
155.00559999999999
 30
0.0
 10
275.60300000000001
 20
155.00559999999999
 30
0.0
 10
275.35449999999997
 20
155.1438
 30
0.0
 10
275.25749999999999
 20
155.5301
 30
0.0
 10
274.92669999999998
 20
155.4546
 30
0.0
 10
274.92669999999998
 20
155.4546
 30
0.0
 10
274.71289999999999
 20
155.4057
 30
0.0
 10
273.51150000000001
 20
155.17160000000001
 30
0.0
 10
273.35149999999999
 20
155.06120000000001
 30
0.0
 10
273.35149999999999
 20
155.06120000000001
 30
0.0
 10
273.25749999999999
 20
154.99610000000001
 30
0.0
 10
273.19880000000001
 20
154.88820000000001
 30
0.0
 10
273.1979
 20
154.77369999999999
 30
0.0
 10
273.1979
 20
154.77369999999999
 30
0.0
 10
273.18689999999998
 20
153.7105
 30
0.0
 10
273.36939999999998
 20
152.4984
 30
0.0
 10
272.05560000000003
 20
151.7944
 30
0.0
 10
272.05560000000003
 20
151.7944
 30
0.0
 10
272.05560000000003
 20
151.7944
 30
0.0
 10
269.99020000000002
 20
150.90799999999999
 30
0.0
 10
269.99020000000002
 20
150.90799999999999
 30
0.0
 10
269.99020000000002
 20
150.90799999999999
 30
0.0
 10
256.90929999999997
 20
144.58439999999999
 30
0.0
 10
254.38980000000001
 20
126.9615
 30
0.0
 10
265.18279999999999
 20
117.22750000000001
 30
0.0
 10
265.18279999999999
 20
117.22750000000001
 30
0.0
 10
267.19400000000002
 20
115.4134
 30
0.0
 10
269.31189999999998
 20
114.19840000000001
 30
0.0
 10
271.82260000000002
 20
113.21469999999999
 30
0.0
 10
271.82260000000002
 20
113.21469999999999
 30
0.0
 10
272.63549999999998
 20
112.89619999999999
 30
0.0
 10
273.19130000000001
 20
112.0933
 30
0.0
 10
273.1979
 20
111.2195
 30
0.0
 10
273.1979
 20
111.2195
 30
0.0
 10
273.19880000000001
 20
111.04600000000001
 30
0.0
 10
273.14600000000002
 20
110.1754
 30
0.0
 10
273.22699999999998
 20
109.991
 30
0.0
 10
273.22699999999998
 20
109.991
 30
0.0
 10
273.27050000000003
 20
109.8916
 30
0.0
 10
273.36020000000002
 20
109.8145
 30
0.0
 10
273.46629999999999
 20
109.7895
 30
0.0
 10
273.46629999999999
 20
109.7895
 30
0.0
 10
273.6925
 20
109.73650000000001
 30
0.0
 10
274.84640000000002
 20
109.4169
 30
0.0
 10
275.04820000000001
 20
109.4413
 30
0.0
 10
275.04820000000001
 20
109.4413
 30
0.0
 10
275.37779999999998
 20
109.4812
 30
0.0
 10
275.50020000000001
 20
110.1983
 30
0.0
 10
276.23930000000001
 20
109.95569999999999
 30
0.0
 10
276.23930000000001
 20
109.95569999999999
 30
0.0
 10
277.32069999999999
 20
109.6003
 30
0.0
 10
276.6241
 20
107.9623
 30
0.0
 10
275.61770000000001
 20
108.4918
 30
0.0
 10
275.61770000000001
 20
108.4918
 30
0.0
 10
275.34980000000002
 20
108.6327
 30
0.0
 10
275.26249999999999
 20
109.0253
 30
0.0
 10
274.92669999999998
 20
108.9486
 30
0.0
 10
274.92669999999998
 20
108.9486
 30
0.0
 10
274.71749999999997
 20
108.90089999999999
 30
0.0
 10
273.5197
 20
108.66670000000001
 30
0.0
 10
273.35469999999998
 20
108.5574
 30
0.0
 10
273.35469999999998
 20
108.5574
 30
0.0
 10
273.02330000000001
 20
108.33750000000001
 30
0.0
 10
273.23759999999999
 20
107.5671
 30
0.0
 10
273.42520000000002
 20
107.2773
 30
0.0
 10
273.42520000000002
 20
107.2773
 30
0.0
 10
273.79579999999999
 20
106.7063
 30
0.0
 10
274.46420000000001
 20
106.61239999999999
 30
0.0
 10
275.08449999999999
 20
106.4735
 30
0.0
 10
275.08449999999999
 20
106.4735
 30
0.0
 10
277.83069999999998
 20
105.85850000000001
 30
0.0
 10
280.91770000000002
 20
105.887
 30
0.0
 10
283.62369999999999
 20
106.6951
 30
0.0
 10
283.62369999999999
 20
106.6951
 30
0.0
 10
284.30279999999999
 20
106.89749999999999
 30
0.0
 10
284.75029999999998
 20
107.62269999999999
 30
0.0
 10
284.62470000000002
 20
108.327
 30
0.0
 10
284.62470000000002
 20
108.327
 30
0.0
 10
284.60059999999999
 20
108.4622
 30
0.0
 10
284.495
 20
108.574
 30
0.0
 10
284.36180000000002
 20
108.6062
 30
0.0
 10
284.36180000000002
 20
108.6062
 30
0.0
 10
284.16669999999999
 20
108.6537
 30
0.0
 10
282.97300000000001
 20
108.9798
 30
0.0
 10
282.77999999999997
 20
108.95440000000001
 30
0.0
 10
282.77999999999997
 20
108.95440000000001
 30
0.0
 10
282.45089999999999
 20
108.9111
 30
0.0
 10
282.32049999999998
 20
108.1927
 30
0.0
 10
281.58170000000001
 20
108.4426
 30
0.0
 10
281.58170000000001
 20
108.4426
 30
0.0
 10
280.49799999999999
 20
108.809
 30
0.0
 10
281.22359999999998
 20
110.4495
 30
0.0
 10
282.22500000000002
 20
109.896
 30
0.0
 10
282.22500000000002
 20
109.896
 30
0.0
 10
282.9622
 20
109.4885
 30
0.0
 10
281.96390000000002
 20
109.1832
 30
0.0
 10
284.36509999999998
 20
109.7903
 30
0.0
 10
284.36509999999998
 20
109.7903
 30
0.0
 10
284.51710000000003
 20
109.8287
 30
0.0
 10
284.6302
 20
109.971
 30
0.0
 10
284.6302
 20
110.12820000000001
 30
0.0
 10
284.6302
 20
110.12820000000001
 30
0.0
 10
284.6302
 20
111.21339999999999
 30
0.0
 10
284.476
 20
112.444
 30
0.0
 10
285.80799999999999
 20
113.1258
 30
0.0
 10
285.80799999999999
 20
113.1258
 30
0.0
 10
285.80799999999999
 20
113.1258
 30
0.0
 10
287.66000000000003
 20
113.9088
 30
0.0
 10
287.66000000000003
 20
113.9088
 30
0.0
 10
287.66000000000003
 20
113.9088
 30
0.0
 10
300.72089999999997
 20
120.0706
 30
0.0
 10
303.47859999999997
 20
137.5129
 30
0.0
 10
292.94349999999997
 20
147.3998
 30
0.0
 10
292.94349999999997
 20
147.3998
 30
0.0
 10
290.86779999999999
 20
149.34780000000001
 30
0.0
 10
288.64490000000001
 20
150.65469999999999
 30
0.0
 10
286.00529999999998
 20
151.68680000000001
 30
0.0
 10
286.00529999999998
 20
151.68680000000001
 30
0.0
 10
285.1925
 20
152.00470000000001
 30
0.0
 10
284.63679999999999
 20
152.80869999999999
 30
0.0
 10
284.63029999999998
 20
153.68219999999999
 30
0.0
 10
284.63029999999998
 20
153.68219999999999
 30
0.0
 10
284.62900000000002
 20
153.88249999999999
 30
0.0
 10
284.68200000000002
 20
154.7216
 30
0.0
 10
284.60109999999997
 20
154.91069999999999
 30
0.0
 10
284.60109999999997
 20
154.91069999999999
 30
0.0
 10
284.55869999999999
 20
155.00989999999999
 30
0.0
 10
284.46719999999999
 20
155.08770000000001
 30
0.0
 10
284.36180000000002
 20
155.11199999999999
 30
0.0
 10
284.36180000000002
 20
155.11199999999999
 30
0.0
 10
284.10890000000001
 20
155.17070000000001
 30
0.0
 10
282.9787
 20
155.48650000000001
 30
0.0
 10
282.77640000000002
 20
155.4599
 30
0.0
 10
282.77640000000002
 20
155.4599
 30
0.0
 10
282.45400000000001
 20
155.41759999999999
 30
0.0
 10
282.31610000000001
 20
154.69280000000001
 30
0.0
 10
281.5745
 20
154.95099999999999
 30
0.0
 10
281.5745
 20
154.95099999999999
 30
0.0
 10
280.49990000000003
 20
155.32480000000001
 30
0.0
 10
281.22750000000002
 20
156.95320000000001
 30
0.0
 10
282.22500000000002
 20
156.40209999999999
 30
0.0
 10
282.22500000000002
 20
156.40209999999999
 30
0.0
 10
282.47430000000003
 20
156.26429999999999
 30
0.0
 10
282.56999999999999
 20
155.87729999999999
 30
0.0
 10
282.9015
 20
155.9529
 30
0.0
 10
282.9015
 20
155.9529
 30
0.0
 10
283.10559999999998
 20
155.99959999999999
 30
0.0
 10
284.3109
 20
156.23560000000001
 30
0.0
 10
284.47340000000003
 20
156.3443
 30
0.0
 10
284.47340000000003
 20
156.3443
 30
0.0
 10
284.8066
 20
156.56780000000001
 30
0.0
 10
284.58589999999998
 20
157.33670000000001
 30
0.0
 10
284.41070000000002
 20
157.61179999999999
 30
0.0
 10
284.41070000000002
 20
157.61179999999999
 30
0.0
 10
284.04109999999997
 20
158.1925
 30
0.0
 10
283.37110000000001
 20
158.2876
 30
0.0
 10
282.74349999999998
 20
158.428
 30
0.0
 10
282.74349999999998
 20
158.428
 30
0.0
 10
279.92750000000001
 20
159.05869999999999
 30
0.0
 10
277.012
 20
158.9606
 30
0.0
 10
274.23009999999999
 20
158.214
 30
0.0
  0
SPLINE
  5
41
100
AcDbEntity
  8
RÚteg 1
100
AcDbSpline
210
0.0
220
0.0
230
1.0
 70
     1
 71
     3
 72
    72
 73
    68
 74
     0
 42
0.0000000001
 43
0.0000000001
 40
0.0
 40
0.0
 40
0.0
 40
0.0
 40
0.0588235294117647
 40
0.0588235294117647
 40
0.0588235294117647
 40
0.0588235294117647
 40
0.1176470588235294
 40
0.1176470588235294
 40
0.1176470588235294
 40
0.1176470588235294
 40
0.1764705882352941
 40
0.1764705882352941
 40
0.1764705882352941
 40
0.1764705882352941
 40
0.2352941176470588
 40
0.2352941176470588
 40
0.2352941176470588
 40
0.2352941176470588
 40
0.2941176470588235
 40
0.2941176470588235
 40
0.2941176470588235
 40
0.2941176470588235
 40
0.3529411764705883
 40
0.3529411764705883
 40
0.3529411764705883
 40
0.3529411764705883
 40
0.411764705882353
 40
0.411764705882353
 40
0.411764705882353
 40
0.411764705882353
 40
0.4705882352941177
 40
0.4705882352941177
 40
0.4705882352941177
 40
0.4705882352941177
 40
0.5294117647058824
 40
0.5294117647058824
 40
0.5294117647058824
 40
0.5294117647058824
 40
0.5882352941176471
 40
0.5882352941176471
 40
0.5882352941176471
 40
0.5882352941176471
 40
0.6470588235294118
 40
0.6470588235294118
 40
0.6470588235294118
 40
0.6470588235294118
 40
0.7058823529411765
 40
0.7058823529411765
 40
0.7058823529411765
 40
0.7058823529411765
 40
0.7647058823529412
 40
0.7647058823529412
 40
0.7647058823529412
 40
0.7647058823529412
 40
0.823529411764706
 40
0.823529411764706
 40
0.823529411764706
 40
0.823529411764706
 40
0.8823529411764707
 40
0.8823529411764707
 40
0.8823529411764707
 40
0.8823529411764707
 40
0.9411764705882354
 40
0.9411764705882354
 40
0.9411764705882354
 40
0.9411764705882354
 40
1.0
 40
1.0
 40
1.0
 40
1.0
 10
199.10040000000001
 20
82.209599999999995
 30
0.0
 10
203.1747
 20
79.412099999999995
 30
0.0
 10
207.8595
 20
77.9666
 30
0.0
 10
212.79490000000001
 20
77.924000000000007
 30
0.0
 10
212.79490000000001
 20
77.924000000000007
 30
0.0
 10
217.7304
 20
77.9666
 30
0.0
 10
222.4152
 20
79.412099999999995
 30
0.0
 10
226.4896
 20
82.209599999999995
 30
0.0
 10
226.4896
 20
82.209599999999995
 30
0.0
 10
228.45330000000001
 20
83.547600000000003
 30
0.0
 10
230.69720000000001
 20
84.336299999999994
 30
0.0
 10
233.06649999999999
 20
84.519499999999994
 30
0.0
 10
233.06649999999999
 20
84.519499999999994
 30
0.0
 10
233.06649999999999
 20
84.519499999999994
 30
0.0
 10
233.06649999999999
 20
77.539299999999997
 30
0.0
 10
233.06649999999999
 20
77.539299999999997
 30
0.0
 10
233.06649999999999
 20
77.539299999999997
 30
0.0
 10
233.06649999999999
 20
77.539299999999997
 30
0.0
 10
235.9547
 20
77.539299999999997
 30
0.0
 10
235.9547
 20
77.539299999999997
 30
0.0
 10
235.9547
 20
77.539299999999997
 30
0.0
 10
235.9547
 20
77.539299999999997
 30
0.0
 10
235.9547
 20
84.400099999999995
 30
0.0
 10
235.9547
 20
84.400099999999995
 30
0.0
 10
235.9547
 20
84.400099999999995
 30
0.0
 10
242.69810000000001
 20
83.332300000000004
 30
0.0
 10
247.46449999999999
 20
77.414299999999997
 30
0.0
 10
247.0692
 20
70.597800000000007
 30
0.0
 10
247.0692
 20
70.597800000000007
 30
0.0
 10
247.0692
 20
70.597800000000007
 30
0.0
 10
226.88470000000001
 20
70.597800000000007
 30
0.0
 10
226.88470000000001
 20
70.597800000000007
 30
0.0
 10
226.88470000000001
 20
70.597800000000007
 30
0.0
 10
226.88470000000001
 20
70.597800000000007
 30
0.0
 10
226.88470000000001
 20
67.780000000000001
 30
0.0
 10
226.88470000000001
 20
67.780000000000001
 30
0.0
 10
226.88470000000001
 20
67.780000000000001
 30
0.0
 10
226.88470000000001
 20
67.780000000000001
 30
0.0
 10
198.70519999999999
 20
67.780000000000001
 30
0.0
 10
198.70519999999999
 20
67.780000000000001
 30
0.0
 10
198.70519999999999
 20
67.780000000000001
 30
0.0
 10
198.70519999999999
 20
67.780000000000001
 30
0.0
 10
198.70519999999999
 20
70.597800000000007
 30
0.0
 10
198.70519999999999
 20
70.597800000000007
 30
0.0
 10
198.70519999999999
 20
70.597800000000007
 30
0.0
 10
198.70519999999999
 20
70.597800000000007
 30
0.0
 10
178.52070000000001
 20
70.597800000000007
 30
0.0
 10
178.52070000000001
 20
70.597800000000007
 30
0.0
 10
178.52070000000001
 20
70.597800000000007
 30
0.0
 10
178.12549999999999
 20
77.414299999999997
 30
0.0
 10
182.892
 20
83.332300000000004
 30
0.0
 10
189.63509999999999
 20
84.400099999999995
 30
0.0
 10
189.63509999999999
 20
84.400099999999995
 30
0.0
 10
189.63509999999999
 20
84.400099999999995
 30
0.0
 10
189.63509999999999
 20
77.539299999999997
 30
0.0
 10
189.63509999999999
 20
77.539299999999997
 30
0.0
 10
189.63509999999999
 20
77.539299999999997
 30
0.0
 10
189.63509999999999
 20
77.539299999999997
 30
0.0
 10
192.52350000000001
 20
77.539299999999997
 30
0.0
 10
192.52350000000001
 20
77.539299999999997
 30
0.0
 10
192.52350000000001
 20
77.539299999999997
 30
0.0
 10
192.52350000000001
 20
77.539299999999997
 30
0.0
 10
192.52350000000001
 20
84.519499999999994
 30
0.0
 10
192.52350000000001
 20
84.519499999999994
 30
0.0
 10
192.52350000000001
 20
84.519499999999994
 30
0.0
 10
194.89250000000001
 20
84.336299999999994
 30
0.0
 10
197.13669999999999
 20
83.547700000000006
 30
0.0
 10
199.10040000000001
 20
82.209599999999995
 30
0.0
  0
SPLINE
  5
42
100
AcDbEntity
  8
RÚteg 1
100
AcDbSpline
210
0.0
220
0.0
230
1.0
 70
     1
 71
     3
 72
    20
 73
    16
 74
     0
 42
0.0000000001
 43
0.0000000001
 40
0.0
 40
0.0
 40
0.0
 40
0.0
 40
0.25
 40
0.25
 40
0.25
 40
0.25
 40
0.5
 40
0.5
 40
0.5
 40
0.5
 40
0.75
 40
0.75
 40
0.75
 40
0.75
 40
1.0
 40
1.0
 40
1.0
 40
1.0
 10
215.6121
 20
169.3347
 30
0.0
 10
215.6121
 20
170.43510000000001
 30
0.0
 10
214.72
 20
171.3272
 30
0.0
 10
213.61949999999999
 20
171.3272
 30
0.0
 10
213.61949999999999
 20
171.3272
 30
0.0
 10
212.51910000000001
 20
171.3272
 30
0.0
 10
211.62700000000001
 20
170.43510000000001
 30
0.0
 10
211.62700000000001
 20
169.3347
 30
0.0
 10
211.62700000000001
 20
169.3347
 30
0.0
 10
211.62700000000001
 20
168.23410000000001
 30
0.0
 10
212.51910000000001
 20
167.34200000000001
 30
0.0
 10
213.61949999999999
 20
167.34200000000001
 30
0.0
 10
213.61949999999999
 20
167.34200000000001
 30
0.0
 10
214.72
 20
167.34200000000001
 30
0.0
 10
215.6121
 20
168.23410000000001
 30
0.0
 10
215.6121
 20
169.3347
 30
0.0
  0
SPLINE
  5
43
100
AcDbEntity
  8
RÚteg 1
100
AcDbSpline
210
0.0
220
0.0
230
1.0
 70
     1
 71
     3
 72
    72
 73
    68
 74
     0
 42
0.0000000001
 43
0.0000000001
 40
0.0
 40
0.0
 40
0.0
 40
0.0
 40
0.0588235294117647
 40
0.0588235294117647
 40
0.0588235294117647
 40
0.0588235294117647
 40
0.1176470588235294
 40
0.1176470588235294
 40
0.1176470588235294
 40
0.1176470588235294
 40
0.1764705882352941
 40
0.1764705882352941
 40
0.1764705882352941
 40
0.1764705882352941
 40
0.2352941176470588
 40
0.2352941176470588
 40
0.2352941176470588
 40
0.2352941176470588
 40
0.2941176470588235
 40
0.2941176470588235
 40
0.2941176470588235
 40
0.2941176470588235
 40
0.3529411764705883
 40
0.3529411764705883
 40
0.3529411764705883
 40
0.3529411764705883
 40
0.411764705882353
 40
0.411764705882353
 40
0.411764705882353
 40
0.411764705882353
 40
0.4705882352941177
 40
0.4705882352941177
 40
0.4705882352941177
 40
0.4705882352941177
 40
0.5294117647058824
 40
0.5294117647058824
 40
0.5294117647058824
 40
0.5294117647058824
 40
0.5882352941176471
 40
0.5882352941176471
 40
0.5882352941176471
 40
0.5882352941176471
 40
0.6470588235294118
 40
0.6470588235294118
 40
0.6470588235294118
 40
0.6470588235294118
 40
0.7058823529411765
 40
0.7058823529411765
 40
0.7058823529411765
 40
0.7058823529411765
 40
0.7647058823529412
 40
0.7647058823529412
 40
0.7647058823529412
 40
0.7647058823529412
 40
0.823529411764706
 40
0.823529411764706
 40
0.823529411764706
 40
0.823529411764706
 40
0.8823529411764707
 40
0.8823529411764707
 40
0.8823529411764707
 40
0.8823529411764707
 40
0.9411764705882354
 40
0.9411764705882354
 40
0.9411764705882354
 40
0.9411764705882354
 40
1.0
 40
1.0
 40
1.0
 40
1.0
 10
209.31319999999999
 20
182.02109999999999
 30
0.0
 10
208.27340000000001
 20
181.93010000000001
 30
0.0
 10
207.83150000000001
 20
181.88300000000001
 30
0.0
 10
207.0718
 20
181.1592
 30
0.0
 10
207.0718
 20
181.1592
 30
0.0
 10
206.4939
 20
180.60900000000001
 30
0.0
 10
205.58619999999999
 20
181.3168
 30
0.0
 10
205.97219999999999
 20
182.01439999999999
 30
0.0
 10
205.97219999999999
 20
182.01439999999999
 30
0.0
 10
205.97219999999999
 20
182.01439999999999
 30
0.0
 10
210.0181
 20
189.2475
 30
0.0
 10
210.0181
 20
189.2475
 30
0.0
 10
210.0181
 20
189.2475
 30
0.0
 10
210.7868
 20
190.6062
 30
0.0
 10
212.76669999999999
 20
190.6686
 30
0.0
 10
213.58580000000001
 20
189.32169999999999
 30
0.0
 10
213.58580000000001
 20
189.32169999999999
 30
0.0
 10
217.02269999999999
 20
183.66829999999999
 30
0.0
 10
218.9571
 20
176.90629999999999
 30
0.0
 10
219.0497
 20
170.29220000000001
 30
0.0
 10
219.0497
 20
170.29220000000001
 30
0.0
 10
219.0497
 20
170.29220000000001
 30
0.0
 10
219.0497
 20
167.96850000000001
 30
0.0
 10
219.0497
 20
167.96850000000001
 30
0.0
 10
219.0497
 20
167.96850000000001
 30
0.0
 10
219.0497
 20
167.96850000000001
 30
0.0
 10
223.2766
 20
167.96850000000001
 30
0.0
 10
223.2766
 20
167.96850000000001
 30
0.0
 10
223.2766
 20
167.96850000000001
 30
0.0
 10
223.2766
 20
167.40960000000001
 30
0.0
 10
223.3253
 20
165.2953
 30
0.0
 10
223.25110000000001
 20
164.8235
 30
0.0
 10
223.25110000000001
 20
164.8235
 30
0.0
 10
223.0908
 20
163.8049
 30
0.0
 10
222.1918
 20
163.041
 30
0.0
 10
221.16300000000001
 20
163.0369
 30
0.0
 10
221.16300000000001
 20
163.0369
 30
0.0
 10
219.95779999999999
 20
163.03229999999999
 30
0.0
 10
218.74780000000001
 20
163.07490000000001
 30
0.0
 10
217.54329999999999
 20
163.03309999999999
 30
0.0
 10
217.54329999999999
 20
163.03309999999999
 30
0.0
 10
214.76150000000001
 20
162.93629999999999
 30
0.0
 10
212.28380000000001
 20
161.02170000000001
 30
0.0
 10
211.49010000000001
 20
158.35339999999999
 30
0.0
 10
211.49010000000001
 20
158.35339999999999
 30
0.0
 10
210.9572
 20
156.5616
 30
0.0
 10
210.85939999999999
 20
155.44370000000001
 30
0.0
 10
210.75729999999999
 20
153.6086
 30
0.0
 10
210.75729999999999
 20
153.6086
 30
0.0
 10
210.6241
 20
151.21190000000001
 30
0.0
 10
207.1831
 20
150.88239999999999
 30
0.0
 10
206.59790000000001
 20
153.21000000000001
 30
0.0
 10
206.59790000000001
 20
153.21000000000001
 30
0.0
 10
206.36689999999999
 20
154.12790000000001
 30
0.0
 10
206.7209
 20
154.86109999999999
 30
0.0
 10
207.41560000000001
 20
155.4453
 30
0.0
 10
207.41560000000001
 20
155.4453
 30
0.0
 10
207.64930000000001
 20
155.64160000000001
 30
0.0
 10
207.49549999999999
 20
156.02379999999999
 30
0.0
 10
207.45160000000001
 20
156.40020000000001
 30
0.0
 10
207.45160000000001
 20
156.40020000000001
 30
0.0
 10
207.05459999999999
 20
159.80930000000001
 30
0.0
 10
207.6404
 20
163.24709999999999
 30
0.0
 10
209.0615
 20
166.36330000000001
 30
0.0
 10
209.0615
 20
166.36330000000001
 30
0.0
 10
211.33969999999999
 20
171.3587
 30
0.0
 10
211.38489999999999
 20
176.94839999999999
 30
0.0
 10
209.31319999999999
 20
182.02109999999999
 30
0.0
  0
SPLINE
  5
44
100
AcDbEntity
  8
RÚteg 1
100
AcDbSpline
210
0.0
220
0.0
230
1.0
 70
     0
 71
     3
 72
    20
 73
    16
 74
     0
 42
0.0000000001
 43
0.0000000001
 40
0.0
 40
0.0
 40
0.0
 40
0.0
 40
0.25
 40
0.25
 40
0.25
 40
0.25
 40
0.5
 40
0.5
 40
0.5
 40
0.5
 40
0.75
 40
0.75
 40
0.75
 40
0.75
 40
1.0
 40
1.0
 40
1.0
 40
1.0
 10
244.6567
 20
141.75120000000001
 30
0.0
 10
244.6567
 20
141.75120000000001
 30
0.0
 10
241.83879999999999
 20
141.75120000000001
 30
0.0
 10
241.83879999999999
 20
141.75120000000001
 30
0.0
 10
241.83879999999999
 20
141.75120000000001
 30
0.0
 10
241.83879999999999
 20
141.75120000000001
 30
0.0
 10
241.83879999999999
 20
123.4344
 30
0.0
 10
241.83879999999999
 20
123.4344
 30
0.0
 10
241.83879999999999
 20
123.4344
 30
0.0
 10
241.83879999999999
 20
123.4344
 30
0.0
 10
234.79400000000001
 20
123.4344
 30
0.0
 10
234.79400000000001
 20
123.4344
 30
0.0
 10
234.79400000000001
 20
123.4344
 30
0.0
 10
234.79400000000001
 20
123.4344
 30
0.0
 10
234.79400000000001
 20
188.24709999999999
 30
0.0
 10
234.79400000000001
 20
188.24709999999999
 30
0.0
  0
SPLINE
  5
45
100
AcDbEntity
  8
RÚteg 1
100
AcDbSpline
210
0.0
220
0.0
230
1.0
 70
     0
 71
     3
 72
    24
 73
    20
 74
     0
 42
0.0000000001
 43
0.0000000001
 40
0.0
 40
0.0
 40
0.0
 40
0.0
 40
0.2
 40
0.2
 40
0.2
 40
0.2
 40
0.4
 40
0.4
 40
0.4
 40
0.4
 40
0.6000000000000001
 40
0.6000000000000001
 40
0.6000000000000001
 40
0.6000000000000001
 40
0.8
 40
0.8
 40
0.8
 40
0.8
 40
1.0
 40
1.0
 40
1.0
 40
1.0
 10
234.79400000000001
 20
188.24709999999999
 30
0.0
 10
234.79400000000001
 20
188.24709999999999
 30
0.0
 10
234.86439999999999
 20
188.24709999999999
 30
0.0
 10
234.86439999999999
 20
188.24709999999999
 30
0.0
 10
234.86439999999999
 20
188.24709999999999
 30
0.0
 10
234.86439999999999
 20
188.24709999999999
 30
0.0
 10
241.83879999999999
 20
188.24709999999999
 30
0.0
 10
241.83879999999999
 20
188.24709999999999
 30
0.0
 10
241.83879999999999
 20
188.24709999999999
 30
0.0
 10
241.83879999999999
 20
188.24709999999999
 30
0.0
 10
241.83879999999999
 20
169.93049999999999
 30
0.0
 10
241.83879999999999
 20
169.93049999999999
 30
0.0
 10
241.83879999999999
 20
169.93049999999999
 30
0.0
 10
241.83879999999999
 20
169.93049999999999
 30
0.0
 10
244.6567
 20
169.93049999999999
 30
0.0
 10
244.6567
 20
169.93049999999999
 30
0.0
 10
244.6567
 20
169.93049999999999
 30
0.0
 10
244.6567
 20
169.93049999999999
 30
0.0
 10
244.6567
 20
141.75120000000001
 30
0.0
 10
244.6567
 20
141.75120000000001
 30
0.0
  0
SPLINE
  5
46
100
AcDbEntity
  8
RÚteg 1
100
AcDbSpline
210
0.0
220
0.0
230
1.0
 70
     0
 71
     3
 72
    32
 73
    28
 74
     0
 42
0.0000000001
 43
0.0000000001
 40
0.0
 40
0.0
 40
0.0
 40
0.0
 40
0.1428571428571429
 40
0.1428571428571429
 40
0.1428571428571429
 40
0.1428571428571429
 40
0.2857142857142857
 40
0.2857142857142857
 40
0.2857142857142857
 40
0.2857142857142857
 40
0.4285714285714286
 40
0.4285714285714286
 40
0.4285714285714286
 40
0.4285714285714286
 40
0.5714285714285714
 40
0.5714285714285714
 40
0.5714285714285714
 40
0.5714285714285714
 40
0.7142857142857142
 40
0.7142857142857142
 40
0.7142857142857142
 40
0.7142857142857142
 40
0.857142857142857
 40
0.857142857142857
 40
0.857142857142857
 40
0.857142857142857
 40
1.0
 40
1.0
 40
1.0
 40
1.0
 10
234.79400000000001
 20
188.24709999999999
 30
0.0
 10
234.79400000000001
 20
188.24709999999999
 30
0.0
 10
227.74889999999999
 20
188.24709999999999
 30
0.0
 10
227.74889999999999
 20
188.24709999999999
 30
0.0
 10
227.74889999999999
 20
188.24709999999999
 30
0.0
 10
227.74889999999999
 20
188.24709999999999
 30
0.0
 10
227.74889999999999
 20
169.93049999999999
 30
0.0
 10
227.74889999999999
 20
169.93049999999999
 30
0.0
 10
227.74889999999999
 20
169.93049999999999
 30
0.0
 10
227.74889999999999
 20
169.93049999999999
 30
0.0
 10
224.93119999999999
 20
169.93049999999999
 30
0.0
 10
224.93119999999999
 20
169.93049999999999
 30
0.0
 10
224.93119999999999
 20
169.93049999999999
 30
0.0
 10
224.93119999999999
 20
169.93049999999999
 30
0.0
 10
224.93119999999999
 20
141.75120000000001
 30
0.0
 10
224.93119999999999
 20
141.75120000000001
 30
0.0
 10
224.93119999999999
 20
141.75120000000001
 30
0.0
 10
224.93119999999999
 20
141.75120000000001
 30
0.0
 10
227.74889999999999
 20
141.75120000000001
 30
0.0
 10
227.74889999999999
 20
141.75120000000001
 30
0.0
 10
227.74889999999999
 20
141.75120000000001
 30
0.0
 10
227.74889999999999
 20
141.75120000000001
 30
0.0
 10
227.74889999999999
 20
123.4344
 30
0.0
 10
227.74889999999999
 20
123.4344
 30
0.0
 10
227.74889999999999
 20
123.4344
 30
0.0
 10
227.74889999999999
 20
123.4344
 30
0.0
 10
234.79400000000001
 20
123.4344
 30
0.0
 10
234.79400000000001
 20
123.4344
 30
0.0
  0
SPLINE
  5
47
100
AcDbEntity
  8
RÚteg 1
100
AcDbSpline
210
0.0
220
0.0
230
1.0
 70
     0
 71
     3
 72
     8
 73
     4
 74
     0
 42
0.0000000001
 43
0.0000000001
 40
0.0
 40
0.0
 40
0.0
 40
0.0
 40
1.0
 40
1.0
 40
1.0
 40
1.0
 10
315.10520000000002
 20
114.2761
 30
0.0
 10
315.10520000000002
 20
114.2761
 30
0.0
 10
312.28750000000002
 20
114.2761
 30
0.0
 10
312.28750000000002
 20
114.2761
 30
0.0
  0
SPLINE
  5
48
100
AcDbEntity
  8
RÚteg 1
100
AcDbSpline
210
0.0
220
0.0
230
1.0
 70
     1
 71
     3
 72
   112
 73
   108
 74
     0
 42
0.0000000001
 43
0.0000000001
 40
0.0
 40
0.0
 40
0.0
 40
0.0
 40
0.037037037037037
 40
0.037037037037037
 40
0.037037037037037
 40
0.037037037037037
 40
0.0740740740740741
 40
0.0740740740740741
 40
0.0740740740740741
 40
0.0740740740740741
 40
0.1111111111111111
 40
0.1111111111111111
 40
0.1111111111111111
 40
0.1111111111111111
 40
0.1481481481481481
 40
0.1481481481481481
 40
0.1481481481481481
 40
0.1481481481481481
 40
0.1851851851851852
 40
0.1851851851851852
 40
0.1851851851851852
 40
0.1851851851851852
 40
0.2222222222222222
 40
0.2222222222222222
 40
0.2222222222222222
 40
0.2222222222222222
 40
0.2592592592592592
 40
0.2592592592592592
 40
0.2592592592592592
 40
0.2592592592592592
 40
0.2962962962962963
 40
0.2962962962962963
 40
0.2962962962962963
 40
0.2962962962962963
 40
0.3333333333333333
 40
0.3333333333333333
 40
0.3333333333333333
 40
0.3333333333333333
 40
0.3703703703703704
 40
0.3703703703703704
 40
0.3703703703703704
 40
0.3703703703703704
 40
0.4074074074074074
 40
0.4074074074074074
 40
0.4074074074074074
 40
0.4074074074074074
 40
0.4444444444444444
 40
0.4444444444444444
 40
0.4444444444444444
 40
0.4444444444444444
 40
0.4814814814814815
 40
0.4814814814814815
 40
0.4814814814814815
 40
0.4814814814814815
 40
0.5185185185185185
 40
0.5185185185185185
 40
0.5185185185185185
 40
0.5185185185185185
 40
0.5555555555555556
 40
0.5555555555555556
 40
0.5555555555555556
 40
0.5555555555555556
 40
0.5925925925925926
 40
0.5925925925925926
 40
0.5925925925925926
 40
0.5925925925925926
 40
0.6296296296296295
 40
0.6296296296296295
 40
0.6296296296296295
 40
0.6296296296296295
 40
0.6666666666666665
 40
0.6666666666666665
 40
0.6666666666666665
 40
0.6666666666666665
 40
0.7037037037037035
 40
0.7037037037037035
 40
0.7037037037037035
 40
0.7037037037037035
 40
0.7407407407407405
 40
0.7407407407407405
 40
0.7407407407407405
 40
0.7407407407407405
 40
0.7777777777777775
 40
0.7777777777777775
 40
0.7777777777777775
 40
0.7777777777777775
 40
0.8148148148148144
 40
0.8148148148148144
 40
0.8148148148148144
 40
0.8148148148148144
 40
0.8518518518518514
 40
0.8518518518518514
 40
0.8518518518518514
 40
0.8518518518518514
 40
0.8888888888888884
 40
0.8888888888888884
 40
0.8888888888888884
 40
0.8888888888888884
 40
0.9259259259259254
 40
0.9259259259259254
 40
0.9259259259259254
 40
0.9259259259259254
 40
0.9629629629629624
 40
0.9629629629629624
 40
0.9629629629629624
 40
0.9629629629629624
 40
1.0
 40
1.0
 40
1.0
 40
1.0
 10
306.35019999999997
 20
122.1236
 30
0.0
 10
306.35019999999997
 20
122.1236
 30
0.0
 10
310.70589999999999
 20
122.1236
 30
0.0
 10
310.70589999999999
 20
122.1236
 30
0.0
 10
310.70589999999999
 20
122.1236
 30
0.0
 10
312.67079999999999
 20
125.16249999999999
 30
0.0
 10
313.80450000000002
 20
128.51949999999999
 30
0.0
 10
314.08449999999999
 20
132.12739999999999
 30
0.0
 10
314.08449999999999
 20
132.12739999999999
 30
0.0
 10
314.08449999999999
 20
132.12739999999999
 30
0.0
 10
307.52050000000003
 20
132.12739999999999
 30
0.0
 10
307.52050000000003
 20
132.12739999999999
 30
0.0
 10
307.52050000000003
 20
132.12739999999999
 30
0.0
 10
307.52050000000003
 20
132.12739999999999
 30
0.0
 10
307.52050000000003
 20
135.01589999999999
 30
0.0
 10
307.52050000000003
 20
135.01589999999999
 30
0.0
 10
307.52050000000003
 20
135.01589999999999
 30
0.0
 10
307.52050000000003
 20
135.01589999999999
 30
0.0
 10
314.08449999999999
 20
135.01589999999999
 30
0.0
 10
314.08449999999999
 20
135.01589999999999
 30
0.0
 10
314.08449999999999
 20
135.01589999999999
 30
0.0
 10
313.80450000000002
 20
138.62370000000001
 30
0.0
 10
312.67079999999999
 20
141.98089999999999
 30
0.0
 10
310.70589999999999
 20
145.0196
 30
0.0
 10
310.70589999999999
 20
145.0196
 30
0.0
 10
310.70589999999999
 20
145.0196
 30
0.0
 10
306.35019999999997
 20
145.0196
 30
0.0
 10
306.35019999999997
 20
145.0196
 30
0.0
 10
306.35019999999997
 20
145.0196
 30
0.0
 10
306.35019999999997
 20
145.0196
 30
0.0
 10
306.35019999999997
 20
147.90790000000001
 30
0.0
 10
306.35019999999997
 20
147.90790000000001
 30
0.0
 10
306.35019999999997
 20
147.90790000000001
 30
0.0
 10
306.35019999999997
 20
147.90790000000001
 30
0.0
 10
310.6123
 20
147.90790000000001
 30
0.0
 10
310.6123
 20
147.90790000000001
 30
0.0
 10
310.6123
 20
147.90790000000001
 30
0.0
 10
310.6123
 20
147.90790000000001
 30
0.0
 10
310.6123
 20
149.47030000000001
 30
0.0
 10
310.6123
 20
149.47030000000001
 30
0.0
 10
310.6123
 20
149.47030000000001
 30
0.0
 10
310.60270000000003
 20
150.74340000000001
 30
0.0
 10
309.91550000000001
 20
151.9143
 30
0.0
 10
308.80939999999998
 20
152.5444
 30
0.0
 10
308.80939999999998
 20
152.5444
 30
0.0
 10
308.80939999999998
 20
152.5444
 30
0.0
 10
306.58449999999999
 20
153.78890000000001
 30
0.0
 10
306.58449999999999
 20
153.78890000000001
 30
0.0
 10
306.58449999999999
 20
153.78890000000001
 30
0.0
 10
306.58449999999999
 20
153.78890000000001
 30
0.0
 10
306.65179999999998
 20
153.0214
 30
0.0
 10
306.65179999999998
 20
153.0214
 30
0.0
 10
306.65179999999998
 20
153.0214
 30
0.0
 10
306.6893
 20
152.62710000000001
 30
0.0
 10
306.81869999999998
 20
152.25389999999999
 30
0.0
 10
307.03160000000003
 20
151.9203
 30
0.0
 10
307.03160000000003
 20
151.9203
 30
0.0
 10
307.3297
 20
151.45740000000001
 30
0.0
 10
306.99040000000002
 20
150.83500000000001
 30
0.0
 10
306.44099999999997
 20
150.83150000000001
 30
0.0
 10
306.44099999999997
 20
150.83150000000001
 30
0.0
 10
306.44099999999997
 20
150.83150000000001
 30
0.0
 10
303.56740000000002
 20
150.83150000000001
 30
0.0
 10
303.56740000000002
 20
150.83150000000001
 30
0.0
 10
303.56740000000002
 20
150.83150000000001
 30
0.0
 10
303.56740000000002
 20
150.83150000000001
 30
0.0
 10
303.56740000000002
 20
148.0137
 30
0.0
 10
303.56740000000002
 20
148.0137
 30
0.0
 10
303.56740000000002
 20
148.0137
 30
0.0
 10
303.56740000000002
 20
148.0137
 30
0.0
 10
300.32040000000001
 20
144.66409999999999
 30
0.0
 10
300.32040000000001
 20
144.66409999999999
 30
0.0
 10
300.32040000000001
 20
144.66409999999999
 30
0.0
 10
300.00200000000001
 20
144.3313
 30
0.0
 10
299.86369999999999
 20
143.8648
 30
0.0
 10
299.9495
 20
143.41229999999999
 30
0.0
 10
299.9495
 20
143.41229999999999
 30
0.0
 10
301.20490000000001
 20
136.8073
 30
0.0
 10
301.20490000000001
 20
130.33590000000001
 30
0.0
 10
299.9495
 20
123.7311
 30
0.0
 10
299.9495
 20
123.7311
 30
0.0
 10
299.86360000000002
 20
123.2778
 30
0.0
 10
300.00240000000002
 20
122.81270000000001
 30
0.0
 10
300.32040000000001
 20
122.479
 30
0.0
 10
300.32040000000001
 20
122.479
 30
0.0
 10
300.32040000000001
 20
122.479
 30
0.0
 10
303.56740000000002
 20
119.1297
 30
0.0
 10
303.56740000000002
 20
119.1297
 30
0.0
 10
303.56740000000002
 20
119.1297
 30
0.0
 10
303.56740000000002
 20
119.1297
 30
0.0
 10
303.56740000000002
 20
116.31180000000001
 30
0.0
 10
303.56740000000002
 20
116.31180000000001
 30
0.0
 10
303.56740000000002
 20
116.31180000000001
 30
0.0
 10
303.56740000000002
 20
116.31180000000001
 30
0.0
 10
310.6123
 20
116.31180000000001
 30
0.0
 10
310.6123
 20
116.31180000000001
 30
0.0
 10
310.6123
 20
116.31180000000001
 30
0.0
 10
310.6123
 20
116.31180000000001
 30
0.0
 10
310.6123
 20
119.2353
 30
0.0
 10
310.6123
 20
119.2353
 30
0.0
 10
310.6123
 20
119.2353
 30
0.0
 10
310.6123
 20
119.2353
 30
0.0
 10
306.35019999999997
 20
119.2353
 30
0.0
 10
306.35019999999997
 20
119.2353
 30
0.0
 10
306.35019999999997
 20
119.2353
 30
0.0
 10
306.35019999999997
 20
119.2353
 30
0.0
 10
306.35019999999997
 20
122.1236
 30
0.0
 10
306.35019999999997
 20
122.1236
 30
0.0
  0
SPLINE
  5
49
100
AcDbEntity
  8
RÚteg 1
100
AcDbSpline
210
0.0
220
0.0
230
1.0
 70
     1
 71
     3
 72
    16
 73
    12
 74
     0
 42
0.0000000001
 43
0.0000000001
 40
0.0
 40
0.0
 40
0.0
 40
0.0
 40
0.3333333333333333
 40
0.3333333333333333
 40
0.3333333333333333
 40
0.3333333333333333
 40
0.6666666666666666
 40
0.6666666666666666
 40
0.6666666666666666
 40
0.6666666666666666
 40
1.0
 40
1.0
 40
1.0
 40
1.0
 10
210.4727
 20
197.27549999999999
 30
0.0
 10
210.4862
 20
193.95529999999999
 30
0.0
 10
214.96119999999999
 20
192.9179
 30
0.0
 10
216.43989999999999
 20
195.8638
 30
0.0
 10
216.43989999999999
 20
195.8638
 30
0.0
 10
217.90299999999999
 20
198.77860000000001
 30
0.0
 10
214.45820000000001
 20
201.73410000000001
 30
0.0
 10
211.79910000000001
 20
199.8443
 30
0.0
 10
211.79910000000001
 20
199.8443
 30
0.0
 10
210.9717
 20
199.2561
 30
0.0
 10
210.47710000000001
 20
198.2886
 30
0.0
 10
210.4727
 20
197.27549999999999
 30
0.0
  0
SPLINE
  5
4A
100
AcDbEntity
  8
RÚteg 1
100
AcDbSpline
210
0.0
220
0.0
230
1.0
 70
     0
 71
     3
 72
     8
 73
     4
 74
     0
 42
0.0000000001
 43
0.0000000001
 40
0.0
 40
0.0
 40
0.0
 40
0.0
 40
1.0
 40
1.0
 40
1.0
 40
1.0
 10
182.27359999999999
 20
218.37219999999999
 30
0.0
 10
182.27359999999999
 20
218.37219999999999
 30
0.0
 10
216.13159999999999
 20
202.69149999999999
 30
0.0
 10
216.13159999999999
 20
202.69149999999999
 30
0.0
  0
SPLINE
  5
4B
100
AcDbEntity
  8
RÚteg 1
100
AcDbSpline
210
0.0
220
0.0
230
1.0
 70
     0
 71
     3
 72
    12
 73
     8
 74
     0
 42
0.0000000001
 43
0.0000000001
 40
0.0
 40
0.0
 40
0.0
 40
0.0
 40
0.5
 40
0.5
 40
0.5
 40
0.5
 40
1.0
 40
1.0
 40
1.0
 40
1.0
 10
216.13159999999999
 20
202.69149999999999
 30
0.0
 10
221.1824
 20
200.3201
 30
0.0
 10
220.51759999999999
 20
193.00120000000001
 30
0.0
 10
215.22479999999999
 20
191.52590000000001
 30
0.0
 10
215.22479999999999
 20
191.52590000000001
 30
0.0
 10
214.82599999999999
 20
191.41470000000001
 30
0.0
 10
214.41669999999999
 20
191.34700000000001
 30
0.0
 10
214.00370000000001
 20
191.31899999999999
 30
0.0
  0
SPLINE
  5
4C
100
AcDbEntity
  8
RÚteg 1
100
AcDbSpline
210
0.0
220
0.0
230
1.0
 70
     0
 71
     3
 72
     8
 73
     4
 74
     0
 42
0.0000000001
 43
0.0000000001
 40
0.0
 40
0.0
 40
0.0
 40
0.0
 40
1.0
 40
1.0
 40
1.0
 40
1.0
 10
214.00370000000001
 20
191.31899999999999
 30
0.0
 10
214.00370000000001
 20
191.31899999999999
 30
0.0
 10
182.27359999999999
 20
191.31899999999999
 30
0.0
 10
182.27359999999999
 20
191.31899999999999
 30
0.0
  0
SPLINE
  5
4D
100
AcDbEntity
  8
RÚteg 1
100
AcDbSpline
210
0.0
220
0.0
230
1.0
 70
     0
 71
     3
 72
     8
 73
     4
 74
     0
 42
0.0000000001
 43
0.0000000001
 40
0.0
 40
0.0
 40
0.0
 40
0.0
 40
1.0
 40
1.0
 40
1.0
 40
1.0
 10
182.27359999999999
 20
191.31899999999999
 30
0.0
 10
182.27359999999999
 20
191.31899999999999
 30
0.0
 10
182.27359999999999
 20
197.80090000000001
 30
0.0
 10
182.27359999999999
 20
197.80090000000001
 30
0.0
  0
SPLINE
  5
4E
100
AcDbEntity
  8
RÚteg 1
100
AcDbSpline
210
0.0
220
0.0
230
1.0
 70
     0
 71
     3
 72
     8
 73
     4
 74
     0
 42
0.0000000001
 43
0.0000000001
 40
0.0
 40
0.0
 40
0.0
 40
0.0
 40
1.0
 40
1.0
 40
1.0
 40
1.0
 10
182.27359999999999
 20
197.80090000000001
 30
0.0
 10
182.27359999999999
 20
197.80090000000001
 30
0.0
 10
179.45580000000001
 20
197.80090000000001
 30
0.0
 10
179.45580000000001
 20
197.80090000000001
 30
0.0
  0
SPLINE
  5
4F
100
AcDbEntity
  8
RÚteg 1
100
AcDbSpline
210
0.0
220
0.0
230
1.0
 70
     0
 71
     3
 72
     8
 73
     4
 74
     0
 42
0.0000000001
 43
0.0000000001
 40
0.0
 40
0.0
 40
0.0
 40
0.0
 40
1.0
 40
1.0
 40
1.0
 40
1.0
 10
179.45580000000001
 20
211.89060000000001
 30
0.0
 10
179.45580000000001
 20
211.89060000000001
 30
0.0
 10
182.27359999999999
 20
211.89060000000001
 30
0.0
 10
182.27359999999999
 20
211.89060000000001
 30
0.0
  0
SPLINE
  5
50
100
AcDbEntity
  8
RÚteg 1
100
AcDbSpline
210
0.0
220
0.0
230
1.0
 70
     0
 71
     3
 72
     8
 73
     4
 74
     0
 42
0.0000000001
 43
0.0000000001
 40
0.0
 40
0.0
 40
0.0
 40
0.0
 40
1.0
 40
1.0
 40
1.0
 40
1.0
 10
182.27359999999999
 20
211.89060000000001
 30
0.0
 10
182.27359999999999
 20
211.89060000000001
 30
0.0
 10
182.27359999999999
 20
218.37219999999999
 30
0.0
 10
182.27359999999999
 20
218.37219999999999
 30
0.0
  0
SPLINE
  5
51
100
AcDbEntity
  8
RÚteg 1
100
AcDbSpline
210
0.0
220
0.0
230
1.0
 70
     0
 71
     3
 72
    24
 73
    20
 74
     0
 42
0.0000000001
 43
0.0000000001
 40
0.0
 40
0.0
 40
0.0
 40
0.0
 40
0.2
 40
0.2
 40
0.2
 40
0.2
 40
0.4
 40
0.4
 40
0.4
 40
0.4
 40
0.6000000000000001
 40
0.6000000000000001
 40
0.6000000000000001
 40
0.6000000000000001
 40
0.8
 40
0.8
 40
0.8
 40
0.8
 40
1.0
 40
1.0
 40
1.0
 40
1.0
 10
179.45580000000001
 20
197.80090000000001
 30
0.0
 10
179.45580000000001
 20
197.80090000000001
 30
0.0
 10
179.45580000000001
 20
201.9006
 30
0.0
 10
179.45580000000001
 20
201.9006
 30
0.0
 10
179.45580000000001
 20
201.9006
 30
0.0
 10
179.45580000000001
 20
201.9006
 30
0.0
 10
189.28550000000001
 20
201.9006
 30
0.0
 10
189.28550000000001
 20
201.9006
 30
0.0
 10
189.28550000000001
 20
201.9006
 30
0.0
 10
189.28550000000001
 20
201.9006
 30
0.0
 10
189.28550000000001
 20
204.78899999999999
 30
0.0
 10
189.28550000000001
 20
204.78899999999999
 30
0.0
 10
189.28550000000001
 20
204.78899999999999
 30
0.0
 10
189.28550000000001
 20
204.78899999999999
 30
0.0
 10
179.45580000000001
 20
204.78899999999999
 30
0.0
 10
179.45580000000001
 20
204.78899999999999
 30
0.0
 10
179.45580000000001
 20
204.78899999999999
 30
0.0
 10
179.45580000000001
 20
204.78899999999999
 30
0.0
 10
179.45580000000001
 20
211.89060000000001
 30
0.0
 10
179.45580000000001
 20
211.89060000000001
 30
0.0
  0
SPLINE
  5
52
100
AcDbEntity
  8
RÚteg 1
100
AcDbSpline
210
0.0
220
0.0
230
1.0
 70
     1
 71
     3
 72
    16
 73
    12
 74
     0
 42
0.0000000001
 43
0.0000000001
 40
0.0
 40
0.0
 40
0.0
 40
0.0
 40
0.3333333333333333
 40
0.3333333333333333
 40
0.3333333333333333
 40
0.3333333333333333
 40
0.6666666666666666
 40
0.6666666666666666
 40
0.6666666666666666
 40
0.6666666666666666
 40
1.0
 40
1.0
 40
1.0
 40
1.0
 10
231.24930000000001
 20
211.52860000000001
 30
0.0
 10
231.2287
 20
214.8843
 30
0.0
 10
226.70830000000001
 20
215.87739999999999
 30
0.0
 10
225.2646
 20
212.90469999999999
 30
0.0
 10
225.2646
 20
212.90469999999999
 30
0.0
 10
223.83000000000001
 20
209.95089999999999
 30
0.0
 10
227.3596
 20
207.03749999999999
 30
0.0
 10
229.98849999999999
 20
209.0077
 30
0.0
 10
229.98849999999999
 20
209.0077
 30
0.0
 10
230.77889999999999
 20
209.6002
 30
0.0
 10
231.2432
 20
210.54339999999999
 30
0.0
 10
231.24930000000001
 20
211.52860000000001
 30
0.0
  0
SPLINE
  5
53
100
AcDbEntity
  8
RÚteg 1
100
AcDbSpline
210
0.0
220
0.0
230
1.0
 70
     1
 71
     3
 72
    56
 73
    52
 74
     0
 42
0.0000000001
 43
0.0000000001
 40
0.0
 40
0.0
 40
0.0
 40
0.0
 40
0.0769230769230769
 40
0.0769230769230769
 40
0.0769230769230769
 40
0.0769230769230769
 40
0.1538461538461539
 40
0.1538461538461539
 40
0.1538461538461539
 40
0.1538461538461539
 40
0.2307692307692308
 40
0.2307692307692308
 40
0.2307692307692308
 40
0.2307692307692308
 40
0.3076923076923077
 40
0.3076923076923077
 40
0.3076923076923077
 40
0.3076923076923077
 40
0.3846153846153846
 40
0.3846153846153846
 40
0.3846153846153846
 40
0.3846153846153846
 40
0.4615384615384616
 40
0.4615384615384616
 40
0.4615384615384616
 40
0.4615384615384616
 40
0.5384615384615386
 40
0.5384615384615386
 40
0.5384615384615386
 40
0.5384615384615386
 40
0.6153846153846154
 40
0.6153846153846154
 40
0.6153846153846154
 40
0.6153846153846154
 40
0.6923076923076923
 40
0.6923076923076923
 40
0.6923076923076923
 40
0.6923076923076923
 40
0.7692307692307692
 40
0.7692307692307692
 40
0.7692307692307692
 40
0.7692307692307692
 40
0.846153846153846
 40
0.846153846153846
 40
0.846153846153846
 40
0.846153846153846
 40
0.9230769230769229
 40
0.9230769230769229
 40
0.9230769230769229
 40
0.9230769230769229
 40
1.0
 40
1.0
 40
1.0
 40
1.0
 10
259.44819999999999
 20
217.48500000000001
 30
0.0
 10
259.44819999999999
 20
217.48500000000001
 30
0.0
 10
227.7183
 20
217.48500000000001
 30
0.0
 10
227.7183
 20
217.48500000000001
 30
0.0
 10
227.7183
 20
217.48500000000001
 30
0.0
 10
227.30520000000001
 20
217.45660000000001
 30
0.0
 10
226.89619999999999
 20
217.3896
 30
0.0
 10
226.49709999999999
 20
217.2783
 30
0.0
 10
226.49709999999999
 20
217.2783
 30
0.0
 10
221.20009999999999
 20
215.80189999999999
 30
0.0
 10
220.54409999999999
 20
208.47489999999999
 30
0.0
 10
225.59030000000001
 20
206.11279999999999
 30
0.0
 10
225.59030000000001
 20
206.11279999999999
 30
0.0
 10
225.59030000000001
 20
206.11279999999999
 30
0.0
 10
259.44819999999999
 20
190.43190000000001
 30
0.0
 10
259.44819999999999
 20
190.43190000000001
 30
0.0
 10
259.44819999999999
 20
190.43190000000001
 30
0.0
 10
259.44819999999999
 20
190.43190000000001
 30
0.0
 10
259.44819999999999
 20
196.9134
 30
0.0
 10
259.44819999999999
 20
196.9134
 30
0.0
 10
259.44819999999999
 20
196.9134
 30
0.0
 10
259.44819999999999
 20
196.9134
 30
0.0
 10
262.2663
 20
196.9134
 30
0.0
 10
262.2663
 20
196.9134
 30
0.0
 10
262.2663
 20
196.9134
 30
0.0
 10
262.2663
 20
196.9134
 30
0.0
 10
262.2663
 20
204.01499999999999
 30
0.0
 10
262.2663
 20
204.01499999999999
 30
0.0
 10
262.2663
 20
204.01499999999999
 30
0.0
 10
262.2663
 20
204.01499999999999
 30
0.0
 10
252.4367
 20
204.01499999999999
 30
0.0
 10
252.4367
 20
204.01499999999999
 30
0.0
 10
252.4367
 20
204.01499999999999
 30
0.0
 10
252.4367
 20
204.01499999999999
 30
0.0
 10
252.4367
 20
206.90350000000001
 30
0.0
 10
252.4367
 20
206.90350000000001
 30
0.0
 10
252.4367
 20
206.90350000000001
 30
0.0
 10
252.4367
 20
206.90350000000001
 30
0.0
 10
262.2663
 20
206.90350000000001
 30
0.0
 10
262.2663
 20
206.90350000000001
 30
0.0
 10
262.2663
 20
206.90350000000001
 30
0.0
 10
262.2663
 20
206.90350000000001
 30
0.0
 10
262.2663
 20
211.0033
 30
0.0
 10
262.2663
 20
211.0033
 30
0.0
 10
262.2663
 20
211.0033
 30
0.0
 10
262.2663
 20
211.0033
 30
0.0
 10
259.44819999999999
 20
211.0033
 30
0.0
 10
259.44819999999999
 20
211.0033
 30
0.0
 10
259.44819999999999
 20
211.0033
 30
0.0
 10
259.44819999999999
 20
211.0033
 30
0.0
 10
259.44819999999999
 20
217.48500000000001
 30
0.0
 10
259.44819999999999
 20
217.48500000000001
 30
0.0
  0
SPLINE
  5
54
100
AcDbEntity
  8
RÚteg 1
100
AcDbSpline
210
0.0
220
0.0
230
1.0
 70
     1
 71
     3
 72
    20
 73
    16
 74
     0
 42
0.0000000001
 43
0.0000000001
 40
0.0
 40
0.0
 40
0.0
 40
0.0
 40
0.25
 40
0.25
 40
0.25
 40
0.25
 40
0.5
 40
0.5
 40
0.5
 40
0.5
 40
0.75
 40
0.75
 40
0.75
 40
0.75
 40
1.0
 40
1.0
 40
1.0
 40
1.0
 10
185.7679
 20
148.05629999999999
 30
0.0
 10
185.7679
 20
148.05629999999999
 30
0.0
 10
185.7679
 20
150.94460000000001
 30
0.0
 10
185.7679
 20
150.94460000000001
 30
0.0
 10
185.7679
 20
150.94460000000001
 30
0.0
 10
185.7679
 20
150.94460000000001
 30
0.0
 10
192.88329999999999
 20
150.94460000000001
 30
0.0
 10
192.88329999999999
 20
150.94460000000001
 30
0.0
 10
192.88329999999999
 20
150.94460000000001
 30
0.0
 10
192.88329999999999
 20
150.94460000000001
 30
0.0
 10
192.88329999999999
 20
148.05629999999999
 30
0.0
 10
192.88329999999999
 20
148.05629999999999
 30
0.0
 10
192.88329999999999
 20
148.05629999999999
 30
0.0
 10
192.88329999999999
 20
148.05629999999999
 30
0.0
 10
185.7679
 20
148.05629999999999
 30
0.0
 10
185.7679
 20
148.05629999999999
 30
0.0
  0
SPLINE
  5
55
100
AcDbEntity
  8
RÚteg 1
100
AcDbSpline
210
0.0
220
0.0
230
1.0
 70
     1
 71
     3
 72
    36
 73
    32
 74
     0
 42
0.0000000001
 43
0.0000000001
 40
0.0
 40
0.0
 40
0.0
 40
0.0
 40
0.125
 40
0.125
 40
0.125
 40
0.125
 40
0.25
 40
0.25
 40
0.25
 40
0.25
 40
0.375
 40
0.375
 40
0.375
 40
0.375
 40
0.5
 40
0.5
 40
0.5
 40
0.5
 40
0.625
 40
0.625
 40
0.625
 40
0.625
 40
0.75
 40
0.75
 40
0.75
 40
0.75
 40
0.875
 40
0.875
 40
0.875
 40
0.875
 40
1.0
 40
1.0
 40
1.0
 40
1.0
 10
182.2807
 20
170.25380000000001
 30
0.0
 10
182.2807
 20
170.25380000000001
 30
0.0
 10
196.37049999999999
 20
170.25380000000001
 30
0.0
 10
196.37049999999999
 20
170.25380000000001
 30
0.0
 10
196.37049999999999
 20
170.25380000000001
 30
0.0
 10
198.31620000000001
 20
170.2432
 30
0.0
 10
199.88229999999999
 20
168.6772
 30
0.0
 10
199.8929
 20
166.73140000000001
 30
0.0
 10
199.8929
 20
166.73140000000001
 30
0.0
 10
199.8929
 20
166.73140000000001
 30
0.0
 10
199.8929
 20
131.62299999999999
 30
0.0
 10
199.8929
 20
131.62299999999999
 30
0.0
 10
199.8929
 20
131.62299999999999
 30
0.0
 10
199.88229999999999
 20
129.6772
 30
0.0
 10
198.31610000000001
 20
128.11109999999999
 30
0.0
 10
196.37049999999999
 20
128.10040000000001
 30
0.0
 10
196.37049999999999
 20
128.10040000000001
 30
0.0
 10
196.37049999999999
 20
128.10040000000001
 30
0.0
 10
182.2807
 20
128.10040000000001
 30
0.0
 10
182.2807
 20
128.10040000000001
 30
0.0
 10
182.2807
 20
128.10040000000001
 30
0.0
 10
180.33500000000001
 20
128.11109999999999
 30
0.0
 10
178.7688
 20
129.6772
 30
0.0
 10
178.75829999999999
 20
131.62299999999999
 30
0.0
 10
178.75829999999999
 20
131.62299999999999
 30
0.0
 10
178.75829999999999
 20
131.62299999999999
 30
0.0
 10
178.75829999999999
 20
166.73140000000001
 30
0.0
 10
178.75829999999999
 20
166.73140000000001
 30
0.0
 10
178.75829999999999
 20
166.73140000000001
 30
0.0
 10
178.7688
 20
168.6772
 30
0.0
 10
180.33500000000001
 20
170.2432
 30
0.0
 10
182.2807
 20
170.25380000000001
 30
0.0
  0
SPLINE
  5
56
100
AcDbEntity
  8
RÚteg 1
100
AcDbSpline
210
0.0
220
0.0
230
1.0
 70
     0
 71
     3
 72
    16
 73
    12
 74
     0
 42
0.0000000001
 43
0.0000000001
 40
0.0
 40
0.0
 40
0.0
 40
0.0
 40
0.3333333333333333
 40
0.3333333333333333
 40
0.3333333333333333
 40
0.3333333333333333
 40
0.6666666666666666
 40
0.6666666666666666
 40
0.6666666666666666
 40
0.6666666666666666
 40
1.0
 40
1.0
 40
1.0
 40
1.0
 10
292.45170000000002
 20
179.2928
 30
0.0
 10
292.45170000000002
 20
179.2928
 30
0.0
 10
289.70400000000001
 20
179.2928
 30
0.0
 10
289.70400000000001
 20
179.2928
 30
0.0
 10
289.70400000000001
 20
179.2928
 30
0.0
 10
289.70400000000001
 20
179.2928
 30
0.0
 10
289.63369999999998
 20
179.2928
 30
0.0
 10
289.63369999999998
 20
179.2928
 30
0.0
 10
289.63369999999998
 20
179.2928
 30
0.0
 10
289.63369999999998
 20
179.2928
 30
0.0
 10
289.70400000000001
 20
179.2928
 30
0.0
 10
289.70400000000001
 20
179.2928
 30
0.0
  0
SPLINE
  5
57
100
AcDbEntity
  8
RÚteg 1
100
AcDbSpline
210
0.0
220
0.0
230
1.0
 70
     1
 71
     3
 72
    12
 73
     8
 74
     0
 42
0.0000000001
 43
0.0000000001
 40
0.0
 40
0.0
 40
0.0
 40
0.0
 40
0.5
 40
0.5
 40
0.5
 40
0.5
 40
1.0
 40
1.0
 40
1.0
 40
1.0
 10
289.63369999999998
 20
179.2928
 30
0.0
 10
289.63369999999998
 20
179.2928
 30
0.0
 10
289.63369999999998
 20
182.8151
 30
0.0
 10
289.63369999999998
 20
182.8151
 30
0.0
 10
289.63369999999998
 20
182.8151
 30
0.0
 10
289.63369999999998
 20
182.8151
 30
0.0
 10
289.63369999999998
 20
179.2928
 30
0.0
 10
289.63369999999998
 20
179.2928
 30
0.0
  0
SPLINE
  5
58
100
AcDbEntity
  8
RÚteg 1
100
AcDbSpline
210
0.0
220
0.0
230
1.0
 70
     0
 71
     3
 72
    16
 73
    12
 74
     0
 42
0.0000000001
 43
0.0000000001
 40
0.0
 40
0.0
 40
0.0
 40
0.0
 40
0.3333333333333333
 40
0.3333333333333333
 40
0.3333333333333333
 40
0.3333333333333333
 40
0.6666666666666666
 40
0.6666666666666666
 40
0.6666666666666666
 40
0.6666666666666666
 40
1.0
 40
1.0
 40
1.0
 40
1.0
 10
289.63369999999998
 20
182.8151
 30
0.0
 10
289.63369999999998
 20
182.8151
 30
0.0
 10
286.88619999999997
 20
182.8151
 30
0.0
 10
286.88619999999997
 20
182.8151
 30
0.0
 10
286.88619999999997
 20
182.8151
 30
0.0
 10
286.88619999999997
 20
182.8151
 30
0.0
 10
286.81569999999999
 20
182.8151
 30
0.0
 10
286.81569999999999
 20
182.8151
 30
0.0
 10
286.81569999999999
 20
182.8151
 30
0.0
 10
286.81569999999999
 20
182.8151
 30
0.0
 10
286.88619999999997
 20
182.8151
 30
0.0
 10
286.88619999999997
 20
182.8151
 30
0.0
  0
SPLINE
  5
59
100
AcDbEntity
  8
RÚteg 1
100
AcDbSpline
210
0.0
220
0.0
230
1.0
 70
     1
 71
     3
 72
    12
 73
     8
 74
     0
 42
0.0000000001
 43
0.0000000001
 40
0.0
 40
0.0
 40
0.0
 40
0.0
 40
0.5
 40
0.5
 40
0.5
 40
0.5
 40
1.0
 40
1.0
 40
1.0
 40
1.0
 10
286.81569999999999
 20
182.8151
 30
0.0
 10
286.81569999999999
 20
182.8151
 30
0.0
 10
286.81569999999999
 20
191.523
 30
0.0
 10
286.81569999999999
 20
191.523
 30
0.0
 10
286.81569999999999
 20
191.523
 30
0.0
 10
286.81569999999999
 20
191.523
 30
0.0
 10
286.81569999999999
 20
182.8151
 30
0.0
 10
286.81569999999999
 20
182.8151
 30
0.0
  0
SPLINE
  5
5A
100
AcDbEntity
  8
RÚteg 1
100
AcDbSpline
210
0.0
220
0.0
230
1.0
 70
     0
 71
     3
 72
   520
 73
   516
 74
     0
 42
0.0000000001
 43
0.0000000001
 40
0.0
 40
0.0
 40
0.0
 40
0.0
 40
0.0077519379844961
 40
0.0077519379844961
 40
0.0077519379844961
 40
0.0077519379844961
 40
0.0155038759689922
 40
0.0155038759689922
 40
0.0155038759689922
 40
0.0155038759689922
 40
0.0232558139534884
 40
0.0232558139534884
 40
0.0232558139534884
 40
0.0232558139534884
 40
0.0310077519379845
 40
0.0310077519379845
 40
0.0310077519379845
 40
0.0310077519379845
 40
0.0387596899224806
 40
0.0387596899224806
 40
0.0387596899224806
 40
0.0387596899224806
 40
0.0465116279069767
 40
0.0465116279069767
 40
0.0465116279069767
 40
0.0465116279069767
 40
0.0542635658914729
 40
0.0542635658914729
 40
0.0542635658914729
 40
0.0542635658914729
 40
0.062015503875969
 40
0.062015503875969
 40
0.062015503875969
 40
0.062015503875969
 40
0.0697674418604651
 40
0.0697674418604651
 40
0.0697674418604651
 40
0.0697674418604651
 40
0.0775193798449612
 40
0.0775193798449612
 40
0.0775193798449612
 40
0.0775193798449612
 40
0.0852713178294574
 40
0.0852713178294574
 40
0.0852713178294574
 40
0.0852713178294574
 40
0.0930232558139535
 40
0.0930232558139535
 40
0.0930232558139535
 40
0.0930232558139535
 40
0.1007751937984496
 40
0.1007751937984496
 40
0.1007751937984496
 40
0.1007751937984496
 40
0.1085271317829457
 40
0.1085271317829457
 40
0.1085271317829457
 40
0.1085271317829457
 40
0.1162790697674419
 40
0.1162790697674419
 40
0.1162790697674419
 40
0.1162790697674419
 40
0.124031007751938
 40
0.124031007751938
 40
0.124031007751938
 40
0.124031007751938
 40
0.1317829457364341
 40
0.1317829457364341
 40
0.1317829457364341
 40
0.1317829457364341
 40
0.1395348837209303
 40
0.1395348837209303
 40
0.1395348837209303
 40
0.1395348837209303
 40
0.1472868217054264
 40
0.1472868217054264
 40
0.1472868217054264
 40
0.1472868217054264
 40
0.1550387596899225
 40
0.1550387596899225
 40
0.1550387596899225
 40
0.1550387596899225
 40
0.1627906976744187
 40
0.1627906976744187
 40
0.1627906976744187
 40
0.1627906976744187
 40
0.1705426356589148
 40
0.1705426356589148
 40
0.1705426356589148
 40
0.1705426356589148
 40
0.178294573643411
 40
0.178294573643411
 40
0.178294573643411
 40
0.178294573643411
 40
0.1860465116279071
 40
0.1860465116279071
 40
0.1860465116279071
 40
0.1860465116279071
 40
0.1937984496124032
 40
0.1937984496124032
 40
0.1937984496124032
 40
0.1937984496124032
 40
0.2015503875968994
 40
0.2015503875968994
 40
0.2015503875968994
 40
0.2015503875968994
 40
0.2093023255813955
 40
0.2093023255813955
 40
0.2093023255813955
 40
0.2093023255813955
 40
0.2170542635658916
 40
0.2170542635658916
 40
0.2170542635658916
 40
0.2170542635658916
 40
0.2248062015503878
 40
0.2248062015503878
 40
0.2248062015503878
 40
0.2248062015503878
 40
0.2325581395348839
 40
0.2325581395348839
 40
0.2325581395348839
 40
0.2325581395348839
 40
0.2403100775193801
 40
0.2403100775193801
 40
0.2403100775193801
 40
0.2403100775193801
 40
0.2480620155038762
 40
0.2480620155038762
 40
0.2480620155038762
 40
0.2480620155038762
 40
0.2558139534883723
 40
0.2558139534883723
 40
0.2558139534883723
 40
0.2558139534883723
 40
0.2635658914728685
 40
0.2635658914728685
 40
0.2635658914728685
 40
0.2635658914728685
 40
0.2713178294573646
 40
0.2713178294573646
 40
0.2713178294573646
 40
0.2713178294573646
 40
0.2790697674418607
 40
0.2790697674418607
 40
0.2790697674418607
 40
0.2790697674418607
 40
0.2868217054263569
 40
0.2868217054263569
 40
0.2868217054263569
 40
0.2868217054263569
 40
0.294573643410853
 40
0.294573643410853
 40
0.294573643410853
 40
0.294573643410853
 40
0.3023255813953492
 40
0.3023255813953492
 40
0.3023255813953492
 40
0.3023255813953492
 40
0.3100775193798453
 40
0.3100775193798453
 40
0.3100775193798453
 40
0.3100775193798453
 40
0.3178294573643414
 40
0.3178294573643414
 40
0.3178294573643414
 40
0.3178294573643414
 40
0.3255813953488376
 40
0.3255813953488376
 40
0.3255813953488376
 40
0.3255813953488376
 40
0.3333333333333337
 40
0.3333333333333337
 40
0.3333333333333337
 40
0.3333333333333337
 40
0.3410852713178298
 40
0.3410852713178298
 40
0.3410852713178298
 40
0.3410852713178298
 40
0.348837209302326
 40
0.348837209302326
 40
0.348837209302326
 40
0.348837209302326
 40
0.3565891472868221
 40
0.3565891472868221
 40
0.3565891472868221
 40
0.3565891472868221
 40
0.3643410852713183
 40
0.3643410852713183
 40
0.3643410852713183
 40
0.3643410852713183
 40
0.3720930232558144
 40
0.3720930232558144
 40
0.3720930232558144
 40
0.3720930232558144
 40
0.3798449612403105
 40
0.3798449612403105
 40
0.3798449612403105
 40
0.3798449612403105
 40
0.3875968992248067
 40
0.3875968992248067
 40
0.3875968992248067
 40
0.3875968992248067
 40
0.3953488372093028
 40
0.3953488372093028
 40
0.3953488372093028
 40
0.3953488372093028
 40
0.4031007751937989
 40
0.4031007751937989
 40
0.4031007751937989
 40
0.4031007751937989
 40
0.4108527131782951
 40
0.4108527131782951
 40
0.4108527131782951
 40
0.4108527131782951
 40
0.4186046511627912
 40
0.4186046511627912
 40
0.4186046511627912
 40
0.4186046511627912
 40
0.4263565891472874
 40
0.4263565891472874
 40
0.4263565891472874
 40
0.4263565891472874
 40
0.4341085271317835
 40
0.4341085271317835
 40
0.4341085271317835
 40
0.4341085271317835
 40
0.4418604651162796
 40
0.4418604651162796
 40
0.4418604651162796
 40
0.4418604651162796
 40
0.4496124031007758
 40
0.4496124031007758
 40
0.4496124031007758
 40
0.4496124031007758
 40
0.4573643410852719
 40
0.4573643410852719
 40
0.4573643410852719
 40
0.4573643410852719
 40
0.4651162790697681
 40
0.4651162790697681
 40
0.4651162790697681
 40
0.4651162790697681
 40
0.4728682170542642
 40
0.4728682170542642
 40
0.4728682170542642
 40
0.4728682170542642
 40
0.4806201550387603
 40
0.4806201550387603
 40
0.4806201550387603
 40
0.4806201550387603
 40
0.4883720930232565
 40
0.4883720930232565
 40
0.4883720930232565
 40
0.4883720930232565
 40
0.4961240310077526
 40
0.4961240310077526
 40
0.4961240310077526
 40
0.4961240310077526
 40
0.5038759689922487
 40
0.5038759689922487
 40
0.5038759689922487
 40
0.5038759689922487
 40
0.5116279069767449
 40
0.5116279069767449
 40
0.5116279069767449
 40
0.5116279069767449
 40
0.519379844961241
 40
0.519379844961241
 40
0.519379844961241
 40
0.519379844961241
 40
0.5271317829457372
 40
0.5271317829457372
 40
0.5271317829457372
 40
0.5271317829457372
 40
0.5348837209302333
 40
0.5348837209302333
 40
0.5348837209302333
 40
0.5348837209302333
 40
0.5426356589147294
 40
0.5426356589147294
 40
0.5426356589147294
 40
0.5426356589147294
 40
0.5503875968992256
 40
0.5503875968992256
 40
0.5503875968992256
 40
0.5503875968992256
 40
0.5581395348837217
 40
0.5581395348837217
 40
0.5581395348837217
 40
0.5581395348837217
 40
0.5658914728682178
 40
0.5658914728682178
 40
0.5658914728682178
 40
0.5658914728682178
 40
0.573643410852714
 40
0.573643410852714
 40
0.573643410852714
 40
0.573643410852714
 40
0.5813953488372101
 40
0.5813953488372101
 40
0.5813953488372101
 40
0.5813953488372101
 40
0.5891472868217063
 40
0.5891472868217063
 40
0.5891472868217063
 40
0.5891472868217063
 40
0.5968992248062024
 40
0.5968992248062024
 40
0.5968992248062024
 40
0.5968992248062024
 40
0.6046511627906985
 40
0.6046511627906985
 40
0.6046511627906985
 40
0.6046511627906985
 40
0.6124031007751947
 40
0.6124031007751947
 40
0.6124031007751947
 40
0.6124031007751947
 40
0.6201550387596908
 40
0.6201550387596908
 40
0.6201550387596908
 40
0.6201550387596908
 40
0.6279069767441869
 40
0.6279069767441869
 40
0.6279069767441869
 40
0.6279069767441869
 40
0.6356589147286831
 40
0.6356589147286831
 40
0.6356589147286831
 40
0.6356589147286831
 40
0.6434108527131792
 40
0.6434108527131792
 40
0.6434108527131792
 40
0.6434108527131792
 40
0.6511627906976754
 40
0.6511627906976754
 40
0.6511627906976754
 40
0.6511627906976754
 40
0.6589147286821715
 40
0.6589147286821715
 40
0.6589147286821715
 40
0.6589147286821715
 40
0.6666666666666676
 40
0.6666666666666676
 40
0.6666666666666676
 40
0.6666666666666676
 40
0.6744186046511638
 40
0.6744186046511638
 40
0.6744186046511638
 40
0.6744186046511638
 40
0.6821705426356599
 40
0.6821705426356599
 40
0.6821705426356599
 40
0.6821705426356599
 40
0.689922480620156
 40
0.689922480620156
 40
0.689922480620156
 40
0.689922480620156
 40
0.6976744186046522
 40
0.6976744186046522
 40
0.6976744186046522
 40
0.6976744186046522
 40
0.7054263565891483
 40
0.7054263565891483
 40
0.7054263565891483
 40
0.7054263565891483
 40
0.7131782945736445
 40
0.7131782945736445
 40
0.7131782945736445
 40
0.7131782945736445
 40
0.7209302325581406
 40
0.7209302325581406
 40
0.7209302325581406
 40
0.7209302325581406
 40
0.7286821705426367
 40
0.7286821705426367
 40
0.7286821705426367
 40
0.7286821705426367
 40
0.7364341085271329
 40
0.7364341085271329
 40
0.7364341085271329
 40
0.7364341085271329
 40
0.744186046511629
 40
0.744186046511629
 40
0.744186046511629
 40
0.744186046511629
 40
0.7519379844961251
 40
0.7519379844961251
 40
0.7519379844961251
 40
0.7519379844961251
 40
0.7596899224806213
 40
0.7596899224806213
 40
0.7596899224806213
 40
0.7596899224806213
 40
0.7674418604651174
 40
0.7674418604651174
 40
0.7674418604651174
 40
0.7674418604651174
 40
0.7751937984496136
 40
0.7751937984496136
 40
0.7751937984496136
 40
0.7751937984496136
 40
0.7829457364341097
 40
0.7829457364341097
 40
0.7829457364341097
 40
0.7829457364341097
 40
0.7906976744186058
 40
0.7906976744186058
 40
0.7906976744186058
 40
0.7906976744186058
 40
0.798449612403102
 40
0.798449612403102
 40
0.798449612403102
 40
0.798449612403102
 40
0.8062015503875981
 40
0.8062015503875981
 40
0.8062015503875981
 40
0.8062015503875981
 40
0.8139534883720943
 40
0.8139534883720943
 40
0.8139534883720943
 40
0.8139534883720943
 40
0.8217054263565904
 40
0.8217054263565904
 40
0.8217054263565904
 40
0.8217054263565904
 40
0.8294573643410865
 40
0.8294573643410865
 40
0.8294573643410865
 40
0.8294573643410865
 40
0.8372093023255827
 40
0.8372093023255827
 40
0.8372093023255827
 40
0.8372093023255827
 40
0.8449612403100788
 40
0.8449612403100788
 40
0.8449612403100788
 40
0.8449612403100788
 40
0.8527131782945749
 40
0.8527131782945749
 40
0.8527131782945749
 40
0.8527131782945749
 40
0.8604651162790711
 40
0.8604651162790711
 40
0.8604651162790711
 40
0.8604651162790711
 40
0.8682170542635672
 40
0.8682170542635672
 40
0.8682170542635672
 40
0.8682170542635672
 40
0.8759689922480634
 40
0.8759689922480634
 40
0.8759689922480634
 40
0.8759689922480634
 40
0.8837209302325595
 40
0.8837209302325595
 40
0.8837209302325595
 40
0.8837209302325595
 40
0.8914728682170556
 40
0.8914728682170556
 40
0.8914728682170556
 40
0.8914728682170556
 40
0.8992248062015518
 40
0.8992248062015518
 40
0.8992248062015518
 40
0.8992248062015518
 40
0.9069767441860479
 40
0.9069767441860479
 40
0.9069767441860479
 40
0.9069767441860479
 40
0.914728682170544
 40
0.914728682170544
 40
0.914728682170544
 40
0.914728682170544
 40
0.9224806201550402
 40
0.9224806201550402
 40
0.9224806201550402
 40
0.9224806201550402
 40
0.9302325581395363
 40
0.9302325581395363
 40
0.9302325581395363
 40
0.9302325581395363
 40
0.9379844961240325
 40
0.9379844961240325
 40
0.9379844961240325
 40
0.9379844961240325
 40
0.9457364341085286
 40
0.9457364341085286
 40
0.9457364341085286
 40
0.9457364341085286
 40
0.9534883720930247
 40
0.9534883720930247
 40
0.9534883720930247
 40
0.9534883720930247
 40
0.9612403100775209
 40
0.9612403100775209
 40
0.9612403100775209
 40
0.9612403100775209
 40
0.968992248062017
 40
0.968992248062017
 40
0.968992248062017
 40
0.968992248062017
 40
0.9767441860465131
 40
0.9767441860465131
 40
0.9767441860465131
 40
0.9767441860465131
 40
0.9844961240310093
 40
0.9844961240310093
 40
0.9844961240310093
 40
0.9844961240310093
 40
0.9922480620155054
 40
0.9922480620155054
 40
0.9922480620155054
 40
0.9922480620155054
 40
1.0
 40
1.0
 40
1.0
 40
1.0
 10
286.81569999999999
 20
191.523
 30
0.0
 10
286.81569999999999
 20
191.523
 30
0.0
 10
286.81560000000002
 20
191.54320000000001
 30
0.0
 10
286.81560000000002
 20
191.54320000000001
 30
0.0
 10
286.81560000000002
 20
191.54320000000001
 30
0.0
 10
286.81560000000002
 20
191.54320000000001
 30
0.0
 10
286.8152
 20
191.5634
 30
0.0
 10
286.8152
 20
191.5634
 30
0.0
 10
286.8152
 20
191.5634
 30
0.0
 10
286.8152
 20
191.5634
 30
0.0
 10
286.81450000000001
 20
191.58359999999999
 30
0.0
 10
286.81450000000001
 20
191.58359999999999
 30
0.0
 10
286.81450000000001
 20
191.58359999999999
 30
0.0
 10
286.81450000000001
 20
191.58359999999999
 30
0.0
 10
286.81360000000001
 20
191.60400000000001
 30
0.0
 10
286.81360000000001
 20
191.60400000000001
 30
0.0
 10
286.81360000000001
 20
191.60400000000001
 30
0.0
 10
286.81360000000001
 20
191.60400000000001
 30
0.0
 10
286.81229999999999
 20
191.62440000000001
 30
0.0
 10
286.81229999999999
 20
191.62440000000001
 30
0.0
 10
286.81229999999999
 20
191.62440000000001
 30
0.0
 10
286.81229999999999
 20
191.62440000000001
 30
0.0
 10
286.8107
 20
191.64490000000001
 30
0.0
 10
286.8107
 20
191.64490000000001
 30
0.0
 10
286.8107
 20
191.64490000000001
 30
0.0
 10
286.8107
 20
191.64490000000001
 30
0.0
 10
286.80860000000001
 20
191.6652
 30
0.0
 10
286.80860000000001
 20
191.6652
 30
0.0
 10
286.80860000000001
 20
191.6652
 30
0.0
 10
286.80860000000001
 20
191.6652
 30
0.0
 10
286.80650000000003
 20
191.6858
 30
0.0
 10
286.80650000000003
 20
191.6858
 30
0.0
 10
286.80650000000003
 20
191.6858
 30
0.0
 10
286.80650000000003
 20
191.6858
 30
0.0
 10
286.80399999999997
 20
191.7062
 30
0.0
 10
286.80399999999997
 20
191.7062
 30
0.0
 10
286.80399999999997
 20
191.7062
 30
0.0
 10
286.80399999999997
 20
191.7062
 30
0.0
 10
286.80090000000001
 20
191.7268
 30
0.0
 10
286.80090000000001
 20
191.7268
 30
0.0
 10
286.80090000000001
 20
191.7268
 30
0.0
 10
286.80090000000001
 20
191.7268
 30
0.0
 10
286.7978
 20
191.74719999999999
 30
0.0
 10
286.7978
 20
191.74719999999999
 30
0.0
 10
286.7978
 20
191.74719999999999
 30
0.0
 10
286.7978
 20
191.74719999999999
 30
0.0
 10
286.79430000000002
 20
191.76779999999999
 30
0.0
 10
286.79430000000002
 20
191.76779999999999
 30
0.0
 10
286.79430000000002
 20
191.76779999999999
 30
0.0
 10
286.79430000000002
 20
191.76779999999999
 30
0.0
 10
286.79059999999998
 20
191.7884
 30
0.0
 10
286.79059999999998
 20
191.7884
 30
0.0
 10
286.79059999999998
 20
191.7884
 30
0.0
 10
286.79059999999998
 20
191.7884
 30
0.0
 10
286.78649999999999
 20
191.80869999999999
 30
0.0
 10
286.78649999999999
 20
191.80869999999999
 30
0.0
 10
286.78649999999999
 20
191.80869999999999
 30
0.0
 10
286.78649999999999
 20
191.80869999999999
 30
0.0
 10
286.78219999999999
 20
191.82929999999999
 30
0.0
 10
286.78219999999999
 20
191.82929999999999
 30
0.0
 10
286.78219999999999
 20
191.82929999999999
 30
0.0
 10
286.78219999999999
 20
191.82929999999999
 30
0.0
 10
286.77730000000003
 20
191.84960000000001
 30
0.0
 10
286.77730000000003
 20
191.84960000000001
 30
0.0
 10
286.77730000000003
 20
191.84960000000001
 30
0.0
 10
286.77730000000003
 20
191.84960000000001
 30
0.0
 10
286.7724
 20
191.87010000000001
 30
0.0
 10
286.7724
 20
191.87010000000001
 30
0.0
 10
286.7724
 20
191.87010000000001
 30
0.0
 10
286.7724
 20
191.87010000000001
 30
0.0
 10
286.76690000000002
 20
191.89060000000001
 30
0.0
 10
286.76690000000002
 20
191.89060000000001
 30
0.0
 10
286.76690000000002
 20
191.89060000000001
 30
0.0
 10
286.76690000000002
 20
191.89060000000001
 30
0.0
 10
286.76139999999998
 20
191.9109
 30
0.0
 10
286.76139999999998
 20
191.9109
 30
0.0
 10
286.76139999999998
 20
191.9109
 30
0.0
 10
286.76139999999998
 20
191.9109
 30
0.0
 10
286.75540000000001
 20
191.93100000000001
 30
0.0
 10
286.75540000000001
 20
191.93100000000001
 30
0.0
 10
286.75540000000001
 20
191.93100000000001
 30
0.0
 10
286.75540000000001
 20
191.93100000000001
 30
0.0
 10
286.7491
 20
191.95140000000001
 30
0.0
 10
286.7491
 20
191.95140000000001
 30
0.0
 10
286.7491
 20
191.95140000000001
 30
0.0
 10
286.7491
 20
191.95140000000001
 30
0.0
 10
286.74239999999998
 20
191.97139999999999
 30
0.0
 10
286.74239999999998
 20
191.97139999999999
 30
0.0
 10
286.74239999999998
 20
191.97139999999999
 30
0.0
 10
286.74239999999998
 20
191.97139999999999
 30
0.0
 10
286.73559999999998
 20
191.9915
 30
0.0
 10
286.73559999999998
 20
191.9915
 30
0.0
 10
286.73559999999998
 20
191.9915
 30
0.0
 10
286.73559999999998
 20
191.9915
 30
0.0
 10
286.72840000000002
 20
192.01140000000001
 30
0.0
 10
286.72840000000002
 20
192.01140000000001
 30
0.0
 10
286.72840000000002
 20
192.01140000000001
 30
0.0
 10
286.72840000000002
 20
192.01140000000001
 30
0.0
 10
286.72109999999998
 20
192.03129999999999
 30
0.0
 10
286.72109999999998
 20
192.03129999999999
 30
0.0
 10
286.72109999999998
 20
192.03129999999999
 30
0.0
 10
286.72109999999998
 20
192.03129999999999
 30
0.0
 10
286.7131
 20
192.05070000000001
 30
0.0
 10
286.7131
 20
192.05070000000001
 30
0.0
 10
286.7131
 20
192.05070000000001
 30
0.0
 10
286.7131
 20
192.05070000000001
 30
0.0
 10
286.70499999999998
 20
192.07079999999999
 30
0.0
 10
286.70499999999998
 20
192.07079999999999
 30
0.0
 10
286.70499999999998
 20
192.07079999999999
 30
0.0
 10
286.70499999999998
 20
192.07079999999999
 30
0.0
 10
286.69670000000002
 20
192.09030000000001
 30
0.0
 10
286.69670000000002
 20
192.09030000000001
 30
0.0
 10
286.69670000000002
 20
192.09030000000001
 30
0.0
 10
286.69670000000002
 20
192.09030000000001
 30
0.0
 10
286.68779999999998
 20
192.1097
 30
0.0
 10
286.68779999999998
 20
192.1097
 30
0.0
 10
286.68779999999998
 20
192.1097
 30
0.0
 10
286.68779999999998
 20
192.1097
 30
0.0
 10
286.6789
 20
192.12899999999999
 30
0.0
 10
286.6789
 20
192.12899999999999
 30
0.0
 10
286.6789
 20
192.12899999999999
 30
0.0
 10
286.6789
 20
192.12899999999999
 30
0.0
 10
286.6694
 20
192.1482
 30
0.0
 10
286.6694
 20
192.1482
 30
0.0
 10
286.6694
 20
192.1482
 30
0.0
 10
286.6694
 20
192.1482
 30
0.0
 10
286.66000000000003
 20
192.16720000000001
 30
0.0
 10
286.66000000000003
 20
192.16720000000001
 30
0.0
 10
286.66000000000003
 20
192.16720000000001
 30
0.0
 10
286.66000000000003
 20
192.16720000000001
 30
0.0
 10
286.64999999999998
 20
192.18610000000001
 30
0.0
 10
286.64999999999998
 20
192.18610000000001
 30
0.0
 10
286.64999999999998
 20
192.18610000000001
 30
0.0
 10
286.64999999999998
 20
192.18610000000001
 30
0.0
 10
286.63999999999999
 20
192.20480000000001
 30
0.0
 10
286.63999999999999
 20
192.20480000000001
 30
0.0
 10
286.63999999999999
 20
192.20480000000001
 30
0.0
 10
286.63999999999999
 20
192.20480000000001
 30
0.0
 10
286.62950000000001
 20
192.2234
 30
0.0
 10
286.62950000000001
 20
192.2234
 30
0.0
 10
286.62950000000001
 20
192.2234
 30
0.0
 10
286.62950000000001
 20
192.2234
 30
0.0
 10
286.61869999999999
 20
192.24160000000001
 30
0.0
 10
286.61869999999999
 20
192.24160000000001
 30
0.0
 10
286.61869999999999
 20
192.24160000000001
 30
0.0
 10
286.61869999999999
 20
192.24160000000001
 30
0.0
 10
286.60759999999999
 20
192.25999999999999
 30
0.0
 10
286.60759999999999
 20
192.25999999999999
 30
0.0
 10
286.60759999999999
 20
192.25999999999999
 30
0.0
 10
286.60759999999999
 20
192.25999999999999
 30
0.0
 10
286.59649999999999
 20
192.27780000000001
 30
0.0
 10
286.59649999999999
 20
192.27780000000001
 30
0.0
 10
286.59649999999999
 20
192.27780000000001
 30
0.0
 10
286.59649999999999
 20
192.27780000000001
 30
0.0
 10
286.58510000000001
 20
192.29589999999999
 30
0.0
 10
286.58510000000001
 20
192.29589999999999
 30
0.0
 10
286.58510000000001
 20
192.29589999999999
 30
0.0
 10
286.58510000000001
 20
192.29589999999999
 30
0.0
 10
286.57330000000002
 20
192.31360000000001
 30
0.0
 10
286.57330000000002
 20
192.31360000000001
 30
0.0
 10
286.57330000000002
 20
192.31360000000001
 30
0.0
 10
286.57330000000002
 20
192.31360000000001
 30
0.0
 10
286.56110000000001
 20
192.33109999999999
 30
0.0
 10
286.56110000000001
 20
192.33109999999999
 30
0.0
 10
286.56110000000001
 20
192.33109999999999
 30
0.0
 10
286.56110000000001
 20
192.33109999999999
 30
0.0
 10
286.5489
 20
192.3484
 30
0.0
 10
286.5489
 20
192.3484
 30
0.0
 10
286.5489
 20
192.3484
 30
0.0
 10
286.5489
 20
192.3484
 30
0.0
 10
286.53629999999998
 20
192.36529999999999
 30
0.0
 10
286.53629999999998
 20
192.36529999999999
 30
0.0
 10
286.53629999999998
 20
192.36529999999999
 30
0.0
 10
286.53629999999998
 20
192.36529999999999
 30
0.0
 10
286.52339999999998
 20
192.38220000000001
 30
0.0
 10
286.52339999999998
 20
192.38220000000001
 30
0.0
 10
286.52339999999998
 20
192.38220000000001
 30
0.0
 10
286.52339999999998
 20
192.38220000000001
 30
0.0
 10
286.51029999999997
 20
192.39879999999999
 30
0.0
 10
286.51029999999997
 20
192.39879999999999
 30
0.0
 10
286.51029999999997
 20
192.39879999999999
 30
0.0
 10
286.51029999999997
 20
192.39879999999999
 30
0.0
 10
286.4973
 20
192.4152
 30
0.0
 10
286.4973
 20
192.4152
 30
0.0
 10
286.4973
 20
192.4152
 30
0.0
 10
286.4973
 20
192.4152
 30
0.0
 10
286.48390000000001
 20
192.4314
 30
0.0
 10
286.48390000000001
 20
192.4314
 30
0.0
 10
286.48390000000001
 20
192.4314
 30
0.0
 10
286.48390000000001
 20
192.4314
 30
0.0
 10
286.4701
 20
192.44739999999999
 30
0.0
 10
286.4701
 20
192.44739999999999
 30
0.0
 10
286.4701
 20
192.44739999999999
 30
0.0
 10
286.4701
 20
192.44739999999999
 30
0.0
 10
286.45639999999997
 20
192.4631
 30
0.0
 10
286.45639999999997
 20
192.4631
 30
0.0
 10
286.45639999999997
 20
192.4631
 30
0.0
 10
286.45639999999997
 20
192.4631
 30
0.0
 10
286.44220000000001
 20
192.47880000000001
 30
0.0
 10
286.44220000000001
 20
192.47880000000001
 30
0.0
 10
286.44220000000001
 20
192.47880000000001
 30
0.0
 10
286.44220000000001
 20
192.47880000000001
 30
0.0
 10
286.42790000000002
 20
192.4939
 30
0.0
 10
286.42790000000002
 20
192.4939
 30
0.0
 10
286.42790000000002
 20
192.4939
 30
0.0
 10
286.42790000000002
 20
192.4939
 30
0.0
 10
286.41329999999999
 20
192.50909999999999
 30
0.0
 10
286.41329999999999
 20
192.50909999999999
 30
0.0
 10
286.41329999999999
 20
192.50909999999999
 30
0.0
 10
286.41329999999999
 20
192.50909999999999
 30
0.0
 10
286.39890000000003
 20
192.52359999999999
 30
0.0
 10
286.39890000000003
 20
192.52359999999999
 30
0.0
 10
286.39890000000003
 20
192.52359999999999
 30
0.0
 10
286.39890000000003
 20
192.52359999999999
 30
0.0
 10
286.38380000000001
 20
192.53819999999999
 30
0.0
 10
286.38380000000001
 20
192.53819999999999
 30
0.0
 10
286.38380000000001
 20
192.53819999999999
 30
0.0
 10
286.38380000000001
 20
192.53819999999999
 30
0.0
 10
286.36880000000002
 20
192.55250000000001
 30
0.0
 10
286.36880000000002
 20
192.55250000000001
 30
0.0
 10
286.36880000000002
 20
192.55250000000001
 30
0.0
 10
286.36880000000002
 20
192.55250000000001
 30
0.0
 10
286.35390000000001
 20
192.56649999999999
 30
0.0
 10
286.35390000000001
 20
192.56649999999999
 30
0.0
 10
286.35390000000001
 20
192.56649999999999
 30
0.0
 10
286.35390000000001
 20
192.56649999999999
 30
0.0
 10
286.3383
 20
192.58029999999999
 30
0.0
 10
286.3383
 20
192.58029999999999
 30
0.0
 10
286.3383
 20
192.58029999999999
 30
0.0
 10
286.3383
 20
192.58029999999999
 30
0.0
 10
286.32279999999997
 20
192.59370000000001
 30
0.0
 10
286.32279999999997
 20
192.59370000000001
 30
0.0
 10
286.32279999999997
 20
192.59370000000001
 30
0.0
 10
286.32279999999997
 20
192.59370000000001
 30
0.0
 10
286.30720000000002
 20
192.6069
 30
0.0
 10
286.30720000000002
 20
192.6069
 30
0.0
 10
286.30720000000002
 20
192.6069
 30
0.0
 10
286.30720000000002
 20
192.6069
 30
0.0
 10
286.29140000000001
 20
192.6198
 30
0.0
 10
286.29140000000001
 20
192.6198
 30
0.0
 10
286.29140000000001
 20
192.6198
 30
0.0
 10
286.29140000000001
 20
192.6198
 30
0.0
 10
286.27539999999999
 20
192.63239999999999
 30
0.0
 10
286.27539999999999
 20
192.63239999999999
 30
0.0
 10
286.27539999999999
 20
192.63239999999999
 30
0.0
 10
286.27539999999999
 20
192.63239999999999
 30
0.0
 10
286.2593
 20
192.64490000000001
 30
0.0
 10
286.2593
 20
192.64490000000001
 30
0.0
 10
286.2593
 20
192.64490000000001
 30
0.0
 10
286.2593
 20
192.64490000000001
 30
0.0
 10
286.24310000000003
 20
192.65690000000001
 30
0.0
 10
286.24310000000003
 20
192.65690000000001
 30
0.0
 10
286.24310000000003
 20
192.65690000000001
 30
0.0
 10
286.24310000000003
 20
192.65690000000001
 30
0.0
 10
286.22680000000003
 20
192.6688
 30
0.0
 10
286.22680000000003
 20
192.6688
 30
0.0
 10
286.22680000000003
 20
192.6688
 30
0.0
 10
286.22680000000003
 20
192.6688
 30
0.0
 10
286.21010000000001
 20
192.68029999999999
 30
0.0
 10
286.21010000000001
 20
192.68029999999999
 30
0.0
 10
286.21010000000001
 20
192.68029999999999
 30
0.0
 10
286.21010000000001
 20
192.68029999999999
 30
0.0
 10
286.1936
 20
192.6918
 30
0.0
 10
286.1936
 20
192.6918
 30
0.0
 10
286.1936
 20
192.6918
 30
0.0
 10
286.1936
 20
192.6918
 30
0.0
 10
286.17680000000001
 20
192.703
 30
0.0
 10
286.17680000000001
 20
192.703
 30
0.0
 10
286.17680000000001
 20
192.703
 30
0.0
 10
286.17680000000001
 20
192.703
 30
0.0
 10
286.15969999999999
 20
192.7141
 30
0.0
 10
286.15969999999999
 20
192.7141
 30
0.0
 10
286.15969999999999
 20
192.7141
 30
0.0
 10
286.15969999999999
 20
192.7141
 30
0.0
 10
286.1422
 20
192.72489999999999
 30
0.0
 10
286.1422
 20
192.72489999999999
 30
0.0
 10
286.1422
 20
192.72489999999999
 30
0.0
 10
286.1422
 20
192.72489999999999
 30
0.0
 10
286.12459999999999
 20
192.7354
 30
0.0
 10
286.12459999999999
 20
192.7354
 30
0.0
 10
286.12459999999999
 20
192.7354
 30
0.0
 10
286.12459999999999
 20
192.7354
 30
0.0
 10
286.1069
 20
192.74600000000001
 30
0.0
 10
286.1069
 20
192.74600000000001
 30
0.0
 10
286.1069
 20
192.74600000000001
 30
0.0
 10
286.1069
 20
192.74600000000001
 30
0.0
 10
286.089
 20
192.7559
 30
0.0
 10
286.089
 20
192.7559
 30
0.0
 10
286.089
 20
192.7559
 30
0.0
 10
286.089
 20
192.7559
 30
0.0
 10
286.07080000000002
 20
192.7655
 30
0.0
 10
286.07080000000002
 20
192.7655
 30
0.0
 10
286.07080000000002
 20
192.7655
 30
0.0
 10
286.07080000000002
 20
192.7655
 30
0.0
 10
286.05250000000001
 20
192.77529999999999
 30
0.0
 10
286.05250000000001
 20
192.77529999999999
 30
0.0
 10
286.05250000000001
 20
192.77529999999999
 30
0.0
 10
286.05250000000001
 20
192.77529999999999
 30
0.0
 10
286.03410000000002
 20
192.78469999999999
 30
0.0
 10
286.03410000000002
 20
192.78469999999999
 30
0.0
 10
286.03410000000002
 20
192.78469999999999
 30
0.0
 10
286.03410000000002
 20
192.78469999999999
 30
0.0
 10
286.01519999999999
 20
192.7938
 30
0.0
 10
286.01519999999999
 20
192.7938
 30
0.0
 10
286.01519999999999
 20
192.7938
 30
0.0
 10
286.01519999999999
 20
192.7938
 30
0.0
 10
285.99650000000003
 20
192.80279999999999
 30
0.0
 10
285.99650000000003
 20
192.80279999999999
 30
0.0
 10
285.99650000000003
 20
192.80279999999999
 30
0.0
 10
285.99650000000003
 20
192.80279999999999
 30
0.0
 10
285.97719999999998
 20
192.81129999999999
 30
0.0
 10
285.97719999999998
 20
192.81129999999999
 30
0.0
 10
285.97719999999998
 20
192.81129999999999
 30
0.0
 10
285.97719999999998
 20
192.81129999999999
 30
0.0
 10
285.95819999999998
 20
192.81970000000001
 30
0.0
 10
285.95819999999998
 20
192.81970000000001
 30
0.0
 10
285.95819999999998
 20
192.81970000000001
 30
0.0
 10
285.95819999999998
 20
192.81970000000001
 30
0.0
 10
285.93869999999998
 20
192.82769999999999
 30
0.0
 10
285.93869999999998
 20
192.82769999999999
 30
0.0
 10
285.93869999999998
 20
192.82769999999999
 30
0.0
 10
285.93869999999998
 20
192.82769999999999
 30
0.0
 10
285.91910000000001
 20
192.8355
 30
0.0
 10
285.91910000000001
 20
192.8355
 30
0.0
 10
285.91910000000001
 20
192.8355
 30
0.0
 10
285.91910000000001
 20
192.8355
 30
0.0
 10
285.89949999999999
 20
192.84309999999999
 30
0.0
 10
285.89949999999999
 20
192.84309999999999
 30
0.0
 10
285.89949999999999
 20
192.84309999999999
 30
0.0
 10
285.89949999999999
 20
192.84309999999999
 30
0.0
 10
285.87979999999999
 20
192.8503
 30
0.0
 10
285.87979999999999
 20
192.8503
 30
0.0
 10
285.87979999999999
 20
192.8503
 30
0.0
 10
285.87979999999999
 20
192.8503
 30
0.0
 10
285.85969999999998
 20
192.85720000000001
 30
0.0
 10
285.85969999999998
 20
192.85720000000001
 30
0.0
 10
285.85969999999998
 20
192.85720000000001
 30
0.0
 10
285.85969999999998
 20
192.85720000000001
 30
0.0
 10
285.83980000000003
 20
192.8638
 30
0.0
 10
285.83980000000003
 20
192.8638
 30
0.0
 10
285.83980000000003
 20
192.8638
 30
0.0
 10
285.83980000000003
 20
192.8638
 30
0.0
 10
285.81959999999998
 20
192.87039999999999
 30
0.0
 10
285.81959999999998
 20
192.87039999999999
 30
0.0
 10
285.81959999999998
 20
192.87039999999999
 30
0.0
 10
285.81959999999998
 20
192.87039999999999
 30
0.0
 10
285.79919999999998
 20
192.87620000000001
 30
0.0
 10
285.79919999999998
 20
192.87620000000001
 30
0.0
 10
285.79919999999998
 20
192.87620000000001
 30
0.0
 10
285.79919999999998
 20
192.87620000000001
 30
0.0
 10
285.77870000000001
 20
192.8819
 30
0.0
 10
285.77870000000001
 20
192.8819
 30
0.0
 10
285.77870000000001
 20
192.8819
 30
0.0
 10
285.77870000000001
 20
192.8819
 30
0.0
 10
285.75810000000001
 20
192.88749999999999
 30
0.0
 10
285.75810000000001
 20
192.88749999999999
 30
0.0
 10
285.75810000000001
 20
192.88749999999999
 30
0.0
 10
285.75810000000001
 20
192.88749999999999
 30
0.0
 10
285.73759999999999
 20
192.89259999999999
 30
0.0
 10
285.73759999999999
 20
192.89259999999999
 30
0.0
 10
285.73759999999999
 20
192.89259999999999
 30
0.0
 10
285.73759999999999
 20
192.89259999999999
 30
0.0
 10
285.71690000000001
 20
192.8974
 30
0.0
 10
285.71690000000001
 20
192.8974
 30
0.0
 10
285.71690000000001
 20
192.8974
 30
0.0
 10
285.71690000000001
 20
192.8974
 30
0.0
 10
285.6961
 20
192.90199999999999
 30
0.0
 10
285.6961
 20
192.90199999999999
 30
0.0
 10
285.6961
 20
192.90199999999999
 30
0.0
 10
285.6961
 20
192.90199999999999
 30
0.0
 10
285.67540000000002
 20
192.90620000000001
 30
0.0
 10
285.67540000000002
 20
192.90620000000001
 30
0.0
 10
285.67540000000002
 20
192.90620000000001
 30
0.0
 10
285.67540000000002
 20
192.90620000000001
 30
0.0
 10
285.6542
 20
192.91
 30
0.0
 10
285.6542
 20
192.91
 30
0.0
 10
285.6542
 20
192.91
 30
0.0
 10
285.6542
 20
192.91
 30
0.0
 10
285.63319999999999
 20
192.9135
 30
0.0
 10
285.63319999999999
 20
192.9135
 30
0.0
 10
285.63319999999999
 20
192.9135
 30
0.0
 10
285.63319999999999
 20
192.9135
 30
0.0
 10
285.61219999999997
 20
192.91679999999999
 30
0.0
 10
285.61219999999997
 20
192.91679999999999
 30
0.0
 10
285.61219999999997
 20
192.91679999999999
 30
0.0
 10
285.61219999999997
 20
192.91679999999999
 30
0.0
 10
285.59100000000001
 20
192.91990000000001
 30
0.0
 10
285.59100000000001
 20
192.91990000000001
 30
0.0
 10
285.59100000000001
 20
192.91990000000001
 30
0.0
 10
285.59100000000001
 20
192.91990000000001
 30
0.0
 10
285.56979999999999
 20
192.92259999999999
 30
0.0
 10
285.56979999999999
 20
192.92259999999999
 30
0.0
 10
285.56979999999999
 20
192.92259999999999
 30
0.0
 10
285.56979999999999
 20
192.92259999999999
 30
0.0
 10
285.54880000000003
 20
192.9248
 30
0.0
 10
285.54880000000003
 20
192.9248
 30
0.0
 10
285.54880000000003
 20
192.9248
 30
0.0
 10
285.54880000000003
 20
192.9248
 30
0.0
 10
285.52749999999997
 20
192.92679999999999
 30
0.0
 10
285.52749999999997
 20
192.92679999999999
 30
0.0
 10
285.52749999999997
 20
192.92679999999999
 30
0.0
 10
285.52749999999997
 20
192.92679999999999
 30
0.0
 10
285.50630000000001
 20
192.9282
 30
0.0
 10
285.50630000000001
 20
192.9282
 30
0.0
 10
285.50630000000001
 20
192.9282
 30
0.0
 10
285.50630000000001
 20
192.9282
 30
0.0
 10
285.48509999999999
 20
192.9298
 30
0.0
 10
285.48509999999999
 20
192.9298
 30
0.0
 10
285.48509999999999
 20
192.9298
 30
0.0
 10
285.48509999999999
 20
192.9298
 30
0.0
 10
285.46379999999999
 20
192.93090000000001
 30
0.0
 10
285.46379999999999
 20
192.93090000000001
 30
0.0
 10
285.46379999999999
 20
192.93090000000001
 30
0.0
 10
285.46379999999999
 20
192.93090000000001
 30
0.0
 10
285.4425
 20
192.9315
 30
0.0
 10
285.4425
 20
192.9315
 30
0.0
 10
285.4425
 20
192.9315
 30
0.0
 10
285.4425
 20
192.9315
 30
0.0
 10
285.42140000000001
 20
192.93170000000001
 30
0.0
 10
285.42140000000001
 20
192.93170000000001
 30
0.0
 10
285.42140000000001
 20
192.93170000000001
 30
0.0
 10
285.42140000000001
 20
192.93170000000001
 30
0.0
 10
285.40030000000002
 20
192.93199999999999
 30
0.0
 10
285.40030000000002
 20
192.93199999999999
 30
0.0
 10
285.40030000000002
 20
192.93199999999999
 30
0.0
 10
285.40030000000002
 20
192.93199999999999
 30
0.0
 10
285.37880000000001
 20
192.9316
 30
0.0
 10
285.37880000000001
 20
192.9316
 30
0.0
 10
285.37880000000001
 20
192.9316
 30
0.0
 10
285.37880000000001
 20
192.9316
 30
0.0
 10
285.3578
 20
192.93100000000001
 30
0.0
 10
285.3578
 20
192.93100000000001
 30
0.0
 10
285.3578
 20
192.93100000000001
 30
0.0
 10
285.3578
 20
192.93100000000001
 30
0.0
 10
285.33659999999998
 20
192.93020000000001
 30
0.0
 10
285.33659999999998
 20
192.93020000000001
 30
0.0
 10
285.33659999999998
 20
192.93020000000001
 30
0.0
 10
285.33659999999998
 20
192.93020000000001
 30
0.0
 10
285.31569999999999
 20
192.9289
 30
0.0
 10
285.31569999999999
 20
192.9289
 30
0.0
 10
285.31569999999999
 20
192.9289
 30
0.0
 10
285.31569999999999
 20
192.9289
 30
0.0
 10
285.29469999999998
 20
192.92750000000001
 30
0.0
 10
285.29469999999998
 20
192.92750000000001
 30
0.0
 10
285.29469999999998
 20
192.92750000000001
 30
0.0
 10
285.29469999999998
 20
192.92750000000001
 30
0.0
 10
285.27390000000003
 20
192.92570000000001
 30
0.0
 10
285.27390000000003
 20
192.92570000000001
 30
0.0
 10
285.27390000000003
 20
192.92570000000001
 30
0.0
 10
285.27390000000003
 20
192.92570000000001
 30
0.0
 10
285.25279999999998
 20
192.9237
 30
0.0
 10
285.25279999999998
 20
192.9237
 30
0.0
 10
285.25279999999998
 20
192.9237
 30
0.0
 10
285.25279999999998
 20
192.9237
 30
0.0
 10
285.2321
 20
192.9211
 30
0.0
 10
285.2321
 20
192.9211
 30
0.0
 10
285.2321
 20
192.9211
 30
0.0
 10
285.2321
 20
192.9211
 30
0.0
 10
285.2115
 20
192.91839999999999
 30
0.0
 10
285.2115
 20
192.91839999999999
 30
0.0
 10
285.2115
 20
192.91839999999999
 30
0.0
 10
285.2115
 20
192.91839999999999
 30
0.0
 10
285.19080000000002
 20
192.91540000000001
 30
0.0
 10
285.19080000000002
 20
192.91540000000001
 30
0.0
 10
285.19080000000002
 20
192.91540000000001
 30
0.0
 10
285.19080000000002
 20
192.91540000000001
 30
0.0
 10
285.17009999999999
 20
192.9119
 30
0.0
 10
285.17009999999999
 20
192.9119
 30
0.0
 10
285.17009999999999
 20
192.9119
 30
0.0
 10
285.17009999999999
 20
192.9119
 30
0.0
 10
285.14980000000003
 20
192.90819999999999
 30
0.0
 10
285.14980000000003
 20
192.90819999999999
 30
0.0
 10
285.14980000000003
 20
192.90819999999999
 30
0.0
 10
285.14980000000003
 20
192.90819999999999
 30
0.0
 10
285.12950000000001
 20
192.90430000000001
 30
0.0
 10
285.12950000000001
 20
192.90430000000001
 30
0.0
 10
285.12950000000001
 20
192.90430000000001
 30
0.0
 10
285.12950000000001
 20
192.90430000000001
 30
0.0
 10
285.10919999999999
 20
192.90000000000001
 30
0.0
 10
285.10919999999999
 20
192.90000000000001
 30
0.0
 10
285.10919999999999
 20
192.90000000000001
 30
0.0
 10
285.10919999999999
 20
192.90000000000001
 30
0.0
 10
285.08909999999997
 20
192.8956
 30
0.0
 10
285.08909999999997
 20
192.8956
 30
0.0
 10
285.08909999999997
 20
192.8956
 30
0.0
 10
285.08909999999997
 20
192.8956
 30
0.0
 10
285.06909999999999
 20
192.89109999999999
 30
0.0
 10
285.06909999999999
 20
192.89109999999999
 30
0.0
 10
285.06909999999999
 20
192.89109999999999
 30
0.0
 10
285.06909999999999
 20
192.89109999999999
 30
0.0
 10
285.04930000000002
 20
192.88579999999999
 30
0.0
 10
285.04930000000002
 20
192.88579999999999
 30
0.0
 10
285.04930000000002
 20
192.88579999999999
 30
0.0
 10
285.04930000000002
 20
192.88579999999999
 30
0.0
 10
285.02949999999998
 20
192.88050000000001
 30
0.0
 10
285.02949999999998
 20
192.88050000000001
 30
0.0
 10
285.02949999999998
 20
192.88050000000001
 30
0.0
 10
285.02949999999998
 20
192.88050000000001
 30
0.0
 10
285.01010000000002
 20
192.87479999999999
 30
0.0
 10
285.01010000000002
 20
192.87479999999999
 30
0.0
 10
285.01010000000002
 20
192.87479999999999
 30
0.0
 10
285.01010000000002
 20
192.87479999999999
 30
0.0
 10
284.9905
 20
192.8689
 30
0.0
 10
284.9905
 20
192.8689
 30
0.0
 10
284.9905
 20
192.8689
 30
0.0
 10
284.9905
 20
192.8689
 30
0.0
 10
284.97120000000001
 20
192.863
 30
0.0
 10
284.97120000000001
 20
192.863
 30
0.0
 10
284.97120000000001
 20
192.863
 30
0.0
 10
284.97120000000001
 20
192.863
 30
0.0
 10
284.95209999999997
 20
192.85669999999999
 30
0.0
 10
284.95209999999997
 20
192.85669999999999
 30
0.0
 10
284.95209999999997
 20
192.85669999999999
 30
0.0
 10
284.95209999999997
 20
192.85669999999999
 30
0.0
 10
284.97120000000001
 20
192.863
 30
0.0
 10
284.97120000000001
 20
192.863
 30
0.0
  0
SPLINE
  5
5B
100
AcDbEntity
  8
RÚteg 1
100
AcDbSpline
210
0.0
220
0.0
230
1.0
 70
     0
 71
     3
 72
   524
 73
   520
 74
     0
 42
0.0000000001
 43
0.0000000001
 40
0.0
 40
0.0
 40
0.0
 40
0.0
 40
0.0076923076923077
 40
0.0076923076923077
 40
0.0076923076923077
 40
0.0076923076923077
 40
0.0153846153846154
 40
0.0153846153846154
 40
0.0153846153846154
 40
0.0153846153846154
 40
0.0230769230769231
 40
0.0230769230769231
 40
0.0230769230769231
 40
0.0230769230769231
 40
0.0307692307692308
 40
0.0307692307692308
 40
0.0307692307692308
 40
0.0307692307692308
 40
0.0384615384615385
 40
0.0384615384615385
 40
0.0384615384615385
 40
0.0384615384615385
 40
0.0461538461538462
 40
0.0461538461538462
 40
0.0461538461538462
 40
0.0461538461538462
 40
0.0538461538461538
 40
0.0538461538461538
 40
0.0538461538461538
 40
0.0538461538461538
 40
0.0615384615384615
 40
0.0615384615384615
 40
0.0615384615384615
 40
0.0615384615384615
 40
0.0692307692307692
 40
0.0692307692307692
 40
0.0692307692307692
 40
0.0692307692307692
 40
0.0769230769230769
 40
0.0769230769230769
 40
0.0769230769230769
 40
0.0769230769230769
 40
0.0846153846153846
 40
0.0846153846153846
 40
0.0846153846153846
 40
0.0846153846153846
 40
0.0923076923076923
 40
0.0923076923076923
 40
0.0923076923076923
 40
0.0923076923076923
 40
0.1
 40
0.1
 40
0.1
 40
0.1
 40
0.1076923076923077
 40
0.1076923076923077
 40
0.1076923076923077
 40
0.1076923076923077
 40
0.1153846153846154
 40
0.1153846153846154
 40
0.1153846153846154
 40
0.1153846153846154
 40
0.1230769230769231
 40
0.1230769230769231
 40
0.1230769230769231
 40
0.1230769230769231
 40
0.1307692307692308
 40
0.1307692307692308
 40
0.1307692307692308
 40
0.1307692307692308
 40
0.1384615384615385
 40
0.1384615384615385
 40
0.1384615384615385
 40
0.1384615384615385
 40
0.1461538461538462
 40
0.1461538461538462
 40
0.1461538461538462
 40
0.1461538461538462
 40
0.1538461538461539
 40
0.1538461538461539
 40
0.1538461538461539
 40
0.1538461538461539
 40
0.1615384615384616
 40
0.1615384615384616
 40
0.1615384615384616
 40
0.1615384615384616
 40
0.1692307692307692
 40
0.1692307692307692
 40
0.1692307692307692
 40
0.1692307692307692
 40
0.1769230769230769
 40
0.1769230769230769
 40
0.1769230769230769
 40
0.1769230769230769
 40
0.1846153846153846
 40
0.1846153846153846
 40
0.1846153846153846
 40
0.1846153846153846
 40
0.1923076923076923
 40
0.1923076923076923
 40
0.1923076923076923
 40
0.1923076923076923
 40
0.2
 40
0.2
 40
0.2
 40
0.2
 40
0.2076923076923077
 40
0.2076923076923077
 40
0.2076923076923077
 40
0.2076923076923077
 40
0.2153846153846154
 40
0.2153846153846154
 40
0.2153846153846154
 40
0.2153846153846154
 40
0.2230769230769231
 40
0.2230769230769231
 40
0.2230769230769231
 40
0.2230769230769231
 40
0.2307692307692308
 40
0.2307692307692308
 40
0.2307692307692308
 40
0.2307692307692308
 40
0.2384615384615385
 40
0.2384615384615385
 40
0.2384615384615385
 40
0.2384615384615385
 40
0.2461538461538462
 40
0.2461538461538462
 40
0.2461538461538462
 40
0.2461538461538462
 40
0.2538461538461538
 40
0.2538461538461538
 40
0.2538461538461538
 40
0.2538461538461538
 40
0.2615384615384615
 40
0.2615384615384615
 40
0.2615384615384615
 40
0.2615384615384615
 40
0.2692307692307692
 40
0.2692307692307692
 40
0.2692307692307692
 40
0.2692307692307692
 40
0.2769230769230768
 40
0.2769230769230768
 40
0.2769230769230768
 40
0.2769230769230768
 40
0.2846153846153845
 40
0.2846153846153845
 40
0.2846153846153845
 40
0.2846153846153845
 40
0.2923076923076922
 40
0.2923076923076922
 40
0.2923076923076922
 40
0.2923076923076922
 40
0.2999999999999998
 40
0.2999999999999998
 40
0.2999999999999998
 40
0.2999999999999998
 40
0.3076923076923075
 40
0.3076923076923075
 40
0.3076923076923075
 40
0.3076923076923075
 40
0.3153846153846152
 40
0.3153846153846152
 40
0.3153846153846152
 40
0.3153846153846152
 40
0.3230769230769228
 40
0.3230769230769228
 40
0.3230769230769228
 40
0.3230769230769228
 40
0.3307692307692305
 40
0.3307692307692305
 40
0.3307692307692305
 40
0.3307692307692305
 40
0.3384615384615382
 40
0.3384615384615382
 40
0.3384615384615382
 40
0.3384615384615382
 40
0.3461538461538458
 40
0.3461538461538458
 40
0.3461538461538458
 40
0.3461538461538458
 40
0.3538461538461535
 40
0.3538461538461535
 40
0.3538461538461535
 40
0.3538461538461535
 40
0.3615384615384611
 40
0.3615384615384611
 40
0.3615384615384611
 40
0.3615384615384611
 40
0.3692307692307688
 40
0.3692307692307688
 40
0.3692307692307688
 40
0.3692307692307688
 40
0.3769230769230765
 40
0.3769230769230765
 40
0.3769230769230765
 40
0.3769230769230765
 40
0.3846153846153841
 40
0.3846153846153841
 40
0.3846153846153841
 40
0.3846153846153841
 40
0.3923076923076918
 40
0.3923076923076918
 40
0.3923076923076918
 40
0.3923076923076918
 40
0.3999999999999995
 40
0.3999999999999995
 40
0.3999999999999995
 40
0.3999999999999995
 40
0.4076923076923071
 40
0.4076923076923071
 40
0.4076923076923071
 40
0.4076923076923071
 40
0.4153846153846148
 40
0.4153846153846148
 40
0.4153846153846148
 40
0.4153846153846148
 40
0.4230769230769225
 40
0.4230769230769225
 40
0.4230769230769225
 40
0.4230769230769225
 40
0.4307692307692301
 40
0.4307692307692301
 40
0.4307692307692301
 40
0.4307692307692301
 40
0.4384615384615378
 40
0.4384615384615378
 40
0.4384615384615378
 40
0.4384615384615378
 40
0.4461538461538455
 40
0.4461538461538455
 40
0.4461538461538455
 40
0.4461538461538455
 40
0.4538461538461531
 40
0.4538461538461531
 40
0.4538461538461531
 40
0.4538461538461531
 40
0.4615384615384608
 40
0.4615384615384608
 40
0.4615384615384608
 40
0.4615384615384608
 40
0.4692307692307685
 40
0.4692307692307685
 40
0.4692307692307685
 40
0.4692307692307685
 40
0.4769230769230761
 40
0.4769230769230761
 40
0.4769230769230761
 40
0.4769230769230761
 40
0.4846153846153838
 40
0.4846153846153838
 40
0.4846153846153838
 40
0.4846153846153838
 40
0.4923076923076915
 40
0.4923076923076915
 40
0.4923076923076915
 40
0.4923076923076915
 40
0.4999999999999991
 40
0.4999999999999991
 40
0.4999999999999991
 40
0.4999999999999991
 40
0.5076923076923068
 40
0.5076923076923068
 40
0.5076923076923068
 40
0.5076923076923068
 40
0.5153846153846144
 40
0.5153846153846144
 40
0.5153846153846144
 40
0.5153846153846144
 40
0.5230769230769221
 40
0.5230769230769221
 40
0.5230769230769221
 40
0.5230769230769221
 40
0.5307692307692298
 40
0.5307692307692298
 40
0.5307692307692298
 40
0.5307692307692298
 40
0.5384615384615374
 40
0.5384615384615374
 40
0.5384615384615374
 40
0.5384615384615374
 40
0.5461538461538451
 40
0.5461538461538451
 40
0.5461538461538451
 40
0.5461538461538451
 40
0.5538461538461528
 40
0.5538461538461528
 40
0.5538461538461528
 40
0.5538461538461528
 40
0.5615384615384604
 40
0.5615384615384604
 40
0.5615384615384604
 40
0.5615384615384604
 40
0.5692307692307681
 40
0.5692307692307681
 40
0.5692307692307681
 40
0.5692307692307681
 40
0.5769230769230758
 40
0.5769230769230758
 40
0.5769230769230758
 40
0.5769230769230758
 40
0.5846153846153834
 40
0.5846153846153834
 40
0.5846153846153834
 40
0.5846153846153834
 40
0.5923076923076911
 40
0.5923076923076911
 40
0.5923076923076911
 40
0.5923076923076911
 40
0.5999999999999988
 40
0.5999999999999988
 40
0.5999999999999988
 40
0.5999999999999988
 40
0.6076923076923064
 40
0.6076923076923064
 40
0.6076923076923064
 40
0.6076923076923064
 40
0.6153846153846141
 40
0.6153846153846141
 40
0.6153846153846141
 40
0.6153846153846141
 40
0.6230769230769218
 40
0.6230769230769218
 40
0.6230769230769218
 40
0.6230769230769218
 40
0.6307692307692294
 40
0.6307692307692294
 40
0.6307692307692294
 40
0.6307692307692294
 40
0.6384615384615371
 40
0.6384615384615371
 40
0.6384615384615371
 40
0.6384615384615371
 40
0.6461538461538448
 40
0.6461538461538448
 40
0.6461538461538448
 40
0.6461538461538448
 40
0.6538461538461524
 40
0.6538461538461524
 40
0.6538461538461524
 40
0.6538461538461524
 40
0.6615384615384601
 40
0.6615384615384601
 40
0.6615384615384601
 40
0.6615384615384601
 40
0.6692307692307677
 40
0.6692307692307677
 40
0.6692307692307677
 40
0.6692307692307677
 40
0.6769230769230754
 40
0.6769230769230754
 40
0.6769230769230754
 40
0.6769230769230754
 40
0.6846153846153831
 40
0.6846153846153831
 40
0.6846153846153831
 40
0.6846153846153831
 40
0.6923076923076907
 40
0.6923076923076907
 40
0.6923076923076907
 40
0.6923076923076907
 40
0.6999999999999984
 40
0.6999999999999984
 40
0.6999999999999984
 40
0.6999999999999984
 40
0.7076923076923061
 40
0.7076923076923061
 40
0.7076923076923061
 40
0.7076923076923061
 40
0.7153846153846137
 40
0.7153846153846137
 40
0.7153846153846137
 40
0.7153846153846137
 40
0.7230769230769214
 40
0.7230769230769214
 40
0.7230769230769214
 40
0.7230769230769214
 40
0.7307692307692291
 40
0.7307692307692291
 40
0.7307692307692291
 40
0.7307692307692291
 40
0.7384615384615367
 40
0.7384615384615367
 40
0.7384615384615367
 40
0.7384615384615367
 40
0.7461538461538444
 40
0.7461538461538444
 40
0.7461538461538444
 40
0.7461538461538444
 40
0.7538461538461521
 40
0.7538461538461521
 40
0.7538461538461521
 40
0.7538461538461521
 40
0.7615384615384597
 40
0.7615384615384597
 40
0.7615384615384597
 40
0.7615384615384597
 40
0.7692307692307674
 40
0.7692307692307674
 40
0.7692307692307674
 40
0.7692307692307674
 40
0.7769230769230751
 40
0.7769230769230751
 40
0.7769230769230751
 40
0.7769230769230751
 40
0.7846153846153827
 40
0.7846153846153827
 40
0.7846153846153827
 40
0.7846153846153827
 40
0.7923076923076904
 40
0.7923076923076904
 40
0.7923076923076904
 40
0.7923076923076904
 40
0.7999999999999981
 40
0.7999999999999981
 40
0.7999999999999981
 40
0.7999999999999981
 40
0.8076923076923057
 40
0.8076923076923057
 40
0.8076923076923057
 40
0.8076923076923057
 40
0.8153846153846134
 40
0.8153846153846134
 40
0.8153846153846134
 40
0.8153846153846134
 40
0.823076923076921
 40
0.823076923076921
 40
0.823076923076921
 40
0.823076923076921
 40
0.8307692307692287
 40
0.8307692307692287
 40
0.8307692307692287
 40
0.8307692307692287
 40
0.8384615384615364
 40
0.8384615384615364
 40
0.8384615384615364
 40
0.8384615384615364
 40
0.846153846153844
 40
0.846153846153844
 40
0.846153846153844
 40
0.846153846153844
 40
0.8538461538461517
 40
0.8538461538461517
 40
0.8538461538461517
 40
0.8538461538461517
 40
0.8615384615384594
 40
0.8615384615384594
 40
0.8615384615384594
 40
0.8615384615384594
 40
0.869230769230767
 40
0.869230769230767
 40
0.869230769230767
 40
0.869230769230767
 40
0.8769230769230747
 40
0.8769230769230747
 40
0.8769230769230747
 40
0.8769230769230747
 40
0.8846153846153824
 40
0.8846153846153824
 40
0.8846153846153824
 40
0.8846153846153824
 40
0.89230769230769
 40
0.89230769230769
 40
0.89230769230769
 40
0.89230769230769
 40
0.8999999999999977
 40
0.8999999999999977
 40
0.8999999999999977
 40
0.8999999999999977
 40
0.9076923076923054
 40
0.9076923076923054
 40
0.9076923076923054
 40
0.9076923076923054
 40
0.915384615384613
 40
0.915384615384613
 40
0.915384615384613
 40
0.915384615384613
 40
0.9230769230769207
 40
0.9230769230769207
 40
0.9230769230769207
 40
0.9230769230769207
 40
0.9307692307692284
 40
0.9307692307692284
 40
0.9307692307692284
 40
0.9307692307692284
 40
0.938461538461536
 40
0.938461538461536
 40
0.938461538461536
 40
0.938461538461536
 40
0.9461538461538437
 40
0.9461538461538437
 40
0.9461538461538437
 40
0.9461538461538437
 40
0.9538461538461514
 40
0.9538461538461514
 40
0.9538461538461514
 40
0.9538461538461514
 40
0.961538461538459
 40
0.961538461538459
 40
0.961538461538459
 40
0.961538461538459
 40
0.9692307692307667
 40
0.9692307692307667
 40
0.9692307692307667
 40
0.9692307692307667
 40
0.9769230769230743
 40
0.9769230769230743
 40
0.9769230769230743
 40
0.9769230769230743
 40
0.984615384615382
 40
0.984615384615382
 40
0.984615384615382
 40
0.984615384615382
 40
0.9923076923076897
 40
0.9923076923076897
 40
0.9923076923076897
 40
0.9923076923076897
 40
1.0
 40
1.0
 40
1.0
 40
1.0
 10
284.95209999999997
 20
158.68379999999999
 30
0.0
 10
284.95209999999997
 20
158.68379999999999
 30
0.0
 10
284.97120000000001
 20
158.67750000000001
 30
0.0
 10
284.97120000000001
 20
158.67750000000001
 30
0.0
 10
284.97120000000001
 20
158.67750000000001
 30
0.0
 10
284.97120000000001
 20
158.67750000000001
 30
0.0
 10
284.9905
 20
158.67140000000001
 30
0.0
 10
284.9905
 20
158.67140000000001
 30
0.0
 10
284.9905
 20
158.67140000000001
 30
0.0
 10
284.9905
 20
158.67140000000001
 30
0.0
 10
285.01010000000002
 20
158.66550000000001
 30
0.0
 10
285.01010000000002
 20
158.66550000000001
 30
0.0
 10
285.01010000000002
 20
158.66550000000001
 30
0.0
 10
285.01010000000002
 20
158.66550000000001
 30
0.0
 10
285.02949999999998
 20
158.65989999999999
 30
0.0
 10
285.02949999999998
 20
158.65989999999999
 30
0.0
 10
285.02949999999998
 20
158.65989999999999
 30
0.0
 10
285.02949999999998
 20
158.65989999999999
 30
0.0
 10
285.04930000000002
 20
158.65450000000001
 30
0.0
 10
285.04930000000002
 20
158.65450000000001
 30
0.0
 10
285.04930000000002
 20
158.65450000000001
 30
0.0
 10
285.04930000000002
 20
158.65450000000001
 30
0.0
 10
285.06909999999999
 20
158.64949999999999
 30
0.0
 10
285.06909999999999
 20
158.64949999999999
 30
0.0
 10
285.06909999999999
 20
158.64949999999999
 30
0.0
 10
285.06909999999999
 20
158.64949999999999
 30
0.0
 10
285.08909999999997
 20
158.6446
 30
0.0
 10
285.08909999999997
 20
158.6446
 30
0.0
 10
285.08909999999997
 20
158.6446
 30
0.0
 10
285.08909999999997
 20
158.6446
 30
0.0
 10
285.10919999999999
 20
158.64019999999999
 30
0.0
 10
285.10919999999999
 20
158.64019999999999
 30
0.0
 10
285.10919999999999
 20
158.64019999999999
 30
0.0
 10
285.10919999999999
 20
158.64019999999999
 30
0.0
 10
285.12950000000001
 20
158.63570000000001
 30
0.0
 10
285.12950000000001
 20
158.63570000000001
 30
0.0
 10
285.12950000000001
 20
158.63570000000001
 30
0.0
 10
285.12950000000001
 20
158.63570000000001
 30
0.0
 10
285.14980000000003
 20
158.63220000000001
 30
0.0
 10
285.14980000000003
 20
158.63220000000001
 30
0.0
 10
285.14980000000003
 20
158.63220000000001
 30
0.0
 10
285.14980000000003
 20
158.63220000000001
 30
0.0
 10
285.17009999999999
 20
158.62860000000001
 30
0.0
 10
285.17009999999999
 20
158.62860000000001
 30
0.0
 10
285.17009999999999
 20
158.62860000000001
 30
0.0
 10
285.17009999999999
 20
158.62860000000001
 30
0.0
 10
285.19080000000002
 20
158.62520000000001
 30
0.0
 10
285.19080000000002
 20
158.62520000000001
 30
0.0
 10
285.19080000000002
 20
158.62520000000001
 30
0.0
 10
285.19080000000002
 20
158.62520000000001
 30
0.0
 10
285.2115
 20
158.62200000000001
 30
0.0
 10
285.2115
 20
158.62200000000001
 30
0.0
 10
285.2115
 20
158.62200000000001
 30
0.0
 10
285.2115
 20
158.62200000000001
 30
0.0
 10
285.2321
 20
158.61920000000001
 30
0.0
 10
285.2321
 20
158.61920000000001
 30
0.0
 10
285.2321
 20
158.61920000000001
 30
0.0
 10
285.2321
 20
158.61920000000001
 30
0.0
 10
285.25279999999998
 20
158.61689999999999
 30
0.0
 10
285.25279999999998
 20
158.61689999999999
 30
0.0
 10
285.25279999999998
 20
158.61689999999999
 30
0.0
 10
285.25279999999998
 20
158.61689999999999
 30
0.0
 10
285.27390000000003
 20
158.6148
 30
0.0
 10
285.27390000000003
 20
158.6148
 30
0.0
 10
285.27390000000003
 20
158.6148
 30
0.0
 10
285.27390000000003
 20
158.6148
 30
0.0
 10
285.29469999999998
 20
158.61279999999999
 30
0.0
 10
285.29469999999998
 20
158.61279999999999
 30
0.0
 10
285.29469999999998
 20
158.61279999999999
 30
0.0
 10
285.29469999999998
 20
158.61279999999999
 30
0.0
 10
285.31569999999999
 20
158.6114
 30
0.0
 10
285.31569999999999
 20
158.6114
 30
0.0
 10
285.31569999999999
 20
158.6114
 30
0.0
 10
285.31569999999999
 20
158.6114
 30
0.0
 10
285.33659999999998
 20
158.61009999999999
 30
0.0
 10
285.33659999999998
 20
158.61009999999999
 30
0.0
 10
285.33659999999998
 20
158.61009999999999
 30
0.0
 10
285.33659999999998
 20
158.61009999999999
 30
0.0
 10
285.3578
 20
158.60929999999999
 30
0.0
 10
285.3578
 20
158.60929999999999
 30
0.0
 10
285.3578
 20
158.60929999999999
 30
0.0
 10
285.3578
 20
158.60929999999999
 30
0.0
 10
285.37880000000001
 20
158.6087
 30
0.0
 10
285.37880000000001
 20
158.6087
 30
0.0
 10
285.37880000000001
 20
158.6087
 30
0.0
 10
285.37880000000001
 20
158.6087
 30
0.0
 10
285.40030000000002
 20
158.60830000000001
 30
0.0
 10
285.40030000000002
 20
158.60830000000001
 30
0.0
 10
285.40030000000002
 20
158.60830000000001
 30
0.0
 10
285.40030000000002
 20
158.60830000000001
 30
0.0
 10
285.42140000000001
 20
158.60839999999999
 30
0.0
 10
285.42140000000001
 20
158.60839999999999
 30
0.0
 10
285.42140000000001
 20
158.60839999999999
 30
0.0
 10
285.42140000000001
 20
158.60839999999999
 30
0.0
 10
285.4425
 20
158.6087
 30
0.0
 10
285.4425
 20
158.6087
 30
0.0
 10
285.4425
 20
158.6087
 30
0.0
 10
285.4425
 20
158.6087
 30
0.0
 10
285.46379999999999
 20
158.60939999999999
 30
0.0
 10
285.46379999999999
 20
158.60939999999999
 30
0.0
 10
285.46379999999999
 20
158.60939999999999
 30
0.0
 10
285.46379999999999
 20
158.60939999999999
 30
0.0
 10
285.48509999999999
 20
158.61060000000001
 30
0.0
 10
285.48509999999999
 20
158.61060000000001
 30
0.0
 10
285.48509999999999
 20
158.61060000000001
 30
0.0
 10
285.48509999999999
 20
158.61060000000001
 30
0.0
 10
285.50630000000001
 20
158.61179999999999
 30
0.0
 10
285.50630000000001
 20
158.61179999999999
 30
0.0
 10
285.50630000000001
 20
158.61179999999999
 30
0.0
 10
285.50630000000001
 20
158.61179999999999
 30
0.0
 10
285.52749999999997
 20
158.61359999999999
 30
0.0
 10
285.52749999999997
 20
158.61359999999999
 30
0.0
 10
285.52749999999997
 20
158.61359999999999
 30
0.0
 10
285.52749999999997
 20
158.61359999999999
 30
0.0
 10
285.54880000000003
 20
158.6156
 30
0.0
 10
285.54880000000003
 20
158.6156
 30
0.0
 10
285.54880000000003
 20
158.6156
 30
0.0
 10
285.54880000000003
 20
158.6156
 30
0.0
 10
285.56979999999999
 20
158.61779999999999
 30
0.0
 10
285.56979999999999
 20
158.61779999999999
 30
0.0
 10
285.56979999999999
 20
158.61779999999999
 30
0.0
 10
285.56979999999999
 20
158.61779999999999
 30
0.0
 10
285.59100000000001
 20
158.62049999999999
 30
0.0
 10
285.59100000000001
 20
158.62049999999999
 30
0.0
 10
285.59100000000001
 20
158.62049999999999
 30
0.0
 10
285.59100000000001
 20
158.62049999999999
 30
0.0
 10
285.61219999999997
 20
158.62350000000001
 30
0.0
 10
285.61219999999997
 20
158.62350000000001
 30
0.0
 10
285.61219999999997
 20
158.62350000000001
 30
0.0
 10
285.61219999999997
 20
158.62350000000001
 30
0.0
 10
285.63319999999999
 20
158.6268
 30
0.0
 10
285.63319999999999
 20
158.6268
 30
0.0
 10
285.63319999999999
 20
158.6268
 30
0.0
 10
285.63319999999999
 20
158.6268
 30
0.0
 10
285.6542
 20
158.6302
 30
0.0
 10
285.6542
 20
158.6302
 30
0.0
 10
285.6542
 20
158.6302
 30
0.0
 10
285.6542
 20
158.6302
 30
0.0
 10
285.67540000000002
 20
158.6343
 30
0.0
 10
285.67540000000002
 20
158.6343
 30
0.0
 10
285.67540000000002
 20
158.6343
 30
0.0
 10
285.67540000000002
 20
158.6343
 30
0.0
 10
285.6961
 20
158.63839999999999
 30
0.0
 10
285.6961
 20
158.63839999999999
 30
0.0
 10
285.6961
 20
158.63839999999999
 30
0.0
 10
285.6961
 20
158.63839999999999
 30
0.0
 10
285.71690000000001
 20
158.64279999999999
 30
0.0
 10
285.71690000000001
 20
158.64279999999999
 30
0.0
 10
285.71690000000001
 20
158.64279999999999
 30
0.0
 10
285.71690000000001
 20
158.64279999999999
 30
0.0
 10
285.73759999999999
 20
158.64769999999999
 30
0.0
 10
285.73759999999999
 20
158.64769999999999
 30
0.0
 10
285.73759999999999
 20
158.64769999999999
 30
0.0
 10
285.73759999999999
 20
158.64769999999999
 30
0.0
 10
285.75810000000001
 20
158.65299999999999
 30
0.0
 10
285.75810000000001
 20
158.65299999999999
 30
0.0
 10
285.75810000000001
 20
158.65299999999999
 30
0.0
 10
285.75810000000001
 20
158.65299999999999
 30
0.0
 10
285.77870000000001
 20
158.6584
 30
0.0
 10
285.77870000000001
 20
158.6584
 30
0.0
 10
285.77870000000001
 20
158.6584
 30
0.0
 10
285.77870000000001
 20
158.6584
 30
0.0
 10
285.79919999999998
 20
158.66399999999999
 30
0.0
 10
285.79919999999998
 20
158.66399999999999
 30
0.0
 10
285.79919999999998
 20
158.66399999999999
 30
0.0
 10
285.79919999999998
 20
158.66399999999999
 30
0.0
 10
285.81959999999998
 20
158.67019999999999
 30
0.0
 10
285.81959999999998
 20
158.67019999999999
 30
0.0
 10
285.81959999999998
 20
158.67019999999999
 30
0.0
 10
285.81959999999998
 20
158.67019999999999
 30
0.0
 10
285.83980000000003
 20
158.6765
 30
0.0
 10
285.83980000000003
 20
158.6765
 30
0.0
 10
285.83980000000003
 20
158.6765
 30
0.0
 10
285.83980000000003
 20
158.6765
 30
0.0
 10
285.85969999999998
 20
158.6833
 30
0.0
 10
285.85969999999998
 20
158.6833
 30
0.0
 10
285.85969999999998
 20
158.6833
 30
0.0
 10
285.85969999999998
 20
158.6833
 30
0.0
 10
285.87979999999999
 20
158.6901
 30
0.0
 10
285.87979999999999
 20
158.6901
 30
0.0
 10
285.87979999999999
 20
158.6901
 30
0.0
 10
285.87979999999999
 20
158.6901
 30
0.0
 10
285.89949999999999
 20
158.69739999999999
 30
0.0
 10
285.89949999999999
 20
158.69739999999999
 30
0.0
 10
285.89949999999999
 20
158.69739999999999
 30
0.0
 10
285.89949999999999
 20
158.69739999999999
 30
0.0
 10
285.91910000000001
 20
158.70490000000001
 30
0.0
 10
285.91910000000001
 20
158.70490000000001
 30
0.0
 10
285.91910000000001
 20
158.70490000000001
 30
0.0
 10
285.91910000000001
 20
158.70490000000001
 30
0.0
 10
285.93869999999998
 20
158.71260000000001
 30
0.0
 10
285.93869999999998
 20
158.71260000000001
 30
0.0
 10
285.93869999999998
 20
158.71260000000001
 30
0.0
 10
285.93869999999998
 20
158.71260000000001
 30
0.0
 10
285.95819999999998
 20
158.72059999999999
 30
0.0
 10
285.95819999999998
 20
158.72059999999999
 30
0.0
 10
285.95819999999998
 20
158.72059999999999
 30
0.0
 10
285.95819999999998
 20
158.72059999999999
 30
0.0
 10
285.97719999999998
 20
158.72900000000001
 30
0.0
 10
285.97719999999998
 20
158.72900000000001
 30
0.0
 10
285.97719999999998
 20
158.72900000000001
 30
0.0
 10
285.97719999999998
 20
158.72900000000001
 30
0.0
 10
285.99650000000003
 20
158.73769999999999
 30
0.0
 10
285.99650000000003
 20
158.73769999999999
 30
0.0
 10
285.99650000000003
 20
158.73769999999999
 30
0.0
 10
285.99650000000003
 20
158.73769999999999
 30
0.0
 10
286.01519999999999
 20
158.7465
 30
0.0
 10
286.01519999999999
 20
158.7465
 30
0.0
 10
286.01519999999999
 20
158.7465
 30
0.0
 10
286.01519999999999
 20
158.7465
 30
0.0
 10
286.03410000000002
 20
158.75569999999999
 30
0.0
 10
286.03410000000002
 20
158.75569999999999
 30
0.0
 10
286.03410000000002
 20
158.75569999999999
 30
0.0
 10
286.03410000000002
 20
158.75569999999999
 30
0.0
 10
286.05250000000001
 20
158.76499999999999
 30
0.0
 10
286.05250000000001
 20
158.76499999999999
 30
0.0
 10
286.05250000000001
 20
158.76499999999999
 30
0.0
 10
286.05250000000001
 20
158.76499999999999
 30
0.0
 10
286.07080000000002
 20
158.7747
 30
0.0
 10
286.07080000000002
 20
158.7747
 30
0.0
 10
286.07080000000002
 20
158.7747
 30
0.0
 10
286.07080000000002
 20
158.7747
 30
0.0
 10
286.089
 20
158.78440000000001
 30
0.0
 10
286.089
 20
158.78440000000001
 30
0.0
 10
286.089
 20
158.78440000000001
 30
0.0
 10
286.089
 20
158.78440000000001
 30
0.0
 10
286.1069
 20
158.79470000000001
 30
0.0
 10
286.1069
 20
158.79470000000001
 30
0.0
 10
286.1069
 20
158.79470000000001
 30
0.0
 10
286.1069
 20
158.79470000000001
 30
0.0
 10
286.12459999999999
 20
158.80500000000001
 30
0.0
 10
286.12459999999999
 20
158.80500000000001
 30
0.0
 10
286.12459999999999
 20
158.80500000000001
 30
0.0
 10
286.12459999999999
 20
158.80500000000001
 30
0.0
 10
286.1422
 20
158.81559999999999
 30
0.0
 10
286.1422
 20
158.81559999999999
 30
0.0
 10
286.1422
 20
158.81559999999999
 30
0.0
 10
286.1422
 20
158.81559999999999
 30
0.0
 10
286.15969999999999
 20
158.8263
 30
0.0
 10
286.15969999999999
 20
158.8263
 30
0.0
 10
286.15969999999999
 20
158.8263
 30
0.0
 10
286.15969999999999
 20
158.8263
 30
0.0
 10
286.17680000000001
 20
158.8373
 30
0.0
 10
286.17680000000001
 20
158.8373
 30
0.0
 10
286.17680000000001
 20
158.8373
 30
0.0
 10
286.17680000000001
 20
158.8373
 30
0.0
 10
286.1936
 20
158.8485
 30
0.0
 10
286.1936
 20
158.8485
 30
0.0
 10
286.1936
 20
158.8485
 30
0.0
 10
286.1936
 20
158.8485
 30
0.0
 10
286.21010000000001
 20
158.85990000000001
 30
0.0
 10
286.21010000000001
 20
158.85990000000001
 30
0.0
 10
286.21010000000001
 20
158.85990000000001
 30
0.0
 10
286.21010000000001
 20
158.85990000000001
 30
0.0
 10
286.22680000000003
 20
158.8716
 30
0.0
 10
286.22680000000003
 20
158.8716
 30
0.0
 10
286.22680000000003
 20
158.8716
 30
0.0
 10
286.22680000000003
 20
158.8716
 30
0.0
 10
286.24310000000003
 20
158.88329999999999
 30
0.0
 10
286.24310000000003
 20
158.88329999999999
 30
0.0
 10
286.24310000000003
 20
158.88329999999999
 30
0.0
 10
286.24310000000003
 20
158.88329999999999
 30
0.0
 10
286.2593
 20
158.8954
 30
0.0
 10
286.2593
 20
158.8954
 30
0.0
 10
286.2593
 20
158.8954
 30
0.0
 10
286.2593
 20
158.8954
 30
0.0
 10
286.27539999999999
 20
158.90809999999999
 30
0.0
 10
286.27539999999999
 20
158.90809999999999
 30
0.0
 10
286.27539999999999
 20
158.90809999999999
 30
0.0
 10
286.27539999999999
 20
158.90809999999999
 30
0.0
 10
286.29140000000001
 20
158.92070000000001
 30
0.0
 10
286.29140000000001
 20
158.92070000000001
 30
0.0
 10
286.29140000000001
 20
158.92070000000001
 30
0.0
 10
286.29140000000001
 20
158.92070000000001
 30
0.0
 10
286.30720000000002
 20
158.93350000000001
 30
0.0
 10
286.30720000000002
 20
158.93350000000001
 30
0.0
 10
286.30720000000002
 20
158.93350000000001
 30
0.0
 10
286.30720000000002
 20
158.93350000000001
 30
0.0
 10
286.32279999999997
 20
158.9469
 30
0.0
 10
286.32279999999997
 20
158.9469
 30
0.0
 10
286.32279999999997
 20
158.9469
 30
0.0
 10
286.32279999999997
 20
158.9469
 30
0.0
 10
286.3383
 20
158.96029999999999
 30
0.0
 10
286.3383
 20
158.96029999999999
 30
0.0
 10
286.3383
 20
158.96029999999999
 30
0.0
 10
286.3383
 20
158.96029999999999
 30
0.0
 10
286.35390000000001
 20
158.9742
 30
0.0
 10
286.35390000000001
 20
158.9742
 30
0.0
 10
286.35390000000001
 20
158.9742
 30
0.0
 10
286.35390000000001
 20
158.9742
 30
0.0
 10
286.36880000000002
 20
158.9879
 30
0.0
 10
286.36880000000002
 20
158.9879
 30
0.0
 10
286.36880000000002
 20
158.9879
 30
0.0
 10
286.36880000000002
 20
158.9879
 30
0.0
 10
286.38380000000001
 20
159.00210000000001
 30
0.0
 10
286.38380000000001
 20
159.00210000000001
 30
0.0
 10
286.38380000000001
 20
159.00210000000001
 30
0.0
 10
286.38380000000001
 20
159.00210000000001
 30
0.0
 10
286.39890000000003
 20
159.01679999999999
 30
0.0
 10
286.39890000000003
 20
159.01679999999999
 30
0.0
 10
286.39890000000003
 20
159.01679999999999
 30
0.0
 10
286.39890000000003
 20
159.01679999999999
 30
0.0
 10
286.41329999999999
 20
159.03129999999999
 30
0.0
 10
286.41329999999999
 20
159.03129999999999
 30
0.0
 10
286.41329999999999
 20
159.03129999999999
 30
0.0
 10
286.41329999999999
 20
159.03129999999999
 30
0.0
 10
286.42790000000002
 20
159.0463
 30
0.0
 10
286.42790000000002
 20
159.0463
 30
0.0
 10
286.42790000000002
 20
159.0463
 30
0.0
 10
286.42790000000002
 20
159.0463
 30
0.0
 10
286.44220000000001
 20
159.0617
 30
0.0
 10
286.44220000000001
 20
159.0617
 30
0.0
 10
286.44220000000001
 20
159.0617
 30
0.0
 10
286.44220000000001
 20
159.0617
 30
0.0
 10
286.45639999999997
 20
159.07730000000001
 30
0.0
 10
286.45639999999997
 20
159.07730000000001
 30
0.0
 10
286.45639999999997
 20
159.07730000000001
 30
0.0
 10
286.45639999999997
 20
159.07730000000001
 30
0.0
 10
286.4701
 20
159.09289999999999
 30
0.0
 10
286.4701
 20
159.09289999999999
 30
0.0
 10
286.4701
 20
159.09289999999999
 30
0.0
 10
286.4701
 20
159.09289999999999
 30
0.0
 10
286.48390000000001
 20
159.10890000000001
 30
0.0
 10
286.48390000000001
 20
159.10890000000001
 30
0.0
 10
286.48390000000001
 20
159.10890000000001
 30
0.0
 10
286.48390000000001
 20
159.10890000000001
 30
0.0
 10
286.4973
 20
159.125
 30
0.0
 10
286.4973
 20
159.125
 30
0.0
 10
286.4973
 20
159.125
 30
0.0
 10
286.4973
 20
159.125
 30
0.0
 10
286.51029999999997
 20
159.14150000000001
 30
0.0
 10
286.51029999999997
 20
159.14150000000001
 30
0.0
 10
286.51029999999997
 20
159.14150000000001
 30
0.0
 10
286.51029999999997
 20
159.14150000000001
 30
0.0
 10
286.52339999999998
 20
159.1583
 30
0.0
 10
286.52339999999998
 20
159.1583
 30
0.0
 10
286.52339999999998
 20
159.1583
 30
0.0
 10
286.52339999999998
 20
159.1583
 30
0.0
 10
286.53629999999998
 20
159.17500000000001
 30
0.0
 10
286.53629999999998
 20
159.17500000000001
 30
0.0
 10
286.53629999999998
 20
159.17500000000001
 30
0.0
 10
286.53629999999998
 20
159.17500000000001
 30
0.0
 10
286.5489
 20
159.19210000000001
 30
0.0
 10
286.5489
 20
159.19210000000001
 30
0.0
 10
286.5489
 20
159.19210000000001
 30
0.0
 10
286.5489
 20
159.19210000000001
 30
0.0
 10
286.56110000000001
 20
159.20939999999999
 30
0.0
 10
286.56110000000001
 20
159.20939999999999
 30
0.0
 10
286.56110000000001
 20
159.20939999999999
 30
0.0
 10
286.56110000000001
 20
159.20939999999999
 30
0.0
 10
286.57330000000002
 20
159.22669999999999
 30
0.0
 10
286.57330000000002
 20
159.22669999999999
 30
0.0
 10
286.57330000000002
 20
159.22669999999999
 30
0.0
 10
286.57330000000002
 20
159.22669999999999
 30
0.0
 10
286.58510000000001
 20
159.24449999999999
 30
0.0
 10
286.58510000000001
 20
159.24449999999999
 30
0.0
 10
286.58510000000001
 20
159.24449999999999
 30
0.0
 10
286.58510000000001
 20
159.24449999999999
 30
0.0
 10
286.59649999999999
 20
159.26230000000001
 30
0.0
 10
286.59649999999999
 20
159.26230000000001
 30
0.0
 10
286.59649999999999
 20
159.26230000000001
 30
0.0
 10
286.59649999999999
 20
159.26230000000001
 30
0.0
 10
286.60759999999999
 20
159.28039999999999
 30
0.0
 10
286.60759999999999
 20
159.28039999999999
 30
0.0
 10
286.60759999999999
 20
159.28039999999999
 30
0.0
 10
286.60759999999999
 20
159.28039999999999
 30
0.0
 10
286.61869999999999
 20
159.2987
 30
0.0
 10
286.61869999999999
 20
159.2987
 30
0.0
 10
286.61869999999999
 20
159.2987
 30
0.0
 10
286.61869999999999
 20
159.2987
 30
0.0
 10
286.62950000000001
 20
159.31700000000001
 30
0.0
 10
286.62950000000001
 20
159.31700000000001
 30
0.0
 10
286.62950000000001
 20
159.31700000000001
 30
0.0
 10
286.62950000000001
 20
159.31700000000001
 30
0.0
 10
286.63999999999999
 20
159.3356
 30
0.0
 10
286.63999999999999
 20
159.3356
 30
0.0
 10
286.63999999999999
 20
159.3356
 30
0.0
 10
286.63999999999999
 20
159.3356
 30
0.0
 10
286.64999999999998
 20
159.35429999999999
 30
0.0
 10
286.64999999999998
 20
159.35429999999999
 30
0.0
 10
286.64999999999998
 20
159.35429999999999
 30
0.0
 10
286.64999999999998
 20
159.35429999999999
 30
0.0
 10
286.66000000000003
 20
159.3732
 30
0.0
 10
286.66000000000003
 20
159.3732
 30
0.0
 10
286.66000000000003
 20
159.3732
 30
0.0
 10
286.66000000000003
 20
159.3732
 30
0.0
 10
286.6694
 20
159.39230000000001
 30
0.0
 10
286.6694
 20
159.39230000000001
 30
0.0
 10
286.6694
 20
159.39230000000001
 30
0.0
 10
286.6694
 20
159.39230000000001
 30
0.0
 10
286.6789
 20
159.41130000000001
 30
0.0
 10
286.6789
 20
159.41130000000001
 30
0.0
 10
286.6789
 20
159.41130000000001
 30
0.0
 10
286.6789
 20
159.41130000000001
 30
0.0
 10
286.68779999999998
 20
159.4307
 30
0.0
 10
286.68779999999998
 20
159.4307
 30
0.0
 10
286.68779999999998
 20
159.4307
 30
0.0
 10
286.68779999999998
 20
159.4307
 30
0.0
 10
286.69670000000002
 20
159.44990000000001
 30
0.0
 10
286.69670000000002
 20
159.44990000000001
 30
0.0
 10
286.69670000000002
 20
159.44990000000001
 30
0.0
 10
286.69670000000002
 20
159.44990000000001
 30
0.0
 10
286.70499999999998
 20
159.46969999999999
 30
0.0
 10
286.70499999999998
 20
159.46969999999999
 30
0.0
 10
286.70499999999998
 20
159.46969999999999
 30
0.0
 10
286.70499999999998
 20
159.46969999999999
 30
0.0
 10
286.7131
 20
159.48939999999999
 30
0.0
 10
286.7131
 20
159.48939999999999
 30
0.0
 10
286.7131
 20
159.48939999999999
 30
0.0
 10
286.7131
 20
159.48939999999999
 30
0.0
 10
286.72109999999998
 20
159.50890000000001
 30
0.0
 10
286.72109999999998
 20
159.50890000000001
 30
0.0
 10
286.72109999999998
 20
159.50890000000001
 30
0.0
 10
286.72109999999998
 20
159.50890000000001
 30
0.0
 10
286.72840000000002
 20
159.529
 30
0.0
 10
286.72840000000002
 20
159.529
 30
0.0
 10
286.72840000000002
 20
159.529
 30
0.0
 10
286.72840000000002
 20
159.529
 30
0.0
 10
286.73559999999998
 20
159.5489
 30
0.0
 10
286.73559999999998
 20
159.5489
 30
0.0
 10
286.73559999999998
 20
159.5489
 30
0.0
 10
286.73559999999998
 20
159.5489
 30
0.0
 10
286.74239999999998
 20
159.56890000000001
 30
0.0
 10
286.74239999999998
 20
159.56890000000001
 30
0.0
 10
286.74239999999998
 20
159.56890000000001
 30
0.0
 10
286.74239999999998
 20
159.56890000000001
 30
0.0
 10
286.7491
 20
159.58920000000001
 30
0.0
 10
286.7491
 20
159.58920000000001
 30
0.0
 10
286.7491
 20
159.58920000000001
 30
0.0
 10
286.7491
 20
159.58920000000001
 30
0.0
 10
286.75540000000001
 20
159.60929999999999
 30
0.0
 10
286.75540000000001
 20
159.60929999999999
 30
0.0
 10
286.75540000000001
 20
159.60929999999999
 30
0.0
 10
286.75540000000001
 20
159.60929999999999
 30
0.0
 10
286.76139999999998
 20
159.62950000000001
 30
0.0
 10
286.76139999999998
 20
159.62950000000001
 30
0.0
 10
286.76139999999998
 20
159.62950000000001
 30
0.0
 10
286.76139999999998
 20
159.62950000000001
 30
0.0
 10
286.76690000000002
 20
159.65000000000001
 30
0.0
 10
286.76690000000002
 20
159.65000000000001
 30
0.0
 10
286.76690000000002
 20
159.65000000000001
 30
0.0
 10
286.76690000000002
 20
159.65000000000001
 30
0.0
 10
286.7724
 20
159.67009999999999
 30
0.0
 10
286.7724
 20
159.67009999999999
 30
0.0
 10
286.7724
 20
159.67009999999999
 30
0.0
 10
286.7724
 20
159.67009999999999
 30
0.0
 10
286.77730000000003
 20
159.69069999999999
 30
0.0
 10
286.77730000000003
 20
159.69069999999999
 30
0.0
 10
286.77730000000003
 20
159.69069999999999
 30
0.0
 10
286.77730000000003
 20
159.69069999999999
 30
0.0
 10
286.78219999999999
 20
159.71119999999999
 30
0.0
 10
286.78219999999999
 20
159.71119999999999
 30
0.0
 10
286.78219999999999
 20
159.71119999999999
 30
0.0
 10
286.78219999999999
 20
159.71119999999999
 30
0.0
 10
286.78649999999999
 20
159.73169999999999
 30
0.0
 10
286.78649999999999
 20
159.73169999999999
 30
0.0
 10
286.78649999999999
 20
159.73169999999999
 30
0.0
 10
286.78649999999999
 20
159.73169999999999
 30
0.0
 10
286.79059999999998
 20
159.75210000000001
 30
0.0
 10
286.79059999999998
 20
159.75210000000001
 30
0.0
 10
286.79059999999998
 20
159.75210000000001
 30
0.0
 10
286.79059999999998
 20
159.75210000000001
 30
0.0
 10
286.79430000000002
 20
159.77279999999999
 30
0.0
 10
286.79430000000002
 20
159.77279999999999
 30
0.0
 10
286.79430000000002
 20
159.77279999999999
 30
0.0
 10
286.79430000000002
 20
159.77279999999999
 30
0.0
 10
286.7978
 20
159.7928
 30
0.0
 10
286.7978
 20
159.7928
 30
0.0
 10
286.7978
 20
159.7928
 30
0.0
 10
286.7978
 20
159.7928
 30
0.0
 10
286.80090000000001
 20
159.81360000000001
 30
0.0
 10
286.80090000000001
 20
159.81360000000001
 30
0.0
 10
286.80090000000001
 20
159.81360000000001
 30
0.0
 10
286.80090000000001
 20
159.81360000000001
 30
0.0
 10
286.80399999999997
 20
159.83410000000001
 30
0.0
 10
286.80399999999997
 20
159.83410000000001
 30
0.0
 10
286.80399999999997
 20
159.83410000000001
 30
0.0
 10
286.80399999999997
 20
159.83410000000001
 30
0.0
 10
286.80650000000003
 20
159.8545
 30
0.0
 10
286.80650000000003
 20
159.8545
 30
0.0
 10
286.80650000000003
 20
159.8545
 30
0.0
 10
286.80650000000003
 20
159.8545
 30
0.0
 10
286.80860000000001
 20
159.875
 30
0.0
 10
286.80860000000001
 20
159.875
 30
0.0
 10
286.80860000000001
 20
159.875
 30
0.0
 10
286.80860000000001
 20
159.875
 30
0.0
 10
286.8107
 20
159.8955
 30
0.0
 10
286.8107
 20
159.8955
 30
0.0
 10
286.8107
 20
159.8955
 30
0.0
 10
286.8107
 20
159.8955
 30
0.0
 10
286.81229999999999
 20
159.9161
 30
0.0
 10
286.81229999999999
 20
159.9161
 30
0.0
 10
286.81229999999999
 20
159.9161
 30
0.0
 10
286.81229999999999
 20
159.9161
 30
0.0
 10
286.81360000000001
 20
159.9366
 30
0.0
 10
286.81360000000001
 20
159.9366
 30
0.0
 10
286.81360000000001
 20
159.9366
 30
0.0
 10
286.81360000000001
 20
159.9366
 30
0.0
 10
286.81450000000001
 20
159.95679999999999
 30
0.0
 10
286.81450000000001
 20
159.95679999999999
 30
0.0
 10
286.81450000000001
 20
159.95679999999999
 30
0.0
 10
286.81450000000001
 20
159.95679999999999
 30
0.0
 10
286.8152
 20
159.9769
 30
0.0
 10
286.8152
 20
159.9769
 30
0.0
 10
286.8152
 20
159.9769
 30
0.0
 10
286.8152
 20
159.9769
 30
0.0
 10
286.81560000000002
 20
159.99719999999999
 30
0.0
 10
286.81560000000002
 20
159.99719999999999
 30
0.0
 10
286.81560000000002
 20
159.99719999999999
 30
0.0
 10
286.81560000000002
 20
159.99719999999999
 30
0.0
 10
286.81569999999999
 20
160.01740000000001
 30
0.0
 10
286.81569999999999
 20
160.01740000000001
 30
0.0
 10
286.81569999999999
 20
160.01740000000001
 30
0.0
 10
286.81569999999999
 20
160.01740000000001
 30
0.0
 10
286.81560000000002
 20
159.99719999999999
 30
0.0
 10
286.81560000000002
 20
159.99719999999999
 30
0.0
 10
286.81560000000002
 20
159.99719999999999
 30
0.0
 10
286.81560000000002
 20
159.99719999999999
 30
0.0
 10
286.81569999999999
 20
160.01740000000001
 30
0.0
 10
286.81569999999999
 20
160.01740000000001
 30
0.0
  0
SPLINE
  5
5C
100
AcDbEntity
  8
RÚteg 1
100
AcDbSpline
210
0.0
220
0.0
230
1.0
 70
     1
 71
     3
 72
    12
 73
     8
 74
     0
 42
0.0000000001
 43
0.0000000001
 40
0.0
 40
0.0
 40
0.0
 40
0.0
 40
0.5
 40
0.5
 40
0.5
 40
0.5
 40
1.0
 40
1.0
 40
1.0
 40
1.0
 10
286.81569999999999
 20
160.01740000000001
 30
0.0
 10
286.81569999999999
 20
160.01740000000001
 30
0.0
 10
286.81569999999999
 20
168.72540000000001
 30
0.0
 10
286.81569999999999
 20
168.72540000000001
 30
0.0
 10
286.81569999999999
 20
168.72540000000001
 30
0.0
 10
286.81569999999999
 20
168.72540000000001
 30
0.0
 10
286.81569999999999
 20
160.01740000000001
 30
0.0
 10
286.81569999999999
 20
160.01740000000001
 30
0.0
  0
SPLINE
  5
5D
100
AcDbEntity
  8
RÚteg 1
100
AcDbSpline
210
0.0
220
0.0
230
1.0
 70
     1
 71
     3
 72
    12
 73
     8
 74
     0
 42
0.0000000001
 43
0.0000000001
 40
0.0
 40
0.0
 40
0.0
 40
0.0
 40
0.5
 40
0.5
 40
0.5
 40
0.5
 40
1.0
 40
1.0
 40
1.0
 40
1.0
 10
286.81569999999999
 20
168.72540000000001
 30
0.0
 10
286.81569999999999
 20
168.72540000000001
 30
0.0
 10
289.63369999999998
 20
168.72540000000001
 30
0.0
 10
289.63369999999998
 20
168.72540000000001
 30
0.0
 10
289.63369999999998
 20
168.72540000000001
 30
0.0
 10
289.63369999999998
 20
168.72540000000001
 30
0.0
 10
286.81569999999999
 20
168.72540000000001
 30
0.0
 10
286.81569999999999
 20
168.72540000000001
 30
0.0
  0
SPLINE
  5
5E
100
AcDbEntity
  8
RÚteg 1
100
AcDbSpline
210
0.0
220
0.0
230
1.0
 70
     1
 71
     3
 72
    12
 73
     8
 74
     0
 42
0.0000000001
 43
0.0000000001
 40
0.0
 40
0.0
 40
0.0
 40
0.0
 40
0.5
 40
0.5
 40
0.5
 40
0.5
 40
1.0
 40
1.0
 40
1.0
 40
1.0
 10
289.63369999999998
 20
168.72540000000001
 30
0.0
 10
289.63369999999998
 20
168.72540000000001
 30
0.0
 10
289.63369999999998
 20
172.24770000000001
 30
0.0
 10
289.63369999999998
 20
172.24770000000001
 30
0.0
 10
289.63369999999998
 20
172.24770000000001
 30
0.0
 10
289.63369999999998
 20
172.24770000000001
 30
0.0
 10
289.63369999999998
 20
168.72540000000001
 30
0.0
 10
289.63369999999998
 20
168.72540000000001
 30
0.0
  0
SPLINE
  5
5F
100
AcDbEntity
  8
RÚteg 1
100
AcDbSpline
210
0.0
220
0.0
230
1.0
 70
     0
 71
     3
 72
     8
 73
     4
 74
     0
 42
0.0000000001
 43
0.0000000001
 40
0.0
 40
0.0
 40
0.0
 40
0.0
 40
1.0
 40
1.0
 40
1.0
 40
1.0
 10
289.63369999999998
 20
172.24770000000001
 30
0.0
 10
289.63369999999998
 20
172.24770000000001
 30
0.0
 10
292.45170000000002
 20
172.24770000000001
 30
0.0
 10
292.45170000000002
 20
172.24770000000001
 30
0.0
  0
SPLINE
  5
60
100
AcDbEntity
  8
RÚteg 1
100
AcDbSpline
210
0.0
220
0.0
230
1.0
 70
     0
 71
     3
 72
    24
 73
    20
 74
     0
 42
0.0000000001
 43
0.0000000001
 40
0.0
 40
0.0
 40
0.0
 40
0.0
 40
0.2
 40
0.2
 40
0.2
 40
0.2
 40
0.4
 40
0.4
 40
0.4
 40
0.4
 40
0.6000000000000001
 40
0.6000000000000001
 40
0.6000000000000001
 40
0.6000000000000001
 40
0.8
 40
0.8
 40
0.8
 40
0.8
 40
1.0
 40
1.0
 40
1.0
 40
1.0
 10
284.95209999999997
 20
192.85669999999999
 30
0.0
 10
278.0582
 20
190.4392
 30
0.0
 10
273.43079999999998
 20
184.49119999999999
 30
0.0
 10
272.78410000000002
 20
177.21449999999999
 30
0.0
 10
272.78410000000002
 20
177.21449999999999
 30
0.0
 10
272.78410000000002
 20
177.21449999999999
 30
0.0
 10
279.80630000000002
 20
177.21449999999999
 30
0.0
 10
279.80630000000002
 20
177.21449999999999
 30
0.0
 10
279.80630000000002
 20
177.21449999999999
 30
0.0
 10
279.80630000000002
 20
177.21449999999999
 30
0.0
 10
279.80630000000002
 20
174.32589999999999
 30
0.0
 10
279.80630000000002
 20
174.32589999999999
 30
0.0
 10
279.80630000000002
 20
174.32589999999999
 30
0.0
 10
279.80630000000002
 20
174.32589999999999
 30
0.0
 10
272.78410000000002
 20
174.32589999999999
 30
0.0
 10
272.78410000000002
 20
174.32589999999999
 30
0.0
 10
272.78410000000002
 20
174.32589999999999
 30
0.0
 10
273.43049999999999
 20
167.04949999999999
 30
0.0
 10
278.0582
 20
161.1011
 30
0.0
 10
284.95209999999997
 20
158.68379999999999
 30
0.0
  0
SPLINE
  5
61
100
AcDbEntity
  8
RÚteg 1
100
AcDbSpline
210
0.0
220
0.0
230
1.0
 70
     1
 71
     3
 72
    36
 73
    32
 74
     0
 42
0.0000000001
 43
0.0000000001
 40
0.0
 40
0.0
 40
0.0
 40
0.0
 40
0.125
 40
0.125
 40
0.125
 40
0.125
 40
0.25
 40
0.25
 40
0.25
 40
0.25
 40
0.375
 40
0.375
 40
0.375
 40
0.375
 40
0.5
 40
0.5
 40
0.5
 40
0.5
 40
0.625
 40
0.625
 40
0.625
 40
0.625
 40
0.75
 40
0.75
 40
0.75
 40
0.75
 40
0.875
 40
0.875
 40
0.875
 40
0.875
 40
1.0
 40
1.0
 40
1.0
 40
1.0
 10
306.48509999999999
 20
167.28129999999999
 30
0.0
 10
305.84429999999998
 20
160.08600000000001
 30
0.0
 10
301.1841
 20
153.9795
 30
0.0
 10
294.31549999999999
 20
151.6388
 30
0.0
 10
294.31549999999999
 20
151.6388
 30
0.0
 10
293.42669999999998
 20
151.33609999999999
 30
0.0
 10
292.46179999999998
 20
152.00980000000001
 30
0.0
 10
292.452
 20
152.95240000000001
 30
0.0
 10
292.452
 20
152.95240000000001
 30
0.0
 10
292.452
 20
152.95240000000001
 30
0.0
 10
292.45170000000002
 20
184.47810000000001
 30
0.0
 10
292.45170000000002
 20
184.47810000000001
 30
0.0
 10
292.45170000000002
 20
184.47810000000001
 30
0.0
 10
292.45650000000001
 20
185.4272
 30
0.0
 10
293.4128
 20
186.11920000000001
 30
0.0
 10
294.31549999999999
 20
185.8116
 30
0.0
 10
294.31549999999999
 20
185.8116
 30
0.0
 10
301.18340000000001
 20
183.47110000000001
 30
0.0
 10
305.84449999999998
 20
177.36420000000001
 30
0.0
 10
306.48360000000002
 20
170.1695
 30
0.0
 10
306.48360000000002
 20
170.1695
 30
0.0
 10
306.48360000000002
 20
170.1695
 30
0.0
 10
299.46129999999999
 20
170.1695
 30
0.0
 10
299.46129999999999
 20
170.1695
 30
0.0
 10
299.46129999999999
 20
170.1695
 30
0.0
 10
299.46129999999999
 20
170.1695
 30
0.0
 10
299.46129999999999
 20
167.28129999999999
 30
0.0
 10
299.46129999999999
 20
167.28129999999999
 30
0.0
 10
299.46129999999999
 20
167.28129999999999
 30
0.0
 10
299.46129999999999
 20
167.28129999999999
 30
0.0
 10
306.48509999999999
 20
167.28129999999999
 30
0.0
 10
306.48509999999999
 20
167.28129999999999
 30
0.0
  0
SPLINE
  5
62
100
AcDbEntity
  8
RÚteg 1
100
AcDbSpline
210
0.0
220
0.0
230
1.0
 70
     1
 71
     3
 72
    96
 73
    92
 74
     0
 42
0.0000000001
 43
0.0000000001
 40
0.0
 40
0.0
 40
0.0
 40
0.0
 40
0.0434782608695652
 40
0.0434782608695652
 40
0.0434782608695652
 40
0.0434782608695652
 40
0.0869565217391304
 40
0.0869565217391304
 40
0.0869565217391304
 40
0.0869565217391304
 40
0.1304347826086957
 40
0.1304347826086957
 40
0.1304347826086957
 40
0.1304347826086957
 40
0.1739130434782609
 40
0.1739130434782609
 40
0.1739130434782609
 40
0.1739130434782609
 40
0.2173913043478261
 40
0.2173913043478261
 40
0.2173913043478261
 40
0.2173913043478261
 40
0.2608695652173913
 40
0.2608695652173913
 40
0.2608695652173913
 40
0.2608695652173913
 40
0.3043478260869565
 40
0.3043478260869565
 40
0.3043478260869565
 40
0.3043478260869565
 40
0.3478260869565217
 40
0.3478260869565217
 40
0.3478260869565217
 40
0.3478260869565217
 40
0.3913043478260869
 40
0.3913043478260869
 40
0.3913043478260869
 40
0.3913043478260869
 40
0.4347826086956521
 40
0.4347826086956521
 40
0.4347826086956521
 40
0.4347826086956521
 40
0.4782608695652173
 40
0.4782608695652173
 40
0.4782608695652173
 40
0.4782608695652173
 40
0.5217391304347825
 40
0.5217391304347825
 40
0.5217391304347825
 40
0.5217391304347825
 40
0.5652173913043477
 40
0.5652173913043477
 40
0.5652173913043477
 40
0.5652173913043477
 40
0.6086956521739129
 40
0.6086956521739129
 40
0.6086956521739129
 40
0.6086956521739129
 40
0.6521739130434781
 40
0.6521739130434781
 40
0.6521739130434781
 40
0.6521739130434781
 40
0.6956521739130432
 40
0.6956521739130432
 40
0.6956521739130432
 40
0.6956521739130432
 40
0.7391304347826084
 40
0.7391304347826084
 40
0.7391304347826084
 40
0.7391304347826084
 40
0.7826086956521736
 40
0.7826086956521736
 40
0.7826086956521736
 40
0.7826086956521736
 40
0.8260869565217388
 40
0.8260869565217388
 40
0.8260869565217388
 40
0.8260869565217388
 40
0.869565217391304
 40
0.869565217391304
 40
0.869565217391304
 40
0.869565217391304
 40
0.9130434782608692
 40
0.9130434782608692
 40
0.9130434782608692
 40
0.9130434782608692
 40
0.9565217391304344
 40
0.9565217391304344
 40
0.9565217391304344
 40
0.9565217391304344
 40
1.0
 40
1.0
 40
1.0
 40
1.0
 10
304.01679999999999
 20
70.597800000000007
 30
0.0
 10
303.346
 20
79.812299999999993
 30
0.0
 10
298.90550000000002
 20
88.010800000000003
 30
0.0
 10
291.55349999999999
 20
93.606399999999994
 30
0.0
 10
291.55349999999999
 20
93.606399999999994
 30
0.0
 10
291.55349999999999
 20
93.606399999999994
 30
0.0
 10
291.05459999999999
 20
94.062200000000004
 30
0.0
 10
291.05459999999999
 20
94.062200000000004
 30
0.0
 10
291.05459999999999
 20
94.062200000000004
 30
0.0
 10
289.94600000000003
 20
95.305099999999996
 30
0.0
 10
289.3843
 20
96.938999999999993
 30
0.0
 10
289.49680000000001
 20
98.600700000000003
 30
0.0
 10
289.49680000000001
 20
98.600700000000003
 30
0.0
 10
289.66820000000001
 20
101.1908
 30
0.0
 10
287.11369999999999
 20
103.0642
 30
0.0
 10
284.69369999999998
 20
102.1367
 30
0.0
 10
284.69369999999998
 20
102.1367
 30
0.0
 10
281.87740000000002
 20
101.0479
 30
0.0
 10
278.91449999999998
 20
100.48439999999999
 30
0.0
 10
275.89530000000002
 20
100.4674
 30
0.0
 10
275.89530000000002
 20
100.4674
 30
0.0
 10
272.87619999999998
 20
100.48439999999999
 30
0.0
 10
269.91289999999998
 20
101.0479
 30
0.0
 10
267.0967
 20
102.1367
 30
0.0
 10
267.0967
 20
102.1367
 30
0.0
 10
264.67430000000002
 20
103.0654
 30
0.0
 10
262.12569999999999
 20
101.1908
 30
0.0
 10
262.2937
 20
98.600700000000003
 30
0.0
 10
262.2937
 20
98.600700000000003
 30
0.0
 10
262.40609999999998
 20
96.939800000000005
 30
0.0
 10
261.84519999999998
 20
95.303899999999999
 30
0.0
 10
260.73610000000002
 20
94.062200000000004
 30
0.0
 10
260.73610000000002
 20
94.062200000000004
 30
0.0
 10
260.73610000000002
 20
94.062200000000004
 30
0.0
 10
260.23700000000002
 20
93.606399999999994
 30
0.0
 10
260.23700000000002
 20
93.606399999999994
 30
0.0
 10
260.23700000000002
 20
93.606399999999994
 30
0.0
 10
252.88509999999999
 20
88.010800000000003
 30
0.0
 10
248.44460000000001
 20
79.812299999999993
 30
0.0
 10
247.77369999999999
 20
70.597800000000007
 30
0.0
 10
247.77369999999999
 20
70.597800000000007
 30
0.0
 10
247.77369999999999
 20
70.597800000000007
 30
0.0
 10
258.62909999999999
 20
70.597800000000007
 30
0.0
 10
258.62909999999999
 20
70.597800000000007
 30
0.0
 10
258.62909999999999
 20
70.597800000000007
 30
0.0
 10
258.62909999999999
 20
70.597800000000007
 30
0.0
 10
258.62909999999999
 20
77.677999999999997
 30
0.0
 10
258.62909999999999
 20
77.677999999999997
 30
0.0
 10
258.62909999999999
 20
77.677999999999997
 30
0.0
 10
258.62909999999999
 20
77.677999999999997
 30
0.0
 10
261.51740000000001
 20
77.677999999999997
 30
0.0
 10
261.51740000000001
 20
77.677999999999997
 30
0.0
 10
261.51740000000001
 20
77.677999999999997
 30
0.0
 10
261.51740000000001
 20
77.677999999999997
 30
0.0
 10
261.51740000000001
 20
70.597800000000007
 30
0.0
 10
261.51740000000001
 20
70.597800000000007
 30
0.0
 10
261.51740000000001
 20
70.597800000000007
 30
0.0
 10
261.51740000000001
 20
70.597800000000007
 30
0.0
 10
274.4511
 20
70.597800000000007
 30
0.0
 10
274.4511
 20
70.597800000000007
 30
0.0
 10
274.4511
 20
70.597800000000007
 30
0.0
 10
274.4511
 20
70.597800000000007
 30
0.0
 10
274.4511
 20
77.677999999999997
 30
0.0
 10
274.4511
 20
77.677999999999997
 30
0.0
 10
274.4511
 20
77.677999999999997
 30
0.0
 10
274.4511
 20
77.677999999999997
 30
0.0
 10
277.33940000000001
 20
77.677999999999997
 30
0.0
 10
277.33940000000001
 20
77.677999999999997
 30
0.0
 10
277.33940000000001
 20
77.677999999999997
 30
0.0
 10
277.33940000000001
 20
77.677999999999997
 30
0.0
 10
277.33940000000001
 20
70.597800000000007
 30
0.0
 10
277.33940000000001
 20
70.597800000000007
 30
0.0
 10
277.33940000000001
 20
70.597800000000007
 30
0.0
 10
277.33940000000001
 20
70.597800000000007
 30
0.0
 10
290.91969999999998
 20
70.597800000000007
 30
0.0
 10
290.91969999999998
 20
70.597800000000007
 30
0.0
 10
290.91969999999998
 20
70.597800000000007
 30
0.0
 10
290.91969999999998
 20
70.597800000000007
 30
0.0
 10
290.91969999999998
 20
77.677999999999997
 30
0.0
 10
290.91969999999998
 20
77.677999999999997
 30
0.0
 10
290.91969999999998
 20
77.677999999999997
 30
0.0
 10
290.91969999999998
 20
77.677999999999997
 30
0.0
 10
293.80810000000002
 20
77.677999999999997
 30
0.0
 10
293.80810000000002
 20
77.677999999999997
 30
0.0
 10
293.80810000000002
 20
77.677999999999997
 30
0.0
 10
293.80810000000002
 20
77.677999999999997
 30
0.0
 10
293.80810000000002
 20
70.597800000000007
 30
0.0
 10
293.80810000000002
 20
70.597800000000007
 30
0.0
 10
293.80810000000002
 20
70.597800000000007
 30
0.0
 10
293.80810000000002
 20
70.597800000000007
 30
0.0
 10
304.01679999999999
 20
70.597800000000007
 30
0.0
 10
304.01679999999999
 20
70.597800000000007
 30
0.0
  0
SPLINE
  5
63
100
AcDbEntity
  8
RÚteg 1
100
AcDbSpline
210
0.0
220
0.0
230
1.0
 70
     1
 71
     3
 72
    36
 73
    32
 74
     0
 42
0.0000000001
 43
0.0000000001
 40
0.0
 40
0.0
 40
0.0
 40
0.0
 40
0.125
 40
0.125
 40
0.125
 40
0.125
 40
0.25
 40
0.25
 40
0.25
 40
0.25
 40
0.375
 40
0.375
 40
0.375
 40
0.375
 40
0.5
 40
0.5
 40
0.5
 40
0.5
 40
0.625
 40
0.625
 40
0.625
 40
0.625
 40
0.75
 40
0.75
 40
0.75
 40
0.75
 40
0.875
 40
0.875
 40
0.875
 40
0.875
 40
1.0
 40
1.0
 40
1.0
 40
1.0
 10
267.26679999999999
 20
194.74600000000001
 30
0.0
 10
267.26679999999999
 20
194.74600000000001
 30
0.0
 10
298.79259999999999
 20
194.74619999999999
 30
0.0
 10
298.79259999999999
 20
194.74619999999999
 30
0.0
 10
298.79259999999999
 20
194.74619999999999
 30
0.0
 10
299.73360000000002
 20
194.756
 30
0.0
 10
300.41059999999999
 20
195.72120000000001
 30
0.0
 10
300.10590000000002
 20
196.6097
 30
0.0
 10
300.10590000000002
 20
196.6097
 30
0.0
 10
297.74740000000003
 20
203.4829
 30
0.0
 10
291.67610000000002
 20
208.13550000000001
 30
0.0
 10
284.46379999999999
 20
208.77799999999999
 30
0.0
 10
284.46379999999999
 20
208.77799999999999
 30
0.0
 10
284.46379999999999
 20
208.77799999999999
 30
0.0
 10
284.46379999999999
 20
201.75530000000001
 30
0.0
 10
284.46379999999999
 20
201.75530000000001
 30
0.0
 10
284.46379999999999
 20
201.75530000000001
 30
0.0
 10
284.46379999999999
 20
201.75530000000001
 30
0.0
 10
281.5754
 20
201.75530000000001
 30
0.0
 10
281.5754
 20
201.75530000000001
 30
0.0
 10
281.5754
 20
201.75530000000001
 30
0.0
 10
281.5754
 20
201.75530000000001
 30
0.0
 10
281.5754
 20
208.77799999999999
 30
0.0
 10
281.5754
 20
208.77799999999999
 30
0.0
 10
281.5754
 20
208.77799999999999
 30
0.0
 10
274.363
 20
208.13550000000001
 30
0.0
 10
268.29160000000002
 20
203.48310000000001
 30
0.0
 10
265.93329999999997
 20
196.6097
 30
0.0
 10
265.93329999999997
 20
196.6097
 30
0.0
 10
265.6232
 20
195.70609999999999
 30
0.0
 10
266.31920000000002
 20
194.7526
 30
0.0
 10
267.26679999999999
 20
194.74600000000001
 30
0.0
  0
SPLINE
  5
64
100
AcDbEntity
  8
RÚteg 1
100
AcDbSpline
210
0.0
220
0.0
230
1.0
 70
     1
 71
     3
 72
   212
 73
   208
 74
     0
 42
0.0000000001
 43
0.0000000001
 40
0.0
 40
0.0
 40
0.0
 40
0.0
 40
0.0192307692307692
 40
0.0192307692307692
 40
0.0192307692307692
 40
0.0192307692307692
 40
0.0384615384615385
 40
0.0384615384615385
 40
0.0384615384615385
 40
0.0384615384615385
 40
0.0576923076923077
 40
0.0576923076923077
 40
0.0576923076923077
 40
0.0576923076923077
 40
0.0769230769230769
 40
0.0769230769230769
 40
0.0769230769230769
 40
0.0769230769230769
 40
0.0961538461538462
 40
0.0961538461538462
 40
0.0961538461538462
 40
0.0961538461538462
 40
0.1153846153846154
 40
0.1153846153846154
 40
0.1153846153846154
 40
0.1153846153846154
 40
0.1346153846153846
 40
0.1346153846153846
 40
0.1346153846153846
 40
0.1346153846153846
 40
0.1538461538461539
 40
0.1538461538461539
 40
0.1538461538461539
 40
0.1538461538461539
 40
0.1730769230769231
 40
0.1730769230769231
 40
0.1730769230769231
 40
0.1730769230769231
 40
0.1923076923076923
 40
0.1923076923076923
 40
0.1923076923076923
 40
0.1923076923076923
 40
0.2115384615384615
 40
0.2115384615384615
 40
0.2115384615384615
 40
0.2115384615384615
 40
0.2307692307692307
 40
0.2307692307692307
 40
0.2307692307692307
 40
0.2307692307692307
 40
0.2499999999999999
 40
0.2499999999999999
 40
0.2499999999999999
 40
0.2499999999999999
 40
0.2692307692307692
 40
0.2692307692307692
 40
0.2692307692307692
 40
0.2692307692307692
 40
0.2884615384615384
 40
0.2884615384615384
 40
0.2884615384615384
 40
0.2884615384615384
 40
0.3076923076923076
 40
0.3076923076923076
 40
0.3076923076923076
 40
0.3076923076923076
 40
0.3269230769230768
 40
0.3269230769230768
 40
0.3269230769230768
 40
0.3269230769230768
 40
0.346153846153846
 40
0.346153846153846
 40
0.346153846153846
 40
0.346153846153846
 40
0.3653846153846153
 40
0.3653846153846153
 40
0.3653846153846153
 40
0.3653846153846153
 40
0.3846153846153845
 40
0.3846153846153845
 40
0.3846153846153845
 40
0.3846153846153845
 40
0.4038461538461537
 40
0.4038461538461537
 40
0.4038461538461537
 40
0.4038461538461537
 40
0.4230769230769229
 40
0.4230769230769229
 40
0.4230769230769229
 40
0.4230769230769229
 40
0.4423076923076921
 40
0.4423076923076921
 40
0.4423076923076921
 40
0.4423076923076921
 40
0.4615384615384613
 40
0.4615384615384613
 40
0.4615384615384613
 40
0.4615384615384613
 40
0.4807692307692306
 40
0.4807692307692306
 40
0.4807692307692306
 40
0.4807692307692306
 40
0.4999999999999998
 40
0.4999999999999998
 40
0.4999999999999998
 40
0.4999999999999998
 40
0.5192307692307691
 40
0.5192307692307691
 40
0.5192307692307691
 40
0.5192307692307691
 40
0.5384615384615383
 40
0.5384615384615383
 40
0.5384615384615383
 40
0.5384615384615383
 40
0.5576923076923076
 40
0.5576923076923076
 40
0.5576923076923076
 40
0.5576923076923076
 40
0.5769230769230769
 40
0.5769230769230769
 40
0.5769230769230769
 40
0.5769230769230769
 40
0.5961538461538462
 40
0.5961538461538462
 40
0.5961538461538462
 40
0.5961538461538462
 40
0.6153846153846154
 40
0.6153846153846154
 40
0.6153846153846154
 40
0.6153846153846154
 40
0.6346153846153847
 40
0.6346153846153847
 40
0.6346153846153847
 40
0.6346153846153847
 40
0.653846153846154
 40
0.653846153846154
 40
0.653846153846154
 40
0.653846153846154
 40
0.6730769230769232
 40
0.6730769230769232
 40
0.6730769230769232
 40
0.6730769230769232
 40
0.6923076923076925
 40
0.6923076923076925
 40
0.6923076923076925
 40
0.6923076923076925
 40
0.7115384615384618
 40
0.7115384615384618
 40
0.7115384615384618
 40
0.7115384615384618
 40
0.7307692307692311
 40
0.7307692307692311
 40
0.7307692307692311
 40
0.7307692307692311
 40
0.7500000000000003
 40
0.7500000000000003
 40
0.7500000000000003
 40
0.7500000000000003
 40
0.7692307692307696
 40
0.7692307692307696
 40
0.7692307692307696
 40
0.7692307692307696
 40
0.7884615384615389
 40
0.7884615384615389
 40
0.7884615384615389
 40
0.7884615384615389
 40
0.8076923076923082
 40
0.8076923076923082
 40
0.8076923076923082
 40
0.8076923076923082
 40
0.8269230769230774
 40
0.8269230769230774
 40
0.8269230769230774
 40
0.8269230769230774
 40
0.8461538461538467
 40
0.8461538461538467
 40
0.8461538461538467
 40
0.8461538461538467
 40
0.865384615384616
 40
0.865384615384616
 40
0.865384615384616
 40
0.865384615384616
 40
0.8846153846153853
 40
0.8846153846153853
 40
0.8846153846153853
 40
0.8846153846153853
 40
0.9038461538461545
 40
0.9038461538461545
 40
0.9038461538461545
 40
0.9038461538461545
 40
0.9230769230769238
 40
0.9230769230769238
 40
0.9230769230769238
 40
0.9230769230769238
 40
0.9423076923076931
 40
0.9423076923076931
 40
0.9423076923076931
 40
0.9423076923076931
 40
0.9615384615384623
 40
0.9615384615384623
 40
0.9615384615384623
 40
0.9615384615384623
 40
0.9807692307692316
 40
0.9807692307692316
 40
0.9807692307692316
 40
0.9807692307692316
 40
1.0
 40
1.0
 40
1.0
 40
1.0
 10
256.07100000000003
 20
173.37450000000001
 30
0.0
 10
255.90989999999999
 20
173.44999999999999
 30
0.0
 10
255.7115
 20
173.38980000000001
 30
0.0
 10
255.62010000000001
 20
173.2372
 30
0.0
 10
255.62010000000001
 20
173.2372
 30
0.0
 10
255.0017
 20
172.23220000000001
 30
0.0
 10
253.55690000000001
 20
173.36320000000001
 30
0.0
 10
254.3612
 20
174.2013
 30
0.0
 10
254.3612
 20
174.2013
 30
0.0
 10
254.72149999999999
 20
174.57689999999999
 30
0.0
 10
255.34970000000001
 20
174.49889999999999
 30
0.0
 10
255.62010000000001
 20
174.05959999999999
 30
0.0
 10
255.62010000000001
 20
174.05959999999999
 30
0.0
 10
255.7115
 20
173.90690000000001
 30
0.0
 10
255.90989999999999
 20
173.8468
 30
0.0
 10
256.07100000000003
 20
173.9222
 30
0.0
 10
256.07100000000003
 20
173.9222
 30
0.0
 10
256.07100000000003
 20
173.9222
 30
0.0
 10
256.6173
 20
174.17789999999999
 30
0.0
 10
256.6173
 20
174.17789999999999
 30
0.0
 10
256.6173
 20
174.17789999999999
 30
0.0
 10
256.86470000000003
 20
174.29499999999999
 30
0.0
 10
257.02010000000001
 20
174.54329999999999
 30
0.0
 10
257.02339999999998
 20
174.816
 30
0.0
 10
257.02339999999998
 20
174.816
 30
0.0
 10
257.02339999999998
 20
174.816
 30
0.0
 10
257.02339999999998
 20
179.68549999999999
 30
0.0
 10
257.02339999999998
 20
179.68549999999999
 30
0.0
 10
257.02339999999998
 20
179.68549999999999
 30
0.0
 10
257.02339999999998
 20
179.68549999999999
 30
0.0
 10
257.09530000000001
 20
180.23249999999999
 30
0.0
 10
257.09530000000001
 20
180.23249999999999
 30
0.0
 10
257.09530000000001
 20
180.23249999999999
 30
0.0
 10
257.79050000000001
 20
182.8784
 30
0.0
 10
257.67739999999998
 20
185.6643
 30
0.0
 10
256.76749999999998
 20
188.2448
 30
0.0
 10
256.76749999999998
 20
188.2448
 30
0.0
 10
256.4658
 20
189.07749999999999
 30
0.0
 10
255.6636
 20
189.64259999999999
 30
0.0
 10
254.77770000000001
 20
189.64599999999999
 30
0.0
 10
254.77770000000001
 20
189.64599999999999
 30
0.0
 10
254.77770000000001
 20
189.64599999999999
 30
0.0
 10
252.24770000000001
 20
189.64599999999999
 30
0.0
 10
252.24770000000001
 20
189.64599999999999
 30
0.0
 10
252.24770000000001
 20
189.64599999999999
 30
0.0
 10
250.8844
 20
189.63929999999999
 30
0.0
 10
249.87629999999999
 20
188.33439999999999
 30
0.0
 10
250.19900000000001
 20
187.01400000000001
 30
0.0
 10
250.19900000000001
 20
187.01400000000001
 30
0.0
 10
250.48220000000001
 20
185.8544
 30
0.0
 10
250.61879999999999
 20
184.67959999999999
 30
0.0
 10
250.608
 20
183.4862
 30
0.0
 10
250.608
 20
183.4862
 30
0.0
 10
250.5651
 20
181.78399999999999
 30
0.0
 10
250.0855
 20
180.1489
 30
0.0
 10
249.20189999999999
 20
178.6934
 30
0.0
 10
249.20189999999999
 20
178.6934
 30
0.0
 10
247.59020000000001
 20
176.03620000000001
 30
0.0
 10
246.75790000000001
 20
173.1103
 30
0.0
 10
246.73159999999999
 20
170.0027
 30
0.0
 10
246.73159999999999
 20
170.0027
 30
0.0
 10
246.73159999999999
 20
170.0027
 30
0.0
 10
246.73159999999999
 20
164.71260000000001
 30
0.0
 10
246.73159999999999
 20
164.71260000000001
 30
0.0
 10
246.73159999999999
 20
164.71260000000001
 30
0.0
 10
246.41239999999999
 20
164.38079999999999
 30
0.0
 10
246.27500000000001
 20
163.91249999999999
 30
0.0
 10
246.3605
 20
163.4606
 30
0.0
 10
246.3605
 20
163.4606
 30
0.0
 10
246.8904
 20
160.68530000000001
 30
0.0
 10
247.202
 20
157.88829999999999
 30
0.0
 10
247.29669999999999
 20
155.0643
 30
0.0
 10
247.29669999999999
 20
155.0643
 30
0.0
 10
247.29669999999999
 20
155.0643
 30
0.0
 10
253.9315
 20
155.0643
 30
0.0
 10
253.9315
 20
155.0643
 30
0.0
 10
253.9315
 20
155.0643
 30
0.0
 10
253.9315
 20
155.0643
 30
0.0
 10
253.9315
 20
152.17580000000001
 30
0.0
 10
253.9315
 20
152.17580000000001
 30
0.0
 10
253.9315
 20
152.17580000000001
 30
0.0
 10
253.9315
 20
152.17580000000001
 30
0.0
 10
247.29669999999999
 20
152.17580000000001
 30
0.0
 10
247.29669999999999
 20
152.17580000000001
 30
0.0
 10
247.29669999999999
 20
152.17580000000001
 30
0.0
 10
247.202
 20
149.3519
 30
0.0
 10
246.8904
 20
146.55500000000001
 30
0.0
 10
246.3605
 20
143.77950000000001
 30
0.0
 10
246.3605
 20
143.77950000000001
 30
0.0
 10
246.2748
 20
143.3271
 30
0.0
 10
246.41300000000001
 20
142.86019999999999
 30
0.0
 10
246.73159999999999
 20
142.5275
 30
0.0
 10
246.73159999999999
 20
142.5275
 30
0.0
 10
246.73159999999999
 20
142.5275
 30
0.0
 10
246.73159999999999
 20
137.23759999999999
 30
0.0
 10
246.73159999999999
 20
137.23759999999999
 30
0.0
 10
246.73159999999999
 20
137.23759999999999
 30
0.0
 10
246.75790000000001
 20
134.13030000000001
 30
0.0
 10
247.59
 20
131.20349999999999
 30
0.0
 10
249.20189999999999
 20
128.54669999999999
 30
0.0
 10
249.20189999999999
 20
128.54669999999999
 30
0.0
 10
250.0855
 20
127.0915
 30
0.0
 10
250.5651
 20
125.45610000000001
 30
0.0
 10
250.608
 20
123.75409999999999
 30
0.0
 10
250.608
 20
123.75409999999999
 30
0.0
 10
250.61879999999999
 20
122.56059999999999
 30
0.0
 10
250.4821
 20
121.3858
 30
0.0
 10
250.19900000000001
 20
120.22620000000001
 30
0.0
 10
250.19900000000001
 20
120.22620000000001
 30
0.0
 10
249.8749
 20
118.9036
 30
0.0
 10
250.88560000000001
 20
117.604
 30
0.0
 10
252.24770000000001
 20
117.5941
 30
0.0
 10
252.24770000000001
 20
117.5941
 30
0.0
 10
252.24770000000001
 20
117.5941
 30
0.0
 10
254.77770000000001
 20
117.5941
 30
0.0
 10
254.77770000000001
 20
117.5941
 30
0.0
 10
254.77770000000001
 20
117.5941
 30
0.0
 10
255.6636
 20
117.59739999999999
 30
0.0
 10
256.4658
 20
118.16289999999999
 30
0.0
 10
256.76749999999998
 20
118.9956
 30
0.0
 10
256.76749999999998
 20
118.9956
 30
0.0
 10
257.6773
 20
121.5759
 30
0.0
 10
257.79050000000001
 20
124.3617
 30
0.0
 10
257.09530000000001
 20
127.0077
 30
0.0
 10
257.09530000000001
 20
127.0077
 30
0.0
 10
257.09530000000001
 20
127.0077
 30
0.0
 10
257.02339999999998
 20
127.5547
 30
0.0
 10
257.02339999999998
 20
127.5547
 30
0.0
 10
257.02339999999998
 20
127.5547
 30
0.0
 10
257.02339999999998
 20
127.5547
 30
0.0
 10
257.02339999999998
 20
132.42420000000001
 30
0.0
 10
257.02339999999998
 20
132.42420000000001
 30
0.0
 10
257.02339999999998
 20
132.42420000000001
 30
0.0
 10
257.02010000000001
 20
132.6979
 30
0.0
 10
256.86430000000001
 20
132.94390000000001
 30
0.0
 10
256.6173
 20
133.0625
 30
0.0
 10
256.6173
 20
133.0625
 30
0.0
 10
256.6173
 20
133.0625
 30
0.0
 10
256.07100000000003
 20
133.31800000000001
 30
0.0
 10
256.07100000000003
 20
133.31800000000001
 30
0.0
 10
256.07100000000003
 20
133.31800000000001
 30
0.0
 10
255.90989999999999
 20
133.39340000000001
 30
0.0
 10
255.7115
 20
133.33330000000001
 30
0.0
 10
255.62010000000001
 20
133.1807
 30
0.0
 10
255.62010000000001
 20
133.1807
 30
0.0
 10
255.01130000000001
 20
132.18049999999999
 30
0.0
 10
253.56110000000001
 20
133.29570000000001
 30
0.0
 10
254.3552
 20
134.1387
 30
0.0
 10
254.3552
 20
134.1387
 30
0.0
 10
254.7133
 20
134.51859999999999
 30
0.0
 10
255.34950000000001
 20
134.44739999999999
 30
0.0
 10
255.62010000000001
 20
134.00309999999999
 30
0.0
 10
255.62010000000001
 20
134.00309999999999
 30
0.0
 10
255.71299999999999
 20
133.85140000000001
 30
0.0
 10
255.90880000000001
 20
133.78970000000001
 30
0.0
 10
256.07100000000003
 20
133.8657
 30
0.0
 10
256.07100000000003
 20
133.8657
 30
0.0
 10
256.07100000000003
 20
133.8657
 30
0.0
 10
256.6173
 20
134.12119999999999
 30
0.0
 10
256.6173
 20
134.12119999999999
 30
0.0
 10
256.6173
 20
134.12119999999999
 30
0.0
 10
256.86430000000001
 20
134.2398
 30
0.0
 10
257.02010000000001
 20
134.48580000000001
 30
0.0
 10
257.02339999999998
 20
134.7594
 30
0.0
 10
257.02339999999998
 20
134.7594
 30
0.0
 10
257.02339999999998
 20
134.7594
 30
0.0
 10
257.02339999999998
 20
139.28370000000001
 30
0.0
 10
257.02339999999998
 20
139.28370000000001
 30
0.0
 10
257.02339999999998
 20
139.28370000000001
 30
0.0
 10
257.02339999999998
 20
139.28370000000001
 30
0.0
 10
252.76130000000001
 20
139.28370000000001
 30
0.0
 10
252.76130000000001
 20
139.28370000000001
 30
0.0
 10
252.76130000000001
 20
139.28370000000001
 30
0.0
 10
252.76130000000001
 20
139.28370000000001
 30
0.0
 10
252.76130000000001
 20
142.17230000000001
 30
0.0
 10
252.76130000000001
 20
142.17230000000001
 30
0.0
 10
252.76130000000001
 20
142.17230000000001
 30
0.0
 10
252.76130000000001
 20
142.17230000000001
 30
0.0
 10
257.11689999999999
 20
142.17230000000001
 30
0.0
 10
257.11689999999999
 20
142.17230000000001
 30
0.0
 10
257.11689999999999
 20
142.17230000000001
 30
0.0
 10
261.68189999999998
 20
149.24090000000001
 30
0.0
 10
261.68189999999998
 20
157.99930000000001
 30
0.0
 10
257.11689999999999
 20
165.06800000000001
 30
0.0
 10
257.11689999999999
 20
165.06800000000001
 30
0.0
 10
257.11689999999999
 20
165.06800000000001
 30
0.0
 10
252.76130000000001
 20
165.06800000000001
 30
0.0
 10
252.76130000000001
 20
165.06800000000001
 30
0.0
 10
252.76130000000001
 20
165.06800000000001
 30
0.0
 10
252.76130000000001
 20
165.06800000000001
 30
0.0
 10
252.76130000000001
 20
167.9564
 30
0.0
 10
252.76130000000001
 20
167.9564
 30
0.0
 10
252.76130000000001
 20
167.9564
 30
0.0
 10
252.76130000000001
 20
167.9564
 30
0.0
 10
257.02339999999998
 20
167.9564
 30
0.0
 10
257.02339999999998
 20
167.9564
 30
0.0
 10
257.02339999999998
 20
167.9564
 30
0.0
 10
257.02339999999998
 20
167.9564
 30
0.0
 10
257.02339999999998
 20
172.48089999999999
 30
0.0
 10
257.02339999999998
 20
172.48089999999999
 30
0.0
 10
257.02339999999998
 20
172.48089999999999
 30
0.0
 10
257.02010000000001
 20
172.7535
 30
0.0
 10
256.86470000000003
 20
173.00190000000001
 30
0.0
 10
256.6173
 20
173.1189
 30
0.0
 10
256.6173
 20
173.1189
 30
0.0
 10
256.6173
 20
173.1189
 30
0.0
 10
256.07100000000003
 20
173.37450000000001
 30
0.0
 10
256.07100000000003
 20
173.37450000000001
 30
0.0
  0
ENDSEC
  0
SECTION
  2
OBJECTS
  0
DICTIONARY
  5
19
100
AcDbDictionary
280
     0
281
     1
  3
ACAD_GROUP
350
1A
  3
ACAD_MLINESTYLE
350
1B
  3
ACAD_LAYOUT
350
1E
  3
ACAD_PLOTSETTINGS
350
22
  3
ACAD_PLOTSTYLENAME
350
1F
  3
ACAD_WIPEOUT_VARS
350
23
  0
DICTIONARY
  5
1A
102
{ACAD_REACTORS
330
19
102
}
100
AcDbDictionary
280
     0
281
     1
  0
DICTIONARY
  5
1B
102
{ACAD_REACTORS
330
19
102
}
100
AcDbDictionary
280
     0
281
     1
  3
Standard
350
1C
  0
MLINESTYLE
  5
1C
102
{ACAD_REACTORS
330
1B
102
}
100
AcDbMlineStyle
  2
Standard
 70
     0
  3

 62
     0
 51
90.0
 52
90.0
 71
     2
 49
0.5
 62
   256
  6
BYLAYER
 49
-0.5
 62
   256
  6
BYLAYER
  0
ACDBDICTIONARYWDFLT
  5
1F
102
{ACAD_REACTORS
330
19
102
}
100
AcDbDictionary
281
     1
  3
Normal
350
1D
100
AcDbDictionaryWithDefault
340
1D
  0
ACDBPLACEHOLDER
  5
1D
102
{ACAD_REACTORS
330
1F
102
}
  0
LAYOUT
  5
20
102
{ACAD_REACTORS
330
1E
102
}
100
AcDbPlotSettings
  1

  2

  4

  6

 40
0.0
 41
0.0
 42
0.0
 43
0.0
 44
0.0
 45
0.0
 46
0.0
 47
0.0
 48
0.0
 49
0.0
140
0.0
141
0.0
142
1.0
143
1.0
 70
  1024
 72
     0
 73
     0
 74
     0
  7

 75
     0
147
1.0
148
0.0
149
0.0
100
AcDbLayout
  1
Model
 70
     0
 71
     0
 10
0.0
 20
0.0
 11
0.0
 21
0.0
 12
0.0
 22
0.0
 32
0.0
 14
0.0
 24
0.0
 34
0.0
 15
0.0
 25
0.0
 35
0.0
146
0.0
 13
0.0
 23
0.0
 33
0.0
 16
0.0
 26
0.0
 36
0.0
 17
0.0
 27
0.0
 37
0.0
 76
     0
330
A
331
0
345
0
346
0
  0
LAYOUT
  5
21
102
{ACAD_REACTORS
330
1E
102
}
100
AcDbPlotSettings
  1

  2

  4

  6

 40
0.0
 41
0.0
 42
0.0
 43
0.0
 44
0.0
 45
0.0
 46
0.0
 47
0.0
 48
0.0
 49
0.0
140
0.0
141
0.0
142
1.0
143
1.0
 70
     0
 72
     0
 73
     0
 74
     0
  7

 75
     0
147
1.0
148
0.0
149
0.0
100
AcDbLayout
  1
Layout1
 70
     0
 71
     0
 10
0.0
 20
0.0
 11
0.0
 21
0.0
 12
0.0
 22
0.0
 32
0.0
 14
0.0
 24
0.0
 34
0.0
 15
0.0
 25
0.0
 35
0.0
146
0.0
 13
0.0
 23
0.0
 33
0.0
 16
0.0
 26
0.0
 36
0.0
 17
0.0
 27
0.0
 37
0.0
 76
     0
330
B
331
0
345
0
346
0
  0
DICTIONARY
  5
1E
102
{ACAD_REACTORS
330
19
102
}
100
AcDbDictionary
280
     0
281
     1
  3
Layout1
350
21
  3
Model
350
20
  0
DICTIONARY
  5
22
102
{ACAD_REACTORS
330
19
102
}
100
AcDbDictionary
280
     0
281
     1
  0
WIPEOUTVARIABLES
  5
23
100
AcDbWipeoutVariables
 70
     1
  0
ENDSEC
  0
EOF
