  0
SECTION
  2
HEADER
  9
$ACADVER
  1
AC1009
  9
$EXTMIN
 10
0.14650739
 20
0.16447661
 30
0.0
  9
$EXTMAX
 10
6.75754872
 20
7.91299349
 30
0.0
  0
ENDSEC
  0
SECTION
  2
ENTITIES
  0
POLYLINE
  8
0
 66
   1
 70
    1
  0
VERTEX
  8
0
 10
6.56583018
 20
0.54899894
  0
VERTEX
  8
0
 10
6.57959015
 20
2.86131720
  0
VERTEX
  8
0
 10
6.58328002
 20
3.58735361
  0
VERTEX
  8
0
 10
6.58494204
 20
4.08520928
  0
VERTEX
  8
0
 10
6.58465039
 20
4.39881002
  0
VERTEX
  8
0
 10
6.58379512
 20
4.50024159
  0
VERTEX
  8
0
 10
6.58247924
 20
4.57208161
  0
VERTEX
  8
0
 10
6.58071203
 20
4.61982080
  0
VERTEX
  8
0
 10
6.57850276
 20
4.64894987
  0
VERTEX
  8
0
 10
6.57586070
 20
4.66495957
  0
VERTEX
  8
0
 10
6.57279512
 20
4.67334061
  0
VERTEX
  8
0
 10
6.56458611
 20
4.68838412
  0
VERTEX
  8
0
 10
6.55554165
 20
4.70309058
  0
VERTEX
  8
0
 10
6.54569112
 20
4.71743461
  0
VERTEX
  8
0
 10
6.53506389
 20
4.73139079
  0
VERTEX
  8
0
 10
6.52368932
 20
4.74493376
  0
VERTEX
  8
0
 10
6.51159679
 20
4.75803810
  0
VERTEX
  8
0
 10
6.49881565
 20
4.77067843
  0
VERTEX
  8
0
 10
6.48537529
 20
4.78282936
  0
VERTEX
  8
0
 10
6.47130507
 20
4.79446550
  0
VERTEX
  8
0
 10
6.45663436
 20
4.80556145
  0
VERTEX
  8
0
 10
6.44139253
 20
4.81609182
  0
VERTEX
  8
0
 10
6.42560894
 20
4.82603121
  0
VERTEX
  8
0
 10
6.40931298
 20
4.83535425
  0
VERTEX
  8
0
 10
6.39253400
 20
4.84403553
  0
VERTEX
  8
0
 10
6.37530137
 20
4.85204966
  0
VERTEX
  8
0
 10
6.35764447
 20
4.85937125
  0
VERTEX
  8
0
 10
6.33590555
 20
4.86650869
  0
VERTEX
  8
0
 10
6.30709622
 20
4.87369059
  0
VERTEX
  8
0
 10
6.27103644
 20
4.88094520
  0
VERTEX
  8
0
 10
6.22754618
 20
4.88830075
  0
VERTEX
  8
0
 10
6.17644542
 20
4.89578549
  0
VERTEX
  8
0
 10
6.11755412
 20
4.90342766
  0
VERTEX
  8
0
 10
5.97567981
 20
4.91929723
  0
VERTEX
  8
0
 10
5.87600854
 20
4.92835804
  0
VERTEX
  8
0
 10
5.84259185
 20
4.93034876
  0
VERTEX
  8
0
 10
5.82053013
 20
4.93065956
  0
VERTEX
  8
0
 10
5.81385325
 20
4.93018809
  0
VERTEX
  8
0
 10
5.81013014
 20
4.92930036
  0
VERTEX
  8
0
 10
5.80939915
 20
4.92799760
  0
VERTEX
  8
0
 10
5.81169863
 20
4.92628105
  0
VERTEX
  8
0
 10
5.82554237
 20
4.92161156
  0
VERTEX
  8
0
 10
5.85196810
 20
4.91530179
  0
VERTEX
  8
0
 10
5.89439147
 20
4.90508304
  0
VERTEX
  8
0
 10
5.93764451
 20
4.89273556
  0
VERTEX
  8
0
 10
5.98142573
 20
4.87842163
  0
VERTEX
  8
0
 10
6.02543362
 20
4.86230353
  0
VERTEX
  8
0
 10
6.06936669
 20
4.84454356
  0
VERTEX
  8
0
 10
6.11292345
 20
4.82530398
  0
VERTEX
  8
0
 10
6.15580240
 20
4.80474709
  0
VERTEX
  8
0
 10
6.19770204
 20
4.78303517
  0
VERTEX
  8
0
 10
6.23832088
 20
4.76033051
  0
VERTEX
  8
0
 10
6.27735741
 20
4.73679539
  0
VERTEX
  8
0
 10
6.31451015
 20
4.71259209
  0
VERTEX
  8
0
 10
6.34947760
 20
4.68788291
  0
VERTEX
  8
0
 10
6.38195826
 20
4.66283011
  0
VERTEX
  8
0
 10
6.41165063
 20
4.63759599
  0
VERTEX
  8
0
 10
6.43825323
 20
4.61234283
  0
VERTEX
  8
0
 10
6.46146454
 20
4.58723292
  0
VERTEX
  8
0
 10
6.50047879
 20
4.54171661
  0
VERTEX
  8
0
 10
6.50054169
 20
3.88149904
  0
VERTEX
  8
0
 10
6.50018586
 20
3.62514892
  0
VERTEX
  8
0
 10
6.49917144
 20
3.41522035
  0
VERTEX
  8
0
 10
6.49765423
 20
3.27337673
  0
VERTEX
  8
0
 10
6.49675577
 20
3.23475658
  0
VERTEX
  8
0
 10
6.49579004
 20
3.22128143
  0
VERTEX
  8
0
 10
6.48706497
 20
3.22508834
  0
VERTEX
  8
0
 10
6.46686708
 20
3.23545368
  0
VERTEX
  8
0
 10
6.40408799
 20
3.26952734
  0
VERTEX
  8
0
 10
6.36815163
 20
3.28891292
  0
VERTEX
  8
0
 10
6.33080037
 20
3.30795809
  0
VERTEX
  8
0
 10
6.29212001
 20
3.32663182
  0
VERTEX
  8
0
 10
6.25219638
 20
3.34490308
  0
VERTEX
  8
0
 10
6.21111529
 20
3.36274083
  0
VERTEX
  8
0
 10
6.16896257
 20
3.38011405
  0
VERTEX
  8
0
 10
6.12582403
 20
3.39699169
  0
VERTEX
  8
0
 10
6.08178548
 20
3.41334273
  0
VERTEX
  8
0
 10
6.03693275
 20
3.42913613
  0
VERTEX
  8
0
 10
5.99135166
 20
3.44434087
  0
VERTEX
  8
0
 10
5.94512801
 20
3.45892590
  0
VERTEX
  8
0
 10
5.89834763
 20
3.47286019
  0
VERTEX
  8
0
 10
5.85109633
 20
3.48611272
  0
VERTEX
  8
0
 10
5.80345994
 20
3.49865244
  0
VERTEX
  8
0
 10
5.75552427
 20
3.51044833
  0
VERTEX
  8
0
 10
5.70737513
 20
3.52146935
  0
VERTEX
  8
0
 10
5.66280137
 20
3.53055200
  0
VERTEX
  8
0
 10
5.60994621
 20
3.54015860
  0
VERTEX
  8
0
 10
5.49371106
 20
3.55881857
  0
VERTEX
  8
0
 10
5.43749076
 20
3.56680942
  0
VERTEX
  8
0
 10
5.38730844
 20
3.57319916
  0
VERTEX
  8
0
 10
5.34674393
 20
3.57745654
  0
VERTEX
  8
0
 10
5.31937710
 20
3.57905029
  0
VERTEX
  8
0
 10
5.28446150
 20
3.57920159
  0
VERTEX
  8
0
 10
5.24423514
 20
3.43651719
  0
VERTEX
  8
0
 10
5.21587590
 20
3.33361517
  0
VERTEX
  8
0
 10
5.20728822
 20
3.30065341
  0
VERTEX
  8
0
 10
5.20418098
 20
3.28657768
  0
VERTEX
  8
0
 10
5.20506059
 20
3.28512027
  0
VERTEX
  8
0
 10
5.20751464
 20
3.28376064
  0
VERTEX
  8
0
 10
5.21646405
 20
3.28145373
  0
VERTEX
  8
0
 10
5.22966515
 20
3.27989501
  0
VERTEX
  8
0
 10
5.24575389
 20
3.27932253
  0
VERTEX
  8
0
 10
5.27415290
 20
3.27816201
  0
VERTEX
  8
0
 10
5.31331431
 20
3.27490451
  0
VERTEX
  8
0
 10
5.36062573
 20
3.26988614
  0
VERTEX
  8
0
 10
5.41347480
 20
3.26344299
  0
VERTEX
  8
0
 10
5.52533637
 20
3.24762673
  0
VERTEX
  8
0
 10
5.57912414
 20
3.23892582
  0
VERTEX
  8
0
 10
5.62800006
 20
3.23014452
  0
VERTEX
  8
0
 10
5.68145160
 20
3.21946825
  0
VERTEX
  8
0
 10
5.73487136
 20
3.20789588
  0
VERTEX
  8
0
 10
5.78815499
 20
3.19546152
  0
VERTEX
  8
0
 10
5.84119815
 20
3.18219930
  0
VERTEX
  8
0
 10
5.89389648
 20
3.16814332
  0
VERTEX
  8
0
 10
5.94614563
 20
3.15332770
  0
VERTEX
  8
0
 10
5.99784124
 20
3.13778656
  0
VERTEX
  8
0
 10
6.04887898
 20
3.12155400
  0
VERTEX
  8
0
 10
6.09915448
 20
3.10466414
  0
VERTEX
  8
0
 10
6.14856341
 20
3.08715111
  0
VERTEX
  8
0
 10
6.19700140
 20
3.06904900
  0
VERTEX
  8
0
 10
6.24436410
 20
3.05039194
  0
VERTEX
  8
0
 10
6.29054717
 20
3.03121404
  0
VERTEX
  8
0
 10
6.33544626
 20
3.01154942
  0
VERTEX
  8
0
 10
6.37895701
 20
2.99143218
  0
VERTEX
  8
0
 10
6.42097507
 20
2.97089645
  0
VERTEX
  8
0
 10
6.49782923
 20
2.93225530
  0
VERTEX
  8
0
 10
6.50358497
 20
1.96673220
  0
VERTEX
  8
0
 10
6.50686164
 20
1.53572234
  0
VERTEX
  8
0
 10
6.51120867
 20
1.16556181
  0
VERTEX
  8
0
 10
6.51665939
 20
0.85521565
  0
VERTEX
  8
0
 10
6.52324712
 20
0.60364888
  0
VERTEX
  8
0
 10
6.52697779
 20
0.49958435
  0
VERTEX
  8
0
 10
6.53100520
 20
0.40982656
  0
VERTEX
  8
0
 10
6.53533353
 20
0.33424614
  0
VERTEX
  8
0
 10
6.53996695
 20
0.27271372
  0
VERTEX
  8
0
 10
6.54490962
 20
0.22509992
  0
VERTEX
  8
0
 10
6.55016570
 20
0.19127539
  0
VERTEX
  8
0
 10
6.55291257
 20
0.17949366
  0
VERTEX
  8
0
 10
6.55573936
 20
0.17111074
  0
VERTEX
  8
0
 10
6.55864659
 20
0.16611045
  0
VERTEX
  8
0
 10
6.56163477
 20
0.16447661
  0
VERTEX
  8
0
 10
6.56253721
 20
0.19482614
  0
VERTEX
  8
0
 10
6.56362910
 20
0.27744113
  0
VERTEX
  8
0
 10
6.56583018
 20
0.54899894
  0
SEQEND
  0
POLYLINE
  8
0
 66
   1
 70
    1
  0
VERTEX
  8
0
 10
4.14424588
 20
0.76904468
  0
VERTEX
  8
0
 10
4.27391360
 20
1.09794427
  0
VERTEX
  8
0
 10
4.31118953
 20
1.19467944
  0
VERTEX
  8
0
 10
4.42161662
 20
1.19250553
  0
VERTEX
  8
0
 10
4.46876091
 20
1.19117608
  0
VERTEX
  8
0
 10
4.51830347
 20
1.18894033
  0
VERTEX
  8
0
 10
4.57162367
 20
1.18568647
  0
VERTEX
  8
0
 10
4.63010087
 20
1.18130270
  0
VERTEX
  8
0
 10
4.76804379
 20
1.16869825
  0
VERTEX
  8
0
 10
4.94316721
 20
1.15023254
  0
VERTEX
  8
0
 10
5.05616580
 20
1.13722037
  0
VERTEX
  8
0
 10
5.16594848
 20
1.12338009
  0
VERTEX
  8
0
 10
5.27245210
 20
1.10872536
  0
VERTEX
  8
0
 10
5.37561351
 20
1.09326983
  0
VERTEX
  8
0
 10
5.47536954
 20
1.07702717
  0
VERTEX
  8
0
 10
5.57165704
 20
1.06001104
  0
VERTEX
  8
0
 10
5.66441284
 20
1.04223509
  0
VERTEX
  8
0
 10
5.75357380
 20
1.02371299
  0
VERTEX
  8
0
 10
5.83907675
 20
1.00445840
  0
VERTEX
  8
0
 10
5.92085853
 20
0.98448498
  0
VERTEX
  8
0
 10
5.99885600
 20
0.96380638
  0
VERTEX
  8
0
 10
6.07300598
 20
0.94243627
  0
VERTEX
  8
0
 10
6.14324532
 20
0.92038831
  0
VERTEX
  8
0
 10
6.20951086
 20
0.89767616
  0
VERTEX
  8
0
 10
6.27173945
 20
0.87431348
  0
VERTEX
  8
0
 10
6.32986793
 20
0.85031393
  0
VERTEX
  8
0
 10
6.41803527
 20
0.81257551
  0
VERTEX
  8
0
 10
6.41783886
 20
0.82840949
  0
VERTEX
  8
0
 10
6.41480451
 20
0.87019115
  0
VERTEX
  8
0
 10
6.40348172
 20
0.99727576
  0
VERTEX
  8
0
 10
6.39058637
 20
1.12518588
  0
VERTEX
  8
0
 10
6.38558633
 20
1.16799942
  0
VERTEX
  8
0
 10
6.38263795
 20
1.18527804
  0
VERTEX
  8
0
 10
6.37647523
 20
1.18922909
  0
VERTEX
  8
0
 10
6.36385753
 20
1.19548600
  0
VERTEX
  8
0
 10
6.32194931
 20
1.21386941
  0
VERTEX
  8
0
 10
6.26229757
 20
1.23833229
  0
VERTEX
  8
0
 10
6.19028657
 20
1.26677864
  0
VERTEX
  8
0
 10
6.11130056
 20
1.29711246
  0
VERTEX
  8
0
 10
6.03072383
 20
1.32723776
  0
VERTEX
  8
0
 10
5.95394062
 20
1.35505854
  0
VERTEX
  8
0
 10
5.88633521
 20
1.37847880
  0
VERTEX
  8
0
 10
5.76240633
 20
1.41879879
  0
VERTEX
  8
0
 10
5.64335856
 20
1.45501839
  0
VERTEX
  8
0
 10
5.52882237
 20
1.48722742
  0
VERTEX
  8
0
 10
5.41842825
 20
1.51551568
  0
VERTEX
  8
0
 10
5.31180665
 20
1.53997299
  0
VERTEX
  8
0
 10
5.20858807
 20
1.56068915
  0
VERTEX
  8
0
 10
5.15813944
 20
1.56967237
  0
VERTEX
  8
0
 10
5.10840298
 20
1.57775398
  0
VERTEX
  8
0
 10
5.05933252
 20
1.58494522
  0
VERTEX
  8
0
 10
5.01088185
 20
1.59125730
  0
VERTEX
  8
0
 10
4.95442859
 20
1.59711171
  0
VERTEX
  8
0
 10
4.89219845
 20
1.60176117
  0
VERTEX
  8
0
 10
4.82655663
 20
1.60515517
  0
VERTEX
  8
0
 10
4.75986832
 20
1.60724321
  0
VERTEX
  8
0
 10
4.69449873
 20
1.60797479
  0
VERTEX
  8
0
 10
4.63281305
 20
1.60729941
  0
VERTEX
  8
0
 10
4.57717647
 20
1.60516656
  0
VERTEX
  8
0
 10
4.52995420
 20
1.60152574
  0
VERTEX
  8
0
 10
4.46015107
 20
1.59423309
  0
VERTEX
  8
0
 10
4.48996873
 20
1.67498826
  0
VERTEX
  8
0
 10
4.62976831
 20
2.05816561
  0
VERTEX
  8
0
 10
4.76362638
 20
2.43220760
  0
VERTEX
  8
0
 10
4.81945717
 20
2.59076377
  0
VERTEX
  8
0
 10
4.86315839
 20
2.71698920
  0
VERTEX
  8
0
 10
4.89118195
 20
2.80086826
  0
VERTEX
  8
0
 10
4.89820584
 20
2.82379802
  0
VERTEX
  8
0
 10
4.89997979
 20
2.83238533
  0
VERTEX
  8
0
 10
4.89717992
 20
2.83141099
  0
VERTEX
  8
0
 10
4.89079525
 20
2.82697826
  0
VERTEX
  8
0
 10
4.86890968
 20
2.80913354
  0
VERTEX
  8
0
 10
4.83759932
 20
2.78164309
  0
VERTEX
  8
0
 10
4.80014040
 20
2.74729880
  0
VERTEX
  8
0
 10
4.70452445
 20
2.65798834
  0
VERTEX
  8
0
 10
4.62959627
 20
2.42935688
  0
VERTEX
  8
0
 10
4.42824937
 20
1.81708295
  0
VERTEX
  8
0
 10
4.38234128
 20
1.67989231
  0
VERTEX
  8
0
 10
4.37092744
 20
1.64704594
  0
VERTEX
  8
0
 10
4.36638758
 20
1.63556075
  0
VERTEX
  8
0
 10
4.36390392
 20
1.63640919
  0
VERTEX
  8
0
 10
4.35825000
 20
1.64043322
  0
VERTEX
  8
0
 10
4.33888083
 20
1.65673122
  0
VERTEX
  8
0
 10
4.31117894
 20
1.68190098
  0
VERTEX
  8
0
 10
4.27804324
 20
1.71338876
  0
VERTEX
  8
0
 10
4.23983640
 20
1.74958001
  0
VERTEX
  8
0
 10
4.19775441
 20
1.78807877
  0
VERTEX
  8
0
 10
4.11226101
 20
1.86319480
  0
VERTEX
  8
0
 10
4.07399766
 20
1.89541006
  0
VERTEX
  8
0
 10
4.04215522
 20
1.92112880
  0
VERTEX
  8
0
 10
4.01930773
 20
1.93815001
  0
VERTEX
  8
0
 10
4.01206148
 20
1.94271123
  0
VERTEX
  8
0
 10
4.00802921
 20
1.94427269
  0
VERTEX
  8
0
 10
4.00005771
 20
1.94084230
  0
VERTEX
  8
0
 10
3.98428956
 20
1.93157921
  0
VERTEX
  8
0
 10
3.93848919
 20
1.90120726
  0
VERTEX
  8
0
 10
3.91199995
 20
1.88392997
  0
VERTEX
  8
0
 10
3.88240129
 20
1.86674541
  0
VERTEX
  8
0
 10
3.85081868
 20
1.85016410
  0
VERTEX
  8
0
 10
3.81837762
 20
1.83469661
  0
VERTEX
  8
0
 10
3.78620358
 20
1.82085347
  0
VERTEX
  8
0
 10
3.75542207
 20
1.80914522
  0
VERTEX
  8
0
 10
3.72715856
 20
1.80008242
  0
VERTEX
  8
0
 10
3.70253855
 20
1.79417561
  0
VERTEX
  8
0
 10
3.68846288
 20
1.79107572
  0
VERTEX
  8
0
 10
3.67695416
 20
1.78760902
  0
VERTEX
  8
0
 10
3.66919871
 20
1.78419899
  0
VERTEX
  8
0
 10
3.66709918
 20
1.78264756
  0
VERTEX
  8
0
 10
3.66638284
 20
1.78126910
  0
VERTEX
  8
0
 10
3.66928222
 20
1.77703207
  0
VERTEX
  8
0
 10
3.67708815
 20
1.77006303
  0
VERTEX
  8
0
 10
3.68861035
 20
1.76132901
  0
VERTEX
  8
0
 10
3.70265852
 20
1.75179708
  0
VERTEX
  8
0
 10
3.73591001
 20
1.72950323
  0
VERTEX
  8
0
 10
3.77030868
 20
1.70478783
  0
VERTEX
  8
0
 10
3.80557152
 20
1.67792442
  0
VERTEX
  8
0
 10
3.84141549
 20
1.64918657
  0
VERTEX
  8
0
 10
3.87755757
 20
1.61884784
  0
VERTEX
  8
0
 10
3.91371472
 20
1.58718179
  0
VERTEX
  8
0
 10
3.94960393
 20
1.55446198
  0
VERTEX
  8
0
 10
3.98494217
 20
1.52096197
  0
VERTEX
  8
0
 10
4.01944640
 20
1.48695533
  0
VERTEX
  8
0
 10
4.05283361
 20
1.45271561
  0
VERTEX
  8
0
 10
4.08482076
 20
1.41851638
  0
VERTEX
  8
0
 10
4.11512483
 20
1.38463119
  0
VERTEX
  8
0
 10
4.14346280
 20
1.35133362
  0
VERTEX
  8
0
 10
4.16955162
 20
1.31889721
  0
VERTEX
  8
0
 10
4.19310829
 20
1.28759553
  0
VERTEX
  8
0
 10
4.21384976
 20
1.25770214
  0
VERTEX
  8
0
 10
4.23633200
 20
1.22370000
  0
VERTEX
  8
0
 10
4.09156391
 20
0.78086823
  0
VERTEX
  8
0
 10
3.98956961
 20
0.46606595
  0
VERTEX
  8
0
 10
3.95873599
 20
0.36870471
  0
VERTEX
  8
0
 10
3.94764132
 20
0.33104963
  0
VERTEX
  8
0
 10
3.94816845
 20
0.33008740
  0
VERTEX
  8
0
 10
3.94931227
 20
0.33063687
  0
VERTEX
  8
0
 10
3.95334824
 20
0.33604429
  0
VERTEX
  8
0
 10
3.96770144
 20
0.36250666
  0
VERTEX
  8
0
 10
3.98907331
 20
0.40681071
  0
VERTEX
  8
0
 10
4.01583623
 20
0.46533039
  0
VERTEX
  8
0
 10
4.04636256
 20
0.53443967
  0
VERTEX
  8
0
 10
4.07902470
 20
0.61051250
  0
VERTEX
  8
0
 10
4.11219501
 20
0.68992285
  0
VERTEX
  8
0
 10
4.14424588
 20
0.76904468
  0
SEQEND
  0
POLYLINE
  8
0
 66
   1
 70
    1
  0
VERTEX
  8
0
 10
0.41656749
 20
0.68923813
  0
VERTEX
  8
0
 10
0.58870467
 20
0.88733868
  0
VERTEX
  8
0
 10
0.92424637
 20
1.27153382
  0
VERTEX
  8
0
 10
1.83177984
 20
2.30795392
  0
VERTEX
  8
0
 10
1.99487796
 20
2.49394385
  0
VERTEX
  8
0
 10
2.06394429
 20
2.47515402
  0
VERTEX
  8
0
 10
2.16044025
 20
2.44760775
  0
VERTEX
  8
0
 10
2.26515338
 20
2.41537993
  0
VERTEX
  8
0
 10
2.37537600
 20
2.37942024
  0
VERTEX
  8
0
 10
2.48840042
 20
2.34067836
  0
VERTEX
  8
0
 10
2.60151897
 20
2.30010396
  0
VERTEX
  8
0
 10
2.71202397
 20
2.25864673
  0
VERTEX
  8
0
 10
2.81720773
 20
2.21725635
  0
VERTEX
  8
0
 10
2.91436259
 20
2.17688249
  0
VERTEX
  8
0
 10
3.07008011
 20
2.11011521
  0
VERTEX
  8
0
 10
3.09973136
 20
2.13471623
  0
VERTEX
  8
0
 10
3.15437091
 20
2.18355879
  0
VERTEX
  8
0
 10
3.24409992
 20
2.26644282
  0
VERTEX
  8
0
 10
3.28815985
 20
2.30700886
  0
VERTEX
  8
0
 10
3.31942770
 20
2.33690865
  0
VERTEX
  8
0
 10
3.33005600
 20
2.34880582
  0
VERTEX
  8
0
 10
3.33723597
 20
2.35917299
  0
VERTEX
  8
0
 10
3.33950676
 20
2.36390121
  0
VERTEX
  8
0
 10
3.34088418
 20
2.36838899
  0
VERTEX
  8
0
 10
3.34135780
 20
2.37268370
  0
VERTEX
  8
0
 10
3.34091719
 20
2.37683269
  0
VERTEX
  8
0
 10
3.33955192
 20
2.38088332
  0
VERTEX
  8
0
 10
3.33725156
 20
2.38488293
  0
VERTEX
  8
0
 10
3.32980386
 20
2.39291857
  0
VERTEX
  8
0
 10
3.31849066
 20
2.40131846
  0
VERTEX
  8
0
 10
3.30322852
 20
2.41046144
  0
VERTEX
  8
0
 10
3.26052366
 20
2.43249210
  0
VERTEX
  8
0
 10
3.20102181
 20
2.46204137
  0
VERTEX
  8
0
 10
3.10852944
 20
2.50701984
  0
VERTEX
  8
0
 10
3.01304802
 20
2.55031923
  0
VERTEX
  8
0
 10
2.91517579
 20
2.59171232
  0
VERTEX
  8
0
 10
2.81551100
 20
2.63097190
  0
VERTEX
  8
0
 10
2.71465188
 20
2.66787076
  0
VERTEX
  8
0
 10
2.61319670
 20
2.70218167
  0
VERTEX
  8
0
 10
2.51174369
 20
2.73367743
  0
VERTEX
  8
0
 10
2.41089111
 20
2.76213082
  0
VERTEX
  8
0
 10
2.35748718
 20
2.77710990
  0
VERTEX
  8
0
 10
2.31415434
 20
2.79057756
  0
VERTEX
  8
0
 10
2.28533593
 20
2.80105892
  0
VERTEX
  8
0
 10
2.27775818
 20
2.80471884
  0
VERTEX
  8
0
 10
2.27592017
 20
2.80607295
  0
VERTEX
  8
0
 10
2.27547530
 20
2.80707911
  0
VERTEX
  8
0
 10
2.29124447
 20
2.82695873
  0
VERTEX
  8
0
 10
2.33221033
 20
2.87517621
  0
VERTEX
  8
0
 10
2.46487359
 20
3.02767197
  0
VERTEX
  8
0
 10
2.65160662
 20
3.24026979
  0
VERTEX
  8
0
 10
2.61479987
 20
3.27799631
  0
VERTEX
  8
0
 10
2.59792276
 20
3.29395410
  0
VERTEX
  8
0
 10
2.57917914
 20
3.30951483
  0
VERTEX
  8
0
 10
2.56085202
 20
3.32289615
  0
VERTEX
  8
0
 10
2.54522444
 20
3.33231573
  0
VERTEX
  8
0
 10
2.53067282
 20
3.34073135
  0
VERTEX
  8
0
 10
2.51527519
 20
3.35137916
  0
VERTEX
  8
0
 10
2.50086711
 20
3.36289432
  0
VERTEX
  8
0
 10
2.48928413
 20
3.37391194
  0
VERTEX
  8
0
 10
2.47682313
 20
3.38637806
  0
VERTEX
  8
0
 10
2.47207024
 20
3.39000410
  0
VERTEX
  8
0
 10
2.46798058
 20
3.39199226
  0
VERTEX
  8
0
 10
2.46431277
 20
3.39241764
  0
VERTEX
  8
0
 10
2.46082545
 20
3.39135534
  0
VERTEX
  8
0
 10
2.45727722
 20
3.38888046
  0
VERTEX
  8
0
 10
2.45342673
 20
3.38506810
  0
VERTEX
  8
0
 10
2.26420311
 20
3.16082194
  0
VERTEX
  8
0
 10
2.13907908
 20
3.01222840
  0
VERTEX
  8
0
 10
2.08615389
 20
2.95042545
  0
VERTEX
  8
0
 10
2.08493590
 20
3.03496400
  0
VERTEX
  8
0
 10
2.08412905
 20
3.23821260
  0
VERTEX
  8
0
 10
2.08310432
 20
3.36506029
  0
VERTEX
  8
0
 10
2.08059033
 20
3.48490871
  0
VERTEX
  8
0
 10
2.07673337
 20
3.59535780
  0
VERTEX
  8
0
 10
2.07167967
 20
3.69400751
  0
VERTEX
  8
0
 10
2.06557550
 20
3.77845779
  0
VERTEX
  8
0
 10
2.05856712
 20
3.84630858
  0
VERTEX
  8
0
 10
2.05476956
 20
3.87325915
  0
VERTEX
  8
0
 10
2.05080078
 20
3.89515982
  0
VERTEX
  8
0
 10
2.04667909
 20
3.91171060
  0
VERTEX
  8
0
 10
2.04242275
 20
3.92261147
  0
VERTEX
  8
0
 10
2.03841030
 20
3.93114782
  0
VERTEX
  8
0
 10
2.03512865
 20
3.94074934
  0
VERTEX
  8
0
 10
2.03253975
 20
3.95173686
  0
VERTEX
  8
0
 10
2.03060553
 20
3.96443122
  0
VERTEX
  8
0
 10
2.02854897
 20
3.99622379
  0
VERTEX
  8
0
 10
2.02865453
 20
4.03869370
  0
VERTEX
  8
0
 10
2.02830211
 20
4.06480869
  0
VERTEX
  8
0
 10
2.02633849
 20
4.09783670
  0
VERTEX
  8
0
 10
2.02290060
 20
4.13691920
  0
VERTEX
  8
0
 10
2.01812540
 20
4.18119767
  0
VERTEX
  8
0
 10
2.00511088
 20
4.28190838
  0
VERTEX
  8
0
 10
1.98839053
 20
4.39310059
  0
VERTEX
  8
0
 10
1.96905998
 20
4.50790609
  0
VERTEX
  8
0
 10
1.94821483
 20
4.61945664
  0
VERTEX
  8
0
 10
1.92695068
 20
4.72088401
  0
VERTEX
  8
0
 10
1.91650387
 20
4.76565519
  0
VERTEX
  8
0
 10
1.90636316
 20
4.80531998
  0
VERTEX
  8
0
 10
1.90266003
 20
4.81857907
  0
VERTEX
  8
0
 10
1.89928213
 20
4.82863528
  0
VERTEX
  8
0
 10
1.89567017
 20
4.83593543
  0
VERTEX
  8
0
 10
1.89126485
 20
4.84092636
  0
VERTEX
  8
0
 10
1.88550688
 20
4.84405487
  0
VERTEX
  8
0
 10
1.87783698
 20
4.84576780
  0
VERTEX
  8
0
 10
1.86769586
 20
4.84651195
  0
VERTEX
  8
0
 10
1.85452422
 20
4.84673415
  0
VERTEX
  8
0
 10
1.82954619
 20
4.84802175
  0
VERTEX
  8
0
 10
1.79165272
 20
4.85130449
  0
VERTEX
  8
0
 10
1.69770238
 20
4.86186903
  0
VERTEX
  8
0
 10
1.55540364
 20
4.87953752
  0
VERTEX
  8
0
 10
1.51295013
 20
4.88342746
  0
VERTEX
  8
0
 10
1.49762524
 20
4.88403887
  0
VERTEX
  8
0
 10
1.48575032
 20
4.88372410
  0
VERTEX
  8
0
 10
1.47696190
 20
4.88245530
  0
VERTEX
  8
0
 10
1.47089654
 20
4.88020460
  0
VERTEX
  8
0
 10
1.46719076
 20
4.87694416
  0
VERTEX
  8
0
 10
1.46548112
 20
4.87264613
  0
VERTEX
  8
0
 10
1.46540415
 20
4.86728264
  0
VERTEX
  8
0
 10
1.46659641
 20
4.86082585
  0
VERTEX
  8
0
 10
1.47133473
 20
4.84452093
  0
VERTEX
  8
0
 10
1.51561802
 20
4.69153498
  0
VERTEX
  8
0
 10
1.55780590
 20
4.53538134
  0
VERTEX
  8
0
 10
1.59751381
 20
4.37776771
  0
VERTEX
  8
0
 10
1.63435715
 20
4.22040178
  0
VERTEX
  8
0
 10
1.66795137
 20
4.06499127
  0
VERTEX
  8
0
 10
1.69791188
 20
3.91324386
  0
VERTEX
  8
0
 10
1.71140932
 20
3.83927748
  0
VERTEX
  8
0
 10
1.72385411
 20
3.76686726
  0
VERTEX
  8
0
 10
1.73519819
 20
3.69622667
  0
VERTEX
  8
0
 10
1.74539349
 20
3.62756917
  0
VERTEX
  8
0
 10
1.75865292
 20
3.53087293
  0
VERTEX
  8
0
 10
1.76916775
 20
3.44544230
  0
VERTEX
  8
0
 10
1.77716118
 20
3.36777862
  0
VERTEX
  8
0
 10
1.78285640
 20
3.29438322
  0
VERTEX
  8
0
 10
1.78647662
 20
3.22175743
  0
VERTEX
  8
0
 10
1.78824502
 20
3.14640260
  0
VERTEX
  8
0
 10
1.78838480
 20
3.06482005
  0
VERTEX
  8
0
 10
1.78711916
 20
2.97351111
  0
VERTEX
  8
0
 10
1.78458313
 20
2.87939417
  0
VERTEX
  8
0
 10
1.78082440
 20
2.79708291
  0
VERTEX
  8
0
 10
1.77576708
 20
2.72598948
  0
VERTEX
  8
0
 10
1.76933527
 20
2.66552602
  0
VERTEX
  8
0
 10
1.76145309
 20
2.61510466
  0
VERTEX
  8
0
 10
1.75694440
 20
2.59347606
  0
VERTEX
  8
0
 10
1.75204466
 20
2.57413754
  0
VERTEX
  8
0
 10
1.74674438
 20
2.55701562
  0
VERTEX
  8
0
 10
1.74103408
 20
2.54203682
  0
VERTEX
  8
0
 10
1.73490428
 20
2.52912764
  0
VERTEX
  8
0
 10
1.72834548
 20
2.51821462
  0
VERTEX
  8
0
 10
1.70220527
 20
2.48389181
  0
VERTEX
  8
0
 10
1.64653284
 20
2.41317538
  0
VERTEX
  8
0
 10
1.47928102
 20
2.20382526
  0
VERTEX
  8
0
 10
1.37506041
 20
2.07361783
  0
VERTEX
  8
0
 10
1.27524207
 20
1.94766107
  0
VERTEX
  8
0
 10
1.17980804
 20
1.82593017
  0
VERTEX
  8
0
 10
1.08874033
 20
1.70840030
  0
VERTEX
  8
0
 10
1.00202098
 20
1.59504664
  0
VERTEX
  8
0
 10
0.91963200
 20
1.48584436
  0
VERTEX
  8
0
 10
0.84155542
 20
1.38076865
  0
VERTEX
  8
0
 10
0.76777327
 20
1.27979467
  0
VERTEX
  8
0
 10
0.69826757
 20
1.18289762
  0
VERTEX
  8
0
 10
0.63302034
 20
1.09005265
  0
VERTEX
  8
0
 10
0.57201361
 20
1.00123496
  0
VERTEX
  8
0
 10
0.51522940
 20
0.91641972
  0
VERTEX
  8
0
 10
0.46264974
 20
0.83558210
  0
VERTEX
  8
0
 10
0.41425665
 20
0.75869729
  0
VERTEX
  8
0
 10
0.37003215
 20
0.68574045
  0
VERTEX
  8
0
 10
0.32995828
 20
0.61668677
  0
VERTEX
  8
0
 10
0.30892889
 20
0.57740321
  0
VERTEX
  8
0
 10
0.30347868
 20
0.56545302
  0
VERTEX
  8
0
 10
0.30241242
 20
0.56219931
  0
VERTEX
  8
0
 10
0.30260165
 20
0.56106404
  0
VERTEX
  8
0
 10
0.31287583
 20
0.57117778
  0
VERTEX
  8
0
 10
0.33778789
 20
0.59871518
  0
VERTEX
  8
0
 10
0.41656749
 20
0.68923813
  0
SEQEND
  0
POLYLINE
  8
0
 66
   1
 70
    1
  0
VERTEX
  8
0
 10
2.57315574
 20
1.51405393
  0
VERTEX
  8
0
 10
2.60554296
 20
1.52483908
  0
VERTEX
  8
0
 10
2.63846915
 20
1.53697160
  0
VERTEX
  8
0
 10
2.67192231
 20
1.55044217
  0
VERTEX
  8
0
 10
2.70589047
 20
1.56524148
  0
VERTEX
  8
0
 10
2.74036162
 20
1.58136020
  0
VERTEX
  8
0
 10
2.77532379
 20
1.59878903
  0
VERTEX
  8
0
 10
2.81076498
 20
1.61751863
  0
VERTEX
  8
0
 10
2.84667321
 20
1.63753970
  0
VERTEX
  8
0
 10
2.88303650
 20
1.65884292
  0
VERTEX
  8
0
 10
2.91984285
 20
1.68141896
  0
VERTEX
  8
0
 10
2.95708027
 20
1.70525851
  0
VERTEX
  8
0
 10
2.99473679
 20
1.73035225
  0
VERTEX
  8
0
 10
3.03280041
 20
1.75669086
  0
VERTEX
  8
0
 10
3.07125914
 20
1.78426503
  0
VERTEX
  8
0
 10
3.14931400
 20
1.84308275
  0
VERTEX
  8
0
 10
3.22880548
 20
1.90673088
  0
VERTEX
  8
0
 10
3.30963767
 20
1.97513487
  0
VERTEX
  8
0
 10
3.39171467
 20
2.04822017
  0
VERTEX
  8
0
 10
3.47494059
 20
2.12591224
  0
VERTEX
  8
0
 10
3.55921953
 20
2.20813654
  0
VERTEX
  8
0
 10
3.64445558
 20
2.29481851
  0
VERTEX
  8
0
 10
3.73055286
 20
2.38588362
  0
VERTEX
  8
0
 10
3.81741545
 20
2.48125732
  0
VERTEX
  8
0
 10
3.86186218
 20
2.53166177
  0
VERTEX
  8
0
 10
3.89740264
 20
2.57400433
  0
VERTEX
  8
0
 10
3.92530293
 20
2.61040108
  0
VERTEX
  8
0
 10
3.93678365
 20
2.62703106
  0
VERTEX
  8
0
 10
3.94682911
 20
2.64296811
  0
VERTEX
  8
0
 10
3.95559756
 20
2.65847675
  0
VERTEX
  8
0
 10
3.96324727
 20
2.67382149
  0
VERTEX
  8
0
 10
3.96993649
 20
2.68926684
  0
VERTEX
  8
0
 10
3.97582348
 20
2.70507731
  0
VERTEX
  8
0
 10
3.98582382
 20
2.73885165
  0
VERTEX
  8
0
 10
3.99451436
 20
2.77726059
  0
VERTEX
  8
0
 10
3.99842792
 20
2.79894439
  0
VERTEX
  8
0
 10
4.00045140
 20
2.81901745
  0
VERTEX
  8
0
 10
4.00022187
 20
2.83963537
  0
VERTEX
  8
0
 10
3.99737638
 20
2.86295378
  0
VERTEX
  8
0
 10
3.99155197
 20
2.89112826
  0
VERTEX
  8
0
 10
3.98238570
 20
2.92631444
  0
VERTEX
  8
0
 10
3.96951462
 20
2.97066791
  0
VERTEX
  8
0
 10
3.95257577
 20
3.02634428
  0
VERTEX
  8
0
 10
3.93627859
 20
3.08164468
  0
VERTEX
  8
0
 10
3.93107396
 20
3.10187909
  0
VERTEX
  8
0
 10
3.92768365
 20
3.11801063
  0
VERTEX
  8
0
 10
3.92599638
 20
3.13067004
  0
VERTEX
  8
0
 10
3.92590092
 20
3.14048805
  0
VERTEX
  8
0
 10
3.92728600
 20
3.14809541
  0
VERTEX
  8
0
 10
3.93004037
 20
3.15412286
  0
VERTEX
  8
0
 10
3.93283092
 20
3.15943417
  0
VERTEX
  8
0
 10
3.93482930
 20
3.16531096
  0
VERTEX
  8
0
 10
3.93603606
 20
3.17197535
  0
VERTEX
  8
0
 10
3.93645173
 20
3.17964942
  0
VERTEX
  8
0
 10
3.93491201
 20
3.19891506
  0
VERTEX
  8
0
 10
3.93021449
 20
3.22488472
  0
VERTEX
  8
0
 10
3.92633587
 20
3.24697107
  0
VERTEX
  8
0
 10
3.92395607
 20
3.26810389
  0
VERTEX
  8
0
 10
3.92326436
 20
3.28588662
  0
VERTEX
  8
0
 10
3.92445002
 20
3.29792267
  0
VERTEX
  8
0
 10
3.92508111
 20
3.30300481
  0
VERTEX
  8
0
 10
3.92483064
 20
3.30969672
  0
VERTEX
  8
0
 10
3.92194700
 20
3.32676604
  0
VERTEX
  8
0
 10
3.91632309
 20
3.34684300
  0
VERTEX
  8
0
 10
3.90848291
 20
3.36764000
  0
VERTEX
  8
0
 10
3.89931759
 20
3.39087630
  0
VERTEX
  8
0
 10
3.89455813
 20
3.40805063
  0
VERTEX
  8
0
 10
3.89378384
 20
3.41462326
  0
VERTEX
  8
0
 10
3.89405490
 20
3.41999084
  0
VERTEX
  8
0
 10
3.89535261
 20
3.42425685
  0
VERTEX
  8
0
 10
3.89765826
 20
3.42752478
  0
VERTEX
  8
0
 10
3.90297365
 20
3.43389777
  0
VERTEX
  8
0
 10
3.90615531
 20
3.44066145
  0
VERTEX
  8
0
 10
3.90706967
 20
3.44829618
  0
VERTEX
  8
0
 10
3.90558316
 20
3.45728234
  0
VERTEX
  8
0
 10
3.90156220
 20
3.46810030
  0
VERTEX
  8
0
 10
3.89487322
 20
3.48123043
  0
VERTEX
  8
0
 10
3.88538265
 20
3.49715310
  0
VERTEX
  8
0
 10
3.87295692
 20
3.51634869
  0
VERTEX
  8
0
 10
3.85529306
 20
3.54421109
  0
VERTEX
  8
0
 10
3.84984330
 20
3.55433148
  0
VERTEX
  8
0
 10
3.84645354
 20
3.56250570
  0
VERTEX
  8
0
 10
3.84497774
 20
3.56917952
  0
VERTEX
  8
0
 10
3.84526982
 20
3.57479873
  0
VERTEX
  8
0
 10
3.84718372
 20
3.57980910
  0
VERTEX
  8
0
 10
3.85057337
 20
3.58465641
  0
VERTEX
  8
0
 10
3.85403759
 20
3.58929410
  0
VERTEX
  8
0
 10
3.85639858
 20
3.59374435
  0
VERTEX
  8
0
 10
3.85762768
 20
3.59829460
  0
VERTEX
  8
0
 10
3.85769623
 20
3.60323231
  0
VERTEX
  8
0
 10
3.85657557
 20
3.60884494
  0
VERTEX
  8
0
 10
3.85423704
 20
3.61541994
  0
VERTEX
  8
0
 10
3.84579176
 20
3.63260685
  0
VERTEX
  8
0
 10
3.83663005
 20
3.65080495
  0
VERTEX
  8
0
 10
3.83426777
 20
3.65728287
  0
VERTEX
  8
0
 10
3.83336286
 20
3.66259546
  0
VERTEX
  8
0
 10
3.83389904
 20
3.66717926
  0
VERTEX
  8
0
 10
3.83586006
 20
3.67147083
  0
VERTEX
  8
0
 10
3.83922963
 20
3.67590671
  0
VERTEX
  8
0
 10
3.84399150
 20
3.68092347
  0
VERTEX
  8
0
 10
3.85047541
 20
3.68754172
  0
VERTEX
  8
0
 10
3.85505728
 20
3.69300637
  0
VERTEX
  8
0
 10
3.85769184
 20
3.69799164
  0
VERTEX
  8
0
 10
3.85833384
 20
3.70317176
  0
VERTEX
  8
0
 10
3.85693800
 20
3.70922095
  0
VERTEX
  8
0
 10
3.85345907
 20
3.71681345
  0
VERTEX
  8
0
 10
3.84007085
 20
3.73932529
  0
VERTEX
  8
0
 10
3.83241484
 20
3.75321341
  0
VERTEX
  8
0
 10
3.82819043
 20
3.76441061
  0
VERTEX
  8
0
 10
3.82739326
 20
3.76888929
  0
VERTEX
  8
0
 10
3.82748784
 20
3.77256225
  0
VERTEX
  8
0
 10
3.82848543
 20
3.77538516
  0
VERTEX
  8
0
 10
3.83039731
 20
3.77731369
  0
VERTEX
  8
0
 10
3.83513294
 20
3.78196682
  0
VERTEX
  8
0
 10
3.83826368
 20
3.78875402
  0
VERTEX
  8
0
 10
3.83982366
 20
3.79720594
  0
VERTEX
  8
0
 10
3.83984701
 20
3.80685324
  0
VERTEX
  8
0
 10
3.83836786
 20
3.81722656
  0
VERTEX
  8
0
 10
3.83542036
 20
3.82785657
  0
VERTEX
  8
0
 10
3.83103862
 20
3.83827391
  0
VERTEX
  8
0
 10
3.82525679
 20
3.84800923
  0
VERTEX
  8
0
 10
3.81963412
 20
3.85815037
  0
VERTEX
  8
0
 10
3.81613383
 20
3.86904148
  0
VERTEX
  8
0
 10
3.81496625
 20
3.87971174
  0
VERTEX
  8
0
 10
3.81634168
 20
3.88919035
  0
VERTEX
  8
0
 10
3.81734611
 20
3.89410657
  0
VERTEX
  8
0
 10
3.81750612
 20
3.89974593
  0
VERTEX
  8
0
 10
3.81539394
 20
3.91280756
  0
VERTEX
  8
0
 10
3.81020739
 20
3.92760225
  0
VERTEX
  8
0
 10
3.80214871
 20
3.94335700
  0
VERTEX
  8
0
 10
3.79278782
 20
3.96075027
  0
VERTEX
  8
0
 10
3.78996490
 20
3.96763553
  0
VERTEX
  8
0
 10
3.78833250
 20
3.97356483
  0
VERTEX
  8
0
 10
3.78785476
 20
3.97872689
  0
VERTEX
  8
0
 10
3.78849580
 20
3.98331044
  0
VERTEX
  8
0
 10
3.79021977
 20
3.98750420
  0
VERTEX
  8
0
 10
3.79299078
 20
3.99149689
  0
VERTEX
  8
0
 10
3.79571555
 20
3.99572145
  0
VERTEX
  8
0
 10
3.79728645
 20
4.00066236
  0
VERTEX
  8
0
 10
3.79765047
 20
4.00659131
  0
VERTEX
  8
0
 10
3.79675463
 20
4.01378000
  0
VERTEX
  8
0
 10
3.79454593
 20
4.02250011
  0
VERTEX
  8
0
 10
3.79097136
 20
4.03302334
  0
VERTEX
  8
0
 10
3.77951268
 20
4.06056592
  0
VERTEX
  8
0
 10
3.76938668
 20
4.08517491
  0
VERTEX
  8
0
 10
3.76009503
 20
4.11114042
  0
VERTEX
  8
0
 10
3.75266721
 20
4.13537117
  0
VERTEX
  8
0
 10
3.74813274
 20
4.15477589
  0
VERTEX
  8
0
 10
3.74444489
 20
4.17155966
  0
VERTEX
  8
0
 10
3.73932224
 20
4.18865411
  0
VERTEX
  8
0
 10
3.73344233
 20
4.20405789
  0
VERTEX
  8
0
 10
3.72748271
 20
4.21576964
  0
VERTEX
  8
0
 10
3.72228346
 20
4.22686675
  0
VERTEX
  8
0
 10
3.71847520
 20
4.24059702
  0
VERTEX
  8
0
 10
3.71641906
 20
4.25521470
  0
VERTEX
  8
0
 10
3.71647616
 20
4.26897402
  0
VERTEX
  8
0
 10
3.71772319
 20
4.27834792
  0
VERTEX
  8
0
 10
3.71987104
 20
4.28380087
  0
VERTEX
  8
0
 10
3.72153988
 20
4.28480283
  0
VERTEX
  8
0
 10
3.72374246
 20
4.28451956
  0
VERTEX
  8
0
 10
3.72658162
 20
4.28284940
  0
VERTEX
  8
0
 10
3.73016020
 20
4.27969067
  0
VERTEX
  8
0
 10
3.73994699
 20
4.26850091
  0
VERTEX
  8
0
 10
3.75392559
 20
4.25013694
  0
VERTEX
  8
0
 10
3.79774918
 20
4.18863321
  0
VERTEX
  8
0
 10
3.82862694
 20
4.14409147
  0
VERTEX
  8
0
 10
3.85483165
 20
4.10505069
  0
VERTEX
  8
0
 10
3.87359404
 20
4.07572136
  0
VERTEX
  8
0
 10
3.88214484
 20
4.06031392
  0
VERTEX
  8
0
 10
3.88633482
 20
4.05299394
  0
VERTEX
  8
0
 10
3.89322391
 20
4.04568482
  0
VERTEX
  8
0
 10
3.90185641
 20
4.03923397
  0
VERTEX
  8
0
 10
3.91127663
 20
4.03448879
  0
VERTEX
  8
0
 10
3.91631745
 20
4.03202394
  0
VERTEX
  8
0
 10
3.92182632
 20
4.02835794
  0
VERTEX
  8
0
 10
3.93353539
 20
4.01813431
  0
VERTEX
  8
0
 10
3.94497820
 20
4.00524149
  0
VERTEX
  8
0
 10
3.95472910
 20
3.99110309
  0
VERTEX
  8
0
 10
3.96340914
 20
3.97765526
  0
VERTEX
  8
0
 10
3.97193744
 20
3.96664263
  0
VERTEX
  8
0
 10
3.97933341
 20
3.95920166
  0
VERTEX
  8
0
 10
3.98230032
 20
3.95717569
  0
VERTEX
  8
0
 10
3.98461641
 20
3.95646879
  0
VERTEX
  8
0
 10
3.98685671
 20
3.95589055
  0
VERTEX
  8
0
 10
3.98960708
 20
3.95423329
  0
VERTEX
  8
0
 10
3.99620830
 20
3.94814651
  0
VERTEX
  8
0
 10
4.00356061
 20
3.93913806
  0
VERTEX
  8
0
 10
4.01080456
 20
3.92813756
  0
VERTEX
  8
0
 10
4.01868804
 20
3.91677488
  0
VERTEX
  8
0
 10
4.02778050
 20
3.90678028
  0
VERTEX
  8
0
 10
4.03695693
 20
3.89923399
  0
VERTEX
  8
0
 10
4.04122508
 20
3.89671654
  0
VERTEX
  8
0
 10
4.04509235
 20
3.89521625
  0
VERTEX
  8
0
 10
4.04882054
 20
3.89376245
  0
VERTEX
  8
0
 10
4.05268941
 20
3.89137814
  0
VERTEX
  8
0
 10
4.06039874
 20
3.88432073
  0
VERTEX
  8
0
 10
4.06731945
 20
3.87504962
  0
VERTEX
  8
0
 10
4.07255061
 20
3.86457038
  0
VERTEX
  8
0
 10
4.07787156
 20
3.85406780
  0
VERTEX
  8
0
 10
4.08503549
 20
3.84473316
  0
VERTEX
  8
0
 10
4.09310451
 20
3.83758169
  0
VERTEX
  8
0
 10
4.09718532
 20
3.83514192
  0
VERTEX
  8
0
 10
4.10114070
 20
3.83362866
  0
VERTEX
  8
0
 10
4.10524376
 20
3.83210901
  0
VERTEX
  8
0
 10
4.10904122
 20
3.82981133
  0
VERTEX
  8
0
 10
4.11553224
 20
3.82314356
  0
VERTEX
  8
0
 10
4.12023958
 20
3.81414866
  0
VERTEX
  8
0
 10
4.12278906
 20
3.80334995
  0
VERTEX
  8
0
 10
4.12386300
 20
3.79761013
  0
VERTEX
  8
0
 10
4.12569457
 20
3.79203014
  0
VERTEX
  8
0
 10
4.13141180
 20
3.78165378
  0
VERTEX
  8
0
 10
4.13950328
 20
3.77282919
  0
VERTEX
  8
0
 10
4.14430265
 20
3.76918891
  0
VERTEX
  8
0
 10
4.14953152
 20
3.76616469
  0
VERTEX
  8
0
 10
4.15934382
 20
3.76001799
  0
VERTEX
  8
0
 10
4.16848339
 20
3.75199927
  0
VERTEX
  8
0
 10
4.17592888
 20
3.74314749
  0
VERTEX
  8
0
 10
4.18065894
 20
3.73450159
  0
VERTEX
  8
0
 10
4.18463153
 20
3.72678614
  0
VERTEX
  8
0
 10
4.19001324
 20
3.72046786
  0
VERTEX
  8
0
 10
4.19609798
 20
3.71619876
  0
VERTEX
  8
0
 10
4.20217963
 20
3.71463083
  0
VERTEX
  8
0
 10
4.20815394
 20
3.71314328
  0
VERTEX
  8
0
 10
4.21394516
 20
3.70909300
  0
VERTEX
  8
0
 10
4.21889207
 20
3.70309859
  0
VERTEX
  8
0
 10
4.22233344
 20
3.69577862
  0
VERTEX
  8
0
 10
4.22611778
 20
3.68799497
  0
VERTEX
  8
0
 10
4.23199849
 20
3.68073795
  0
VERTEX
  8
0
 10
4.23917170
 20
3.67481902
  0
VERTEX
  8
0
 10
4.24683355
 20
3.67104962
  0
VERTEX
  8
0
 10
4.25369301
 20
3.66830916
  0
VERTEX
  8
0
 10
4.25658280
 20
3.66636883
  0
VERTEX
  8
0
 10
4.25918161
 20
3.66374296
  0
VERTEX
  8
0
 10
4.26371317
 20
3.65551821
  0
VERTEX
  8
0
 10
4.26770150
 20
3.64180211
  0
VERTEX
  8
0
 10
4.27156042
 20
3.62076184
  0
VERTEX
  8
0
 10
4.27570374
 20
3.59056460
  0
VERTEX
  8
0
 10
4.28649885
 20
3.49536799
  0
VERTEX
  8
0
 10
4.28989849
 20
3.46181478
  0
VERTEX
  8
0
 10
4.29214559
 20
3.43215582
  0
VERTEX
  8
0
 10
4.29316577
 20
3.40405506
  0
VERTEX
  8
0
 10
4.29288469
 20
3.37517646
  0
VERTEX
  8
0
 10
4.29122800
 20
3.34318395
  0
VERTEX
  8
0
 10
4.28812132
 20
3.30574148
  0
VERTEX
  8
0
 10
4.27726064
 20
3.20516245
  0
VERTEX
  8
0
 10
4.26459892
 20
3.09897148
  0
VERTEX
  8
0
 10
4.25294282
 20
3.01041831
  0
VERTEX
  8
0
 10
4.24165485
 20
2.93640282
  0
VERTEX
  8
0
 10
4.23009753
 20
2.87382485
  0
VERTEX
  8
0
 10
4.21763335
 20
2.81958428
  0
VERTEX
  8
0
 10
4.20362484
 20
2.77058097
  0
VERTEX
  8
0
 10
4.18743451
 20
2.72371479
  0
VERTEX
  8
0
 10
4.16842486
 20
2.67588558
  0
VERTEX
  8
0
 10
4.14048323
 20
2.61107946
  0
VERTEX
  8
0
 10
4.11210419
 20
2.54925725
  0
VERTEX
  8
0
 10
4.08330554
 20
2.49044314
  0
VERTEX
  8
0
 10
4.05410509
 20
2.43466132
  0
VERTEX
  8
0
 10
4.02452064
 20
2.38193599
  0
VERTEX
  8
0
 10
3.99456999
 20
2.33229132
  0
VERTEX
  8
0
 10
3.96427095
 20
2.28575152
  0
VERTEX
  8
0
 10
3.93364132
 20
2.24234077
  0
VERTEX
  8
0
 10
3.90269890
 20
2.20208326
  0
VERTEX
  8
0
 10
3.87146149
 20
2.16500317
  0
VERTEX
  8
0
 10
3.83994691
 20
2.13112471
  0
VERTEX
  8
0
 10
3.80817295
 20
2.10047206
  0
VERTEX
  8
0
 10
3.77615742
 20
2.07306941
  0
VERTEX
  8
0
 10
3.74391811
 20
2.04894095
  0
VERTEX
  8
0
 10
3.71147284
 20
2.02811087
  0
VERTEX
  8
0
 10
3.69517853
 20
2.01894028
  0
VERTEX
  8
0
 10
3.67883941
 20
2.01060336
  0
VERTEX
  8
0
 10
3.63819910
 20
1.99005984
  0
VERTEX
  8
0
 10
3.62417698
 20
1.98201433
  0
VERTEX
  8
0
 10
3.61379987
 20
1.97503584
  0
VERTEX
  8
0
 10
3.60665253
 20
1.96881149
  0
VERTEX
  8
0
 10
3.60231969
 20
1.96302844
  0
VERTEX
  8
0
 10
3.60038610
 20
1.95737380
  0
VERTEX
  8
0
 10
3.60043651
 20
1.95153473
  0
VERTEX
  8
0
 10
3.60336730
 20
1.93942107
  0
VERTEX
  8
0
 10
3.60557110
 20
1.93446806
  0
VERTEX
  8
0
 10
3.60832759
 20
1.93023978
  0
VERTEX
  8
0
 10
3.61168211
 20
1.92672787
  0
VERTEX
  8
0
 10
3.61567995
 20
1.92392398
  0
VERTEX
  8
0
 10
3.62036646
 20
1.92181975
  0
VERTEX
  8
0
 10
3.62578693
 20
1.92040682
  0
VERTEX
  8
0
 10
3.63901108
 20
1.91962144
  0
VERTEX
  8
0
 10
3.65571496
 20
1.92150096
  0
VERTEX
  8
0
 10
3.67626111
 20
1.92597854
  0
VERTEX
  8
0
 10
3.70101209
 20
1.93298730
  0
VERTEX
  8
0
 10
3.73795055
 20
1.94561710
  0
VERTEX
  8
0
 10
3.77354213
 20
1.96058302
  0
VERTEX
  8
0
 10
3.80818029
 20
1.97813911
  0
VERTEX
  8
0
 10
3.84225850
 20
1.99853942
  0
VERTEX
  8
0
 10
3.87617020
 20
2.02203799
  0
VERTEX
  8
0
 10
3.91030886
 20
2.04888886
  0
VERTEX
  8
0
 10
3.94506792
 20
2.07934607
  0
VERTEX
  8
0
 10
3.98084085
 20
2.11366366
  0
VERTEX
  8
0
 10
4.01066301
 20
2.14461267
  0
VERTEX
  8
0
 10
4.03981614
 20
2.17720648
  0
VERTEX
  8
0
 10
4.06815990
 20
2.21120021
  0
VERTEX
  8
0
 10
4.09555398
 20
2.24634900
  0
VERTEX
  8
0
 10
4.12185806
 20
2.28240797
  0
VERTEX
  8
0
 10
4.14693181
 20
2.31913225
  0
VERTEX
  8
0
 10
4.17063491
 20
2.35627698
  0
VERTEX
  8
0
 10
4.19282704
 20
2.39359729
  0
VERTEX
  8
0
 10
4.21336787
 20
2.43084830
  0
VERTEX
  8
0
 10
4.23211710
 20
2.46778515
  0
VERTEX
  8
0
 10
4.24893439
 20
2.50416297
  0
VERTEX
  8
0
 10
4.26367942
 20
2.53973689
  0
VERTEX
  8
0
 10
4.27621187
 20
2.57426203
  0
VERTEX
  8
0
 10
4.28639142
 20
2.60749354
  0
VERTEX
  8
0
 10
4.29407775
 20
2.63918653
  0
VERTEX
  8
0
 10
4.29913053
 20
2.66909614
  0
VERTEX
  8
0
 10
4.30277874
 20
2.69196779
  0
VERTEX
  8
0
 10
4.30777260
 20
2.71549924
  0
VERTEX
  8
0
 10
4.31345462
 20
2.73692205
  0
VERTEX
  8
0
 10
4.31916729
 20
2.75346780
  0
VERTEX
  8
0
 10
4.32512083
 20
2.77388230
  0
VERTEX
  8
0
 10
4.33353533
 20
2.81192907
  0
VERTEX
  8
0
 10
4.34413884
 20
2.86607489
  0
VERTEX
  8
0
 10
4.35665942
 20
2.93478649
  0
VERTEX
  8
0
 10
4.38636392
 20
3.10977405
  0
VERTEX
  8
0
 10
4.42047320
 20
3.32462575
  0
VERTEX
  8
0
 10
4.42843569
 20
3.38370949
  0
VERTEX
  8
0
 10
4.43435624
 20
3.44337081
  0
VERTEX
  8
0
 10
4.43821048
 20
3.50178505
  0
VERTEX
  8
0
 10
4.43997405
 20
3.55712751
  0
VERTEX
  8
0
 10
4.43962255
 20
3.60757353
  0
VERTEX
  8
0
 10
4.43713163
 20
3.65129842
  0
VERTEX
  8
0
 10
4.43507627
 20
3.67007024
  0
VERTEX
  8
0
 10
4.43247691
 20
3.68647751
  0
VERTEX
  8
0
 10
4.42933050
 20
3.70029217
  0
VERTEX
  8
0
 10
4.42563400
 20
3.71128612
  0
VERTEX
  8
0
 10
4.41999994
 20
3.72740744
  0
VERTEX
  8
0
 10
4.41538613
 20
3.74562995
  0
VERTEX
  8
0
 10
4.41226869
 20
3.76371758
  0
VERTEX
  8
0
 10
4.41112374
 20
3.77943422
  0
VERTEX
  8
0
 10
4.41074179
 20
3.78817702
  0
VERTEX
  8
0
 10
4.40955909
 20
3.79639605
  0
VERTEX
  8
0
 10
4.40752035
 20
3.80421125
  0
VERTEX
  8
0
 10
4.40457029
 20
3.81174255
  0
VERTEX
  8
0
 10
4.40065361
 20
3.81910988
  0
VERTEX
  8
0
 10
4.39571504
 20
3.82643317
  0
VERTEX
  8
0
 10
4.38255106
 20
3.84142737
  0
VERTEX
  8
0
 10
4.36974306
 20
3.85497904
  0
VERTEX
  8
0
 10
4.35599243
 20
3.87075509
  0
VERTEX
  8
0
 10
4.34294917
 20
3.88679611
  0
VERTEX
  8
0
 10
4.33226329
 20
3.90114265
  0
VERTEX
  8
0
 10
4.31761035
 20
3.92135818
  0
VERTEX
  8
0
 10
4.30014603
 20
3.94409393
  0
VERTEX
  8
0
 10
4.25829710
 20
3.99546910
  0
VERTEX
  8
0
 10
4.20974418
 20
4.05195424
  0
VERTEX
  8
0
 10
4.15751493
 20
4.11023542
  0
VERTEX
  8
0
 10
4.10463703
 20
4.16699871
  0
VERTEX
  8
0
 10
4.05413815
 20
4.21893017
  0
VERTEX
  8
0
 10
4.00904595
 20
4.26271589
  0
VERTEX
  8
0
 10
3.98947351
 20
4.28051849
  0
VERTEX
  8
0
 10
3.97238812
 20
4.29504192
  0
VERTEX
  8
0
 10
3.95151045
 20
4.31333008
  0
VERTEX
  8
0
 10
3.93434289
 20
4.33094516
  0
VERTEX
  8
0
 10
3.92266203
 20
4.34588247
  0
VERTEX
  8
0
 10
3.91943430
 20
4.35172051
  0
VERTEX
  8
0
 10
3.91824447
 20
4.35613734
  0
VERTEX
  8
0
 10
3.91725886
 20
4.36445836
  0
VERTEX
  8
0
 10
3.91492234
 20
4.37413025
  0
VERTEX
  8
0
 10
3.91158425
 20
4.38395251
  0
VERTEX
  8
0
 10
3.90759392
 20
4.39272463
  0
VERTEX
  8
0
 10
3.90285592
 20
4.40282297
  0
VERTEX
  8
0
 10
3.90236630
 20
4.40586233
  0
VERTEX
  8
0
 10
3.90332330
 20
4.40770529
  0
VERTEX
  8
0
 10
3.90587216
 20
4.40845944
  0
VERTEX
  8
0
 10
3.91015815
 20
4.40823239
  0
VERTEX
  8
0
 10
3.92452258
 20
4.40526507
  0
VERTEX
  8
0
 10
3.93590273
 20
4.40207987
  0
VERTEX
  8
0
 10
3.94684748
 20
4.39819910
  0
VERTEX
  8
0
 10
3.95611250
 20
4.39411337
  0
VERTEX
  8
0
 10
3.96245343
 20
4.39031329
  0
VERTEX
  8
0
 10
3.97139267
 20
4.38578442
  0
VERTEX
  8
0
 10
3.98888885
 20
4.37904799
  0
VERTEX
  8
0
 10
4.04383116
 20
4.36075532
  0
VERTEX
  8
0
 10
4.11583864
 20
4.33904099
  0
VERTEX
  8
0
 10
4.19346959
 20
4.31751069
  0
VERTEX
  8
0
 10
4.21258399
 20
4.31339948
  0
VERTEX
  8
0
 10
4.23748769
 20
4.30982160
  0
VERTEX
  8
0
 10
4.26955145
 20
4.30669891
  0
VERTEX
  8
0
 10
4.31014600
 20
4.30395328
  0
VERTEX
  8
0
 10
4.42241047
 20
4.29928063
  0
VERTEX
  8
0
 10
4.58524706
 20
4.29517858
  0
VERTEX
  8
0
 10
4.71355368
 20
4.29217104
  0
VERTEX
  8
0
 10
4.81317594
 20
4.28878514
  0
VERTEX
  8
0
 10
4.88803894
 20
4.28441174
  0
VERTEX
  8
0
 10
4.91741233
 20
4.28166435
  0
VERTEX
  8
0
 10
4.94206782
 20
4.27844166
  0
VERTEX
  8
0
 10
4.96249606
 20
4.27466750
  0
VERTEX
  8
0
 10
4.97918769
 20
4.27026574
  0
VERTEX
  8
0
 10
4.99263335
 20
4.26516022
  0
VERTEX
  8
0
 10
5.00332368
 20
4.25927481
  0
VERTEX
  8
0
 10
5.01174931
 20
4.25253336
  0
VERTEX
  8
0
 10
5.01840090
 20
4.24485971
  0
VERTEX
  8
0
 10
5.02376907
 20
4.23617774
  0
VERTEX
  8
0
 10
5.02834447
 20
4.22641129
  0
VERTEX
  8
0
 10
5.06567459
 20
4.14026562
  0
VERTEX
  8
0
 10
5.08916286
 20
4.08706128
  0
VERTEX
  8
0
 10
5.05531425
 20
3.88875415
  0
VERTEX
  8
0
 10
5.03993473
 20
3.80148993
  0
VERTEX
  8
0
 10
5.02288573
 20
3.70964599
  0
VERTEX
  8
0
 10
4.98663965
 20
3.52614121
  0
VERTEX
  8
0
 10
4.96887277
 20
3.44144149
  0
VERTEX
  8
0
 10
4.95229678
 20
3.36608428
  0
VERTEX
  8
0
 10
4.93762678
 20
3.30355015
  0
VERTEX
  8
0
 10
4.92557788
 20
3.25731965
  0
VERTEX
  8
0
 10
4.91753018
 20
3.23078913
  0
VERTEX
  8
0
 10
4.91300556
 20
3.21877890
  0
VERTEX
  8
0
 10
4.90750793
 20
3.20686096
  0
VERTEX
  8
0
 10
4.90055794
 20
3.19447698
  0
VERTEX
  8
0
 10
4.89167624
 20
3.18106867
  0
VERTEX
  8
0
 10
4.88038346
 20
3.16607770
  0
VERTEX
  8
0
 10
4.86620024
 20
3.14894579
  0
VERTEX
  8
0
 10
4.82724505
 20
3.10602585
  0
VERTEX
  8
0
 10
4.77097581
 20
3.04784239
  0
VERTEX
  8
0
 10
4.59115563
 20
2.86781901
  0
VERTEX
  8
0
 10
4.48140802
 20
2.75746392
  0
VERTEX
  8
0
 10
4.44337941
 20
2.71808366
  0
VERTEX
  8
0
 10
4.41516884
 20
2.68766294
  0
VERTEX
  8
0
 10
4.39571726
 20
2.66502277
  0
VERTEX
  8
0
 10
4.38396562
 20
2.64898416
  0
VERTEX
  8
0
 10
4.38064631
 20
2.64307201
  0
VERTEX
  8
0
 10
4.37885485
 20
2.63836813
  0
VERTEX
  8
0
 10
4.37845884
 20
2.63472514
  0
VERTEX
  8
0
 10
4.37932591
 20
2.63199567
  0
VERTEX
  8
0
 10
4.38648413
 20
2.62310804
  0
VERTEX
  8
0
 10
4.39054367
 20
2.61987899
  0
VERTEX
  8
0
 10
4.39496147
 20
2.61746776
  0
VERTEX
  8
0
 10
4.39976601
 20
2.61588036
  0
VERTEX
  8
0
 10
4.40498578
 20
2.61512278
  0
VERTEX
  8
0
 10
4.41064926
 20
2.61520101
  0
VERTEX
  8
0
 10
4.41678493
 20
2.61612105
  0
VERTEX
  8
0
 10
4.43058677
 20
2.62051053
  0
VERTEX
  8
0
 10
4.44661915
 20
2.62833917
  0
VERTEX
  8
0
 10
4.46510994
 20
2.63965494
  0
VERTEX
  8
0
 10
4.48628698
 20
2.65450578
  0
VERTEX
  8
0
 10
4.50941766
 20
2.67211487
  0
VERTEX
  8
0
 10
4.53597883
 20
2.69334866
  0
VERTEX
  8
0
 10
4.59729135
 20
2.74476388
  0
VERTEX
  8
0
 10
4.66602193
 20
2.80489847
  0
VERTEX
  8
0
 10
4.73796796
 20
2.86989947
  0
VERTEX
  8
0
 10
4.80892685
 20
2.93591392
  0
VERTEX
  8
0
 10
4.87469597
 20
2.99908886
  0
VERTEX
  8
0
 10
4.93107274
 20
3.05557133
  0
VERTEX
  8
0
 10
4.95442567
 20
3.08009884
  0
VERTEX
  8
0
 10
4.97385453
 20
3.10150838
  0
VERTEX
  8
0
 10
4.98316269
 20
3.11265455
  0
VERTEX
  8
0
 10
4.99202623
 20
3.12454818
  0
VERTEX
  8
0
 10
5.00058897
 20
3.13759259
  0
VERTEX
  8
0
 10
5.00899471
 20
3.15219109
  0
VERTEX
  8
0
 10
5.01738727
 20
3.16874702
  0
VERTEX
  8
0
 10
5.02591047
 20
3.18766370
  0
VERTEX
  8
0
 10
5.03470813
 20
3.20934445
  0
VERTEX
  8
0
 10
5.04392404
 20
3.23419258
  0
VERTEX
  8
0
 10
5.06418594
 20
3.29500433
  0
VERTEX
  8
0
 10
5.08784667
 20
3.37332553
  0
VERTEX
  8
0
 10
5.11605676
 20
3.47238275
  0
VERTEX
  8
0
 10
5.14996673
 20
3.59540260
  0
VERTEX
  8
0
 10
5.18588082
 20
3.73028585
  0
VERTEX
  8
0
 10
5.19837890
 20
3.78158874
  0
VERTEX
  8
0
 10
5.20815716
 20
3.82672561
  0
VERTEX
  8
0
 10
5.21590520
 20
3.86914131
  0
VERTEX
  8
0
 10
5.22231265
 20
3.91228069
  0
VERTEX
  8
0
 10
5.22806910
 20
3.95958860
  0
VERTEX
  8
0
 10
5.23386418
 20
4.01450989
  0
VERTEX
  8
0
 10
5.23935089
 20
4.05988571
  0
VERTEX
  8
0
 10
5.24598836
 20
4.10119744
  0
VERTEX
  8
0
 10
5.25293979
 20
4.13388777
  0
VERTEX
  8
0
 10
5.25627175
 20
4.14557573
  0
VERTEX
  8
0
 10
5.25936841
 20
4.15339936
  0
VERTEX
  8
0
 10
5.26558628
 20
4.16782088
  0
VERTEX
  8
0
 10
5.26751042
 20
4.17476365
  0
VERTEX
  8
0
 10
5.26859577
 20
4.18164830
  0
VERTEX
  8
0
 10
5.26880561
 20
4.18856523
  0
VERTEX
  8
0
 10
5.26810324
 20
4.19560485
  0
VERTEX
  8
0
 10
5.26645197
 20
4.20285757
  0
VERTEX
  8
0
 10
5.26381508
 20
4.21041378
  0
VERTEX
  8
0
 10
5.25543765
 20
4.22679833
  0
VERTEX
  8
0
 10
5.24267732
 20
4.24548174
  0
VERTEX
  8
0
 10
5.22524046
 20
4.26718726
  0
VERTEX
  8
0
 10
5.20283345
 20
4.29263813
  0
VERTEX
  8
0
 10
5.17912703
 20
4.32006433
  0
VERTEX
  8
0
 10
5.15833201
 20
4.34648127
  0
VERTEX
  8
0
 10
5.14269195
 20
4.36888257
  0
VERTEX
  8
0
 10
5.13750613
 20
4.37763785
  0
VERTEX
  8
0
 10
5.13445039
 20
4.38426182
  0
VERTEX
  8
0
 10
5.12986830
 20
4.39463725
  0
VERTEX
  8
0
 10
5.12356148
 20
4.40451044
  0
VERTEX
  8
0
 10
5.11556264
 20
4.41386907
  0
VERTEX
  8
0
 10
5.10590446
 20
4.42270080
  0
VERTEX
  8
0
 10
5.09461963
 20
4.43099329
  0
VERTEX
  8
0
 10
5.08174086
 20
4.43873421
  0
VERTEX
  8
0
 10
5.06730084
 20
4.44591124
  0
VERTEX
  8
0
 10
5.05133226
 20
4.45251202
  0
VERTEX
  8
0
 10
5.03386782
 20
4.45852424
  0
VERTEX
  8
0
 10
5.01494021
 20
4.46393555
  0
VERTEX
  8
0
 10
4.99458213
 20
4.46873362
  0
VERTEX
  8
0
 10
4.97282628
 20
4.47290612
  0
VERTEX
  8
0
 10
4.94970534
 20
4.47644072
  0
VERTEX
  8
0
 10
4.92525201
 20
4.47932508
  0
VERTEX
  8
0
 10
4.89949899
 20
4.48154686
  0
VERTEX
  8
0
 10
4.87247897
 20
4.48309374
  0
VERTEX
  8
0
 10
4.81173830
 20
4.48682147
  0
VERTEX
  8
0
 10
4.72639300
 20
4.49348144
  0
VERTEX
  8
0
 10
4.62777244
 20
4.50213082
  0
VERTEX
  8
0
 10
4.52720596
 20
4.51182680
  0
VERTEX
  8
0
 10
4.33424950
 20
4.53052628
  0
VERTEX
  8
0
 10
4.20314310
 20
4.54176538
  0
VERTEX
  8
0
 10
4.13597261
 20
4.54711677
  0
VERTEX
  8
0
 10
4.09673442
 20
4.55166059
  0
VERTEX
  8
0
 10
4.09209811
 20
4.55311805
  0
VERTEX
  8
0
 10
4.08707511
 20
4.55561290
  0
VERTEX
  8
0
 10
4.07619008
 20
4.56332125
  0
VERTEX
  8
0
 10
4.06472145
 20
4.57399860
  0
VERTEX
  8
0
 10
4.05331133
 20
4.58685790
  0
VERTEX
  8
0
 10
4.04260182
 20
4.60111210
  0
VERTEX
  8
0
 10
4.03323505
 20
4.61597417
  0
VERTEX
  8
0
 10
4.02585312
 20
4.63065706
  0
VERTEX
  8
0
 10
4.02109816
 20
4.64437372
  0
VERTEX
  8
0
 10
4.01481035
 20
4.66964271
  0
VERTEX
  8
0
 10
4.09930370
 20
4.67506162
  0
VERTEX
  8
0
 10
4.13576168
 20
4.67844809
  0
VERTEX
  8
0
 10
4.17224392
 20
4.68392547
  0
VERTEX
  8
0
 10
4.20872689
 20
4.69148150
  0
VERTEX
  8
0
 10
4.24518707
 20
4.70110394
  0
VERTEX
  8
0
 10
4.28160093
 20
4.71278057
  0
VERTEX
  8
0
 10
4.31794496
 20
4.72649912
  0
VERTEX
  8
0
 10
4.35419563
 20
4.74224738
  0
VERTEX
  8
0
 10
4.39032942
 20
4.76001309
  0
VERTEX
  8
0
 10
4.42632282
 20
4.77978402
  0
VERTEX
  8
0
 10
4.46215229
 20
4.80154792
  0
VERTEX
  8
0
 10
4.49779433
 20
4.82529256
  0
VERTEX
  8
0
 10
4.53322541
 20
4.85100569
  0
VERTEX
  8
0
 10
4.56842200
 20
4.87867508
  0
VERTEX
  8
0
 10
4.60336058
 20
4.90828849
  0
VERTEX
  8
0
 10
4.63801765
 20
4.93983367
  0
VERTEX
  8
0
 10
4.67236966
 20
4.97329839
  0
VERTEX
  8
0
 10
4.70670384
 20
5.00667174
  0
VERTEX
  8
0
 10
4.73707208
 20
5.03400161
  0
VERTEX
  8
0
 10
4.76018101
 20
5.05246774
  0
VERTEX
  8
0
 10
4.76798406
 20
5.05749557
  0
VERTEX
  8
0
 10
4.77273726
 20
5.05924985
  0
VERTEX
  8
0
 10
4.77632193
 20
5.05981108
  0
VERTEX
  8
0
 10
4.78077596
 20
5.06141958
  0
VERTEX
  8
0
 10
4.79158476
 20
5.06732725
  0
VERTEX
  8
0
 10
4.80374902
 20
5.07607062
  0
VERTEX
  8
0
 10
4.81585407
 20
5.08674742
  0
VERTEX
  8
0
 10
4.82452487
 20
5.09467745
  0
VERTEX
  8
0
 10
4.83312938
 20
5.10117345
  0
VERTEX
  8
0
 10
4.84232497
 20
5.10646217
  0
VERTEX
  8
0
 10
4.85276905
 20
5.11077037
  0
VERTEX
  8
0
 10
4.86511901
 20
5.11432480
  0
VERTEX
  8
0
 10
4.88003224
 20
5.11735223
  0
VERTEX
  8
0
 10
4.92017810
 20
5.12273308
  0
VERTEX
  8
0
 10
4.96687289
 20
5.12708959
  0
VERTEX
  8
0
 10
5.01491288
 20
5.12961083
  0
VERTEX
  8
0
 10
5.06721156
 20
5.13017964
  0
VERTEX
  8
0
 10
5.12668244
 20
5.12867887
  0
VERTEX
  8
0
 10
5.19623901
 20
5.12499137
  0
VERTEX
  8
0
 10
5.27879475
 20
5.11899997
  0
VERTEX
  8
0
 10
5.37726316
 20
5.11058753
  0
VERTEX
  8
0
 10
5.49455774
 20
5.09963689
  0
VERTEX
  8
0
 10
5.74679100
 20
5.07514281
  0
VERTEX
  8
0
 10
5.94753984
 20
5.05486223
  0
VERTEX
  8
0
 10
6.10354958
 20
5.03788248
  0
VERTEX
  8
0
 10
6.22156553
 20
5.02329093
  0
VERTEX
  8
0
 10
6.26843375
 20
5.01660552
  0
VERTEX
  8
0
 10
6.30833301
 20
5.01017491
  0
VERTEX
  8
0
 10
6.34210648
 20
5.00388502
  0
VERTEX
  8
0
 10
6.37059733
 20
4.99762177
  0
VERTEX
  8
0
 10
6.39464872
 20
4.99127108
  0
VERTEX
  8
0
 10
6.41510382
 20
4.98471886
  0
VERTEX
  8
0
 10
6.43280578
 20
4.97785103
  0
VERTEX
  8
0
 10
6.44859779
 20
4.97055352
  0
VERTEX
  8
0
 10
6.47465605
 20
4.95582331
  0
VERTEX
  8
0
 10
6.50298745
 20
4.93680753
  0
VERTEX
  8
0
 10
6.53246256
 20
4.91449337
  0
VERTEX
  8
0
 10
6.56195194
 20
4.88986797
  0
VERTEX
  8
0
 10
6.59032616
 20
4.86391851
  0
VERTEX
  8
0
 10
6.61645579
 20
4.83763213
  0
VERTEX
  8
0
 10
6.63921140
 20
4.81199601
  0
VERTEX
  8
0
 10
6.65746354
 20
4.78799732
  0
VERTEX
  8
0
 10
6.67717019
 20
4.75941077
  0
VERTEX
  8
0
 10
6.69256541
 20
4.73808551
  0
VERTEX
  8
0
 10
6.70458706
 20
4.72337709
  0
VERTEX
  8
0
 10
6.71417298
 20
4.71464109
  0
VERTEX
  8
0
 10
6.71834563
 20
4.71231137
  0
VERTEX
  8
0
 10
6.72226104
 20
4.71123309
  0
VERTEX
  8
0
 10
6.72603645
 20
4.71132570
  0
VERTEX
  8
0
 10
6.72978908
 20
4.71250865
  0
VERTEX
  8
0
 10
6.73769496
 20
4.71782334
  0
VERTEX
  8
0
 10
6.74691652
 20
4.72653274
  0
VERTEX
  8
0
 10
6.75270479
 20
4.73339059
  0
VERTEX
  8
0
 10
6.75630391
 20
4.74083060
  0
VERTEX
  8
0
 10
6.75754872
 20
4.74963669
  0
VERTEX
  8
0
 10
6.75627405
 20
4.76059279
  0
VERTEX
  8
0
 10
6.75231476
 20
4.77448281
  0
VERTEX
  8
0
 10
6.74550569
 20
4.79209068
  0
VERTEX
  8
0
 10
6.72267756
 20
4.84159566
  0
VERTEX
  8
0
 10
6.71121933
 20
4.86393566
  0
VERTEX
  8
0
 10
6.69864904
 20
4.88591865
  0
VERTEX
  8
0
 10
6.68505398
 20
4.90745792
  0
VERTEX
  8
0
 10
6.67052145
 20
4.92846677
  0
VERTEX
  8
0
 10
6.65513875
 20
4.94885852
  0
VERTEX
  8
0
 10
6.63899318
 20
4.96854646
  0
VERTEX
  8
0
 10
6.62217202
 20
4.98744389
  0
VERTEX
  8
0
 10
6.60476259
 20
5.00546411
  0
VERTEX
  8
0
 10
6.58685219
 20
5.02252042
  0
VERTEX
  8
0
 10
6.56852810
 20
5.03852614
  0
VERTEX
  8
0
 10
6.54987763
 20
5.05339454
  0
VERTEX
  8
0
 10
6.53098808
 20
5.06703895
  0
VERTEX
  8
0
 10
6.51194674
 20
5.07937266
  0
VERTEX
  8
0
 10
6.49284091
 20
5.09030897
  0
VERTEX
  8
0
 10
6.47375790
 20
5.09976118
  0
VERTEX
  8
0
 10
6.45478499
 20
5.10764259
  0
VERTEX
  8
0
 10
6.43236342
 20
5.11483979
  0
VERTEX
  8
0
 10
6.40211391
 20
5.12265549
  0
VERTEX
  8
0
 10
6.36451890
 20
5.13101931
  0
VERTEX
  8
0
 10
6.32006079
 20
5.13986089
  0
VERTEX
  8
0
 10
6.21248497
 20
5.15869575
  0
VERTEX
  8
0
 10
6.08324582
 20
5.17859706
  0
VERTEX
  8
0
 10
5.93620270
 20
5.19900178
  0
VERTEX
  8
0
 10
5.77521497
 20
5.21934688
  0
VERTEX
  8
0
 10
5.60414198
 20
5.23906934
  0
VERTEX
  8
0
 10
5.42684310
 20
5.25760613
  0
VERTEX
  8
0
 10
5.32145608
 20
5.26894906
  0
VERTEX
  8
0
 10
5.22401206
 20
5.28104848
  0
VERTEX
  8
0
 10
5.14535577
 20
5.29245670
  0
VERTEX
  8
0
 10
5.11646199
 20
5.29744922
  0
VERTEX
  8
0
 10
5.09633191
 20
5.30172607
  0
VERTEX
  8
0
 10
5.06479719
 20
5.30875516
  0
VERTEX
  8
0
 10
5.03300810
 20
5.31410364
  0
VERTEX
  8
0
 10
5.00170695
 20
5.31774524
  0
VERTEX
  8
0
 10
4.97163603
 20
5.31965372
  0
VERTEX
  8
0
 10
4.94353764
 20
5.31980281
  0
VERTEX
  8
0
 10
4.91815410
 20
5.31816626
  0
VERTEX
  8
0
 10
4.89622769
 20
5.31471782
  0
VERTEX
  8
0
 10
4.88679288
 20
5.31230593
  0
VERTEX
  8
0
 10
4.87850072
 20
5.30943123
  0
VERTEX
  8
0
 10
4.86401661
 20
5.30505388
  0
VERTEX
  8
0
 10
4.84471027
 20
5.30126953
  0
VERTEX
  8
0
 10
4.82310134
 20
5.29848283
  0
VERTEX
  8
0
 10
4.80170943
 20
5.29709843
  0
VERTEX
  8
0
 10
4.78150068
 20
5.29565582
  0
VERTEX
  8
0
 10
4.77153344
 20
5.29394068
  0
VERTEX
  8
0
 10
4.76112698
 20
5.29126251
  0
VERTEX
  8
0
 10
4.74988334
 20
5.28739596
  0
VERTEX
  8
0
 10
4.73740452
 20
5.28211568
  0
VERTEX
  8
0
 10
4.70714947
 20
5.26641247
  0
VERTEX
  8
0
 10
4.66717802
 20
5.24235005
  0
VERTEX
  8
0
 10
4.61430635
 20
5.20812557
  0
VERTEX
  8
0
 10
4.45712712
 20
5.10197906
  0
VERTEX
  8
0
 10
4.34217756
 20
5.02398767
  0
VERTEX
  8
0
 10
4.28662652
 20
4.98702706
  0
VERTEX
  8
0
 10
4.28488703
 20
4.98660476
  0
VERTEX
  8
0
 10
4.28504792
 20
4.98840070
  0
VERTEX
  8
0
 10
4.29054660
 20
4.99786367
  0
VERTEX
  8
0
 10
4.30207412
 20
5.01384879
  0
VERTEX
  8
0
 10
4.31858203
 20
5.03478888
  0
VERTEX
  8
0
 10
4.34031284
 20
5.06235675
  0
VERTEX
  8
0
 10
4.36026775
 20
5.08953360
  0
VERTEX
  8
0
 10
4.37845779
 20
5.11635172
  0
VERTEX
  8
0
 10
4.39489398
 20
5.14284337
  0
VERTEX
  8
0
 10
4.40958735
 20
5.16904083
  0
VERTEX
  8
0
 10
4.42254891
 20
5.19497638
  0
VERTEX
  8
0
 10
4.43378969
 20
5.22068228
  0
VERTEX
  8
0
 10
4.44332072
 20
5.24619080
  0
VERTEX
  8
0
 10
4.45115301
 20
5.27153423
  0
VERTEX
  8
0
 10
4.45729759
 20
5.29674484
  0
VERTEX
  8
0
 10
4.46176548
 20
5.32185489
  0
VERTEX
  8
0
 10
4.46456771
 20
5.34689667
  0
VERTEX
  8
0
 10
4.46571530
 20
5.37190244
  0
VERTEX
  8
0
 10
4.46521927
 20
5.39690448
  0
VERTEX
  8
0
 10
4.46309064
 20
5.42193506
  0
VERTEX
  8
0
 10
4.45934044
 20
5.44702646
  0
VERTEX
  8
0
 10
4.45270169
 20
5.47799179
  0
VERTEX
  8
0
 10
4.44436385
 20
5.50712835
  0
VERTEX
  8
0
 10
4.43435615
 20
5.53441013
  0
VERTEX
  8
0
 10
4.42270787
 20
5.55981107
  0
VERTEX
  8
0
 10
4.40944824
 20
5.58330515
  0
VERTEX
  8
0
 10
4.39460653
 20
5.60486632
  0
VERTEX
  8
0
 10
4.37821199
 20
5.62446855
  0
VERTEX
  8
0
 10
4.36029388
 20
5.64208580
  0
VERTEX
  8
0
 10
4.34088145
 20
5.65769204
  0
VERTEX
  8
0
 10
4.32000395
 20
5.67126123
  0
VERTEX
  8
0
 10
4.29769064
 20
5.68276733
  0
VERTEX
  8
0
 10
4.27397077
 20
5.69218431
  0
VERTEX
  8
0
 10
4.24887360
 20
5.69948612
  0
VERTEX
  8
0
 10
4.22242838
 20
5.70464674
  0
VERTEX
  8
0
 10
4.19466437
 20
5.70764012
  0
VERTEX
  8
0
 10
4.16561082
 20
5.70844023
  0
VERTEX
  8
0
 10
4.13341237
 20
5.70695089
  0
VERTEX
  8
0
 10
4.10110492
 20
5.70317460
  0
VERTEX
  8
0
 10
4.06885300
 20
5.69715932
  0
VERTEX
  8
0
 10
4.03682112
 20
5.68895296
  0
VERTEX
  8
0
 10
4.00517381
 20
5.67860347
  0
VERTEX
  8
0
 10
3.97407558
 20
5.66615877
  0
VERTEX
  8
0
 10
3.94369097
 20
5.65166681
  0
VERTEX
  8
0
 10
3.91418449
 20
5.63517552
  0
VERTEX
  8
0
 10
3.87276961
 20
5.61101564
  0
VERTEX
  8
0
 10
3.85915620
 20
5.60366613
  0
VERTEX
  8
0
 10
3.85295111
 20
5.60096686
  0
VERTEX
  8
0
 10
3.85304489
 20
5.60207258
  0
VERTEX
  8
0
 10
3.85503750
 20
5.60524158
  0
VERTEX
  8
0
 10
3.86399985
 20
5.61688066
  0
VERTEX
  8
0
 10
3.89679731
 20
5.65514146
  0
VERTEX
  8
0
 10
3.92380155
 20
5.68656388
  0
VERTEX
  8
0
 10
3.95094498
 20
5.72027318
  0
VERTEX
  8
0
 10
3.97766075
 20
5.75545643
  0
VERTEX
  8
0
 10
4.00338206
 20
5.79130071
  0
VERTEX
  8
0
 10
4.02754206
 20
5.82699310
  0
VERTEX
  8
0
 10
4.04957392
 20
5.86172067
  0
VERTEX
  8
0
 10
4.06891082
 20
5.89467051
  0
VERTEX
  8
0
 10
4.08498593
 20
5.92502970
  0
VERTEX
  8
0
 10
4.09578408
 20
5.94725551
  0
VERTEX
  8
0
 10
4.10404946
 20
5.96613035
  0
VERTEX
  8
0
 10
4.11019350
 20
5.98388805
  0
VERTEX
  8
0
 10
4.11462765
 20
6.00276247
  0
VERTEX
  8
0
 10
4.11776335
 20
6.02498746
  0
VERTEX
  8
0
 10
4.12001206
 20
6.05279686
  0
VERTEX
  8
0
 10
4.12349426
 20
6.13410433
  0
VERTEX
  8
0
 10
4.12474780
 20
6.19234029
  0
VERTEX
  8
0
 10
4.12447613
 20
6.24640564
  0
VERTEX
  8
0
 10
4.12279913
 20
6.29026954
  0
VERTEX
  8
0
 10
4.12147111
 20
6.30649131
  0
VERTEX
  8
0
 10
4.11983671
 20
6.31790116
  0
VERTEX
  8
0
 10
4.10815234
 20
6.37853036
  0
VERTEX
  8
0
 10
4.09225074
 20
6.46703445
  0
VERTEX
  8
0
 10
4.04264688
 20
6.75695226
  0
VERTEX
  8
0
 10
4.02336148
 20
6.86789197
  0
VERTEX
  8
0
 10
4.00129868
 20
6.98917241
  0
VERTEX
  8
0
 10
3.95404797
 20
7.23634251
  0
VERTEX
  8
0
 10
3.93146364
 20
7.34902571
  0
VERTEX
  8
0
 10
3.91130905
 20
7.44563670
  0
VERTEX
  8
0
 10
3.89488597
 20
7.51957224
  0
VERTEX
  8
0
 10
3.88349621
 20
7.56422911
  0
VERTEX
  8
0
 10
3.87554069
 20
7.58523072
  0
VERTEX
  8
0
 10
3.86447431
 20
7.60656432
  0
VERTEX
  8
0
 10
3.85060439
 20
7.62799914
  0
VERTEX
  8
0
 10
3.83423831
 20
7.64930441
  0
VERTEX
  8
0
 10
3.81568339
 20
7.67024937
  0
VERTEX
  8
0
 10
3.79524699
 20
7.69060324
  0
VERTEX
  8
0
 10
3.77323645
 20
7.71013527
  0
VERTEX
  8
0
 10
3.74995911
 20
7.72861469
  0
VERTEX
  8
0
 10
3.72572233
 20
7.74581072
  0
VERTEX
  8
0
 10
3.70083345
 20
7.76149261
  0
VERTEX
  8
0
 10
3.67559981
 20
7.77542958
  0
VERTEX
  8
0
 10
3.65032877
 20
7.78739087
  0
VERTEX
  8
0
 10
3.62532765
 20
7.79714571
  0
VERTEX
  8
0
 10
3.60090383
 20
7.80446334
  0
VERTEX
  8
0
 10
3.57736463
 20
7.80911299
  0
VERTEX
  8
0
 10
3.55501740
 20
7.81086389
  0
VERTEX
  8
0
 10
3.52849144
 20
7.81049675
  0
VERTEX
  8
0
 10
3.51982522
 20
7.80944635
  0
VERTEX
  8
0
 10
3.51360073
 20
7.80752468
  0
VERTEX
  8
0
 10
3.50935091
 20
7.80451168
  0
VERTEX
  8
0
 10
3.50660869
 20
7.80018731
  0
VERTEX
  8
0
 10
3.50490699
 20
7.79433153
  0
VERTEX
  8
0
 10
3.50377873
 20
7.78672430
  0
VERTEX
  8
0
 10
3.50323037
 20
7.77791259
  0
VERTEX
  8
0
 10
3.50370810
 20
7.77383017
  0
VERTEX
  8
0
 10
3.50497305
 20
7.76970734
  0
VERTEX
  8
0
 10
3.50723967
 20
7.76535207
  0
VERTEX
  8
0
 10
3.51072241
 20
7.76057235
  0
VERTEX
  8
0
 10
3.52219407
 20
7.74897142
  0
VERTEX
  8
0
 10
3.54110366
 20
7.73336837
  0
VERTEX
  8
0
 10
3.56916679
 20
7.71222701
  0
VERTEX
  8
0
 10
3.65961619
 20
7.64718458
  0
VERTEX
  8
0
 10
3.68210115
 20
7.62947288
  0
VERTEX
  8
0
 10
3.70350193
 20
7.60965324
  0
VERTEX
  8
0
 10
3.72139829
 20
7.59014744
  0
VERTEX
  8
0
 10
3.72827599
 20
7.58126904
  0
VERTEX
  8
0
 10
3.73337000
 20
7.57337726
  0
VERTEX
  8
0
 10
3.73901060
 20
7.56091881
  0
VERTEX
  8
0
 10
3.74502421
 20
7.54281181
  0
VERTEX
  8
0
 10
3.75145529
 20
7.51876742
  0
VERTEX
  8
0
 10
3.75834830
 20
7.48849679
  0
VERTEX
  8
0
 10
3.77369796
 20
7.40812141
  0
VERTEX
  8
0
 10
3.79142887
 20
7.29937487
  0
VERTEX
  8
0
 10
3.81189675
 20
7.15994638
  0
VERTEX
  8
0
 10
3.83545728
 20
6.98752516
  0
VERTEX
  8
0
 10
3.86246615
 20
6.77980040
  0
VERTEX
  8
0
 10
3.89327906
 20
6.53446132
  0
VERTEX
  8
0
 10
3.90412564
 20
6.45138622
  0
VERTEX
  8
0
 10
3.91504641
 20
6.37536220
  0
VERTEX
  8
0
 10
3.92477008
 20
6.31480068
  0
VERTEX
  8
0
 10
3.93202538
 20
6.27811309
  0
VERTEX
  8
0
 10
3.93779323
 20
6.25320787
  0
VERTEX
  8
0
 10
3.94346696
 20
6.22472702
  0
VERTEX
  8
0
 10
3.94839377
 20
6.19618234
  0
VERTEX
  8
0
 10
3.95192088
 20
6.17108569
  0
VERTEX
  8
0
 10
3.95454239
 20
6.14164616
  0
VERTEX
  8
0
 10
3.95446684
 20
6.13073712
  0
VERTEX
  8
0
 10
3.95329247
 20
6.12152061
  0
VERTEX
  8
0
 10
3.95088830
 20
6.11336069
  0
VERTEX
  8
0
 10
3.94712338
 20
6.10562138
  0
VERTEX
  8
0
 10
3.94186673
 20
6.09766673
  0
VERTEX
  8
0
 10
3.93498739
 20
6.08886079
  0
VERTEX
  8
0
 10
3.89604326
 20
6.03754444
  0
VERTEX
  8
0
 10
3.83507543
 20
5.95405026
  0
VERTEX
  8
0
 10
3.81673090
 20
5.92961470
  0
VERTEX
  8
0
 10
3.79392099
 20
5.90090258
  0
VERTEX
  8
0
 10
3.73853106
 20
5.83485437
  0
VERTEX
  8
0
 10
3.67615769
 20
5.76431704
  0
VERTEX
  8
0
 10
3.61405295
 20
5.69770203
  0
VERTEX
  8
0
 10
3.55474538
 20
5.63509267
  0
VERTEX
  8
0
 10
3.49998695
 20
5.57546181
  0
VERTEX
  8
0
 10
3.45586709
 20
5.52555515
  0
VERTEX
  8
0
 10
3.42847523
 20
5.49211840
  0
VERTEX
  8
0
 10
3.41634393
 20
5.47532656
  0
VERTEX
  8
0
 10
3.40667238
 20
5.46075942
  0
VERTEX
  8
0
 10
3.39911925
 20
5.44754420
  0
VERTEX
  8
0
 10
3.39334318
 20
5.43480812
  0
VERTEX
  8
0
 10
3.38900281
 20
5.42167838
  0
VERTEX
  8
0
 10
3.38575679
 20
5.40728221
  0
VERTEX
  8
0
 10
3.38326376
 20
5.39074682
  0
VERTEX
  8
0
 10
3.38118238
 20
5.37119942
  0
VERTEX
  8
0
 10
3.37388844
 20
5.29967233
  0
VERTEX
  8
0
 10
3.37072419
 20
5.27550781
  0
VERTEX
  8
0
 10
3.36767934
 20
5.25812778
  0
VERTEX
  8
0
 10
3.36460213
 20
5.24682108
  0
VERTEX
  8
0
 10
3.36134075
 20
5.24087658
  0
VERTEX
  8
0
 10
3.35959356
 20
5.23969291
  0
VERTEX
  8
0
 10
3.35774341
 20
5.23958312
  0
VERTEX
  8
0
 10
3.35365831
 20
5.24222957
  0
VERTEX
  8
0
 10
3.35112534
 20
5.24852419
  0
VERTEX
  8
0
 10
3.34864683
 20
5.26212629
  0
VERTEX
  8
0
 10
3.34624199
 20
5.28277483
  0
VERTEX
  8
0
 10
3.34393000
 20
5.31020873
  0
VERTEX
  8
0
 10
3.33966137
 20
5.38438840
  0
VERTEX
  8
0
 10
3.33599446
 20
5.48257682
  0
VERTEX
  8
0
 10
3.33122169
 20
5.61173386
  0
VERTEX
  8
0
 10
3.32501836
 20
5.73536473
  0
VERTEX
  8
0
 10
3.31767190
 20
5.85024168
  0
VERTEX
  8
0
 10
3.30946979
 20
5.95313697
  0
VERTEX
  8
0
 10
3.30069946
 20
6.04082285
  0
VERTEX
  8
0
 10
3.29164838
 20
6.11007158
  0
VERTEX
  8
0
 10
3.28710737
 20
6.13677334
  0
VERTEX
  8
0
 10
3.28260398
 20
6.15765542
  0
VERTEX
  8
0
 10
3.27817412
 20
6.17231433
  0
VERTEX
  8
0
 10
3.27599799
 20
6.17718402
  0
VERTEX
  8
0
 10
3.27385372
 20
6.18034662
  0
VERTEX
  8
0
 10
3.26818178
 20
6.18804629
  0
VERTEX
  8
0
 10
3.26688063
 20
6.19174565
  0
VERTEX
  8
0
 10
3.26661987
 20
6.19560516
  0
VERTEX
  8
0
 10
3.26741237
 20
6.19982017
  0
VERTEX
  8
0
 10
3.26927101
 20
6.20458604
  0
VERTEX
  8
0
 10
3.27623825
 20
6.21655179
  0
VERTEX
  8
0
 10
3.28249144
 20
6.22856216
  0
VERTEX
  8
0
 10
3.28580228
 20
6.24080546
  0
VERTEX
  8
0
 10
3.28623766
 20
6.25306961
  0
VERTEX
  8
0
 10
3.28386448
 20
6.26514249
  0
VERTEX
  8
0
 10
3.27874962
 20
6.27681203
  0
VERTEX
  8
0
 10
3.27095999
 20
6.28786611
  0
VERTEX
  8
0
 10
3.26056247
 20
6.29809265
  0
VERTEX
  8
0
 10
3.24762396
 20
6.30727954
  0
VERTEX
  8
0
 10
3.23449250
 20
6.31686944
  0
VERTEX
  8
0
 10
3.22367306
 20
6.32804629
  0
VERTEX
  8
0
 10
3.21582498
 20
6.33999343
  0
VERTEX
  8
0
 10
3.21322123
 20
6.34600065
  0
VERTEX
  8
0
 10
3.21160755
 20
6.35189418
  0
VERTEX
  8
0
 10
3.20827668
 20
6.36404064
  0
VERTEX
  8
0
 10
3.20335582
 20
6.37426744
  0
VERTEX
  8
0
 10
3.19708719
 20
6.38242680
  0
VERTEX
  8
0
 10
3.18971298
 20
6.38837095
  0
VERTEX
  8
0
 10
3.18147542
 20
6.39195213
  0
VERTEX
  8
0
 10
3.17261670
 20
6.39302256
  0
VERTEX
  8
0
 10
3.16337904
 20
6.39143448
  0
VERTEX
  8
0
 10
3.15400464
 20
6.38704012
  0
VERTEX
  8
0
 10
3.14830829
 20
6.38391652
  0
VERTEX
  8
0
 10
3.14266616
 20
6.38186188
  0
VERTEX
  8
0
 10
3.13673722
 20
6.38091444
  0
VERTEX
  8
0
 10
3.13018046
 20
6.38111246
  0
VERTEX
  8
0
 10
3.12265486
 20
6.38249418
  0
VERTEX
  8
0
 10
3.11381943
 20
6.38509786
  0
VERTEX
  8
0
 10
3.09085494
 20
6.39412413
  0
VERTEX
  8
0
 10
3.06428665
 20
6.40423054
  0
VERTEX
  8
0
 10
3.03545049
 20
6.41281195
  0
VERTEX
  8
0
 10
3.00469266
 20
6.41982053
  0
VERTEX
  8
0
 10
2.97235931
 20
6.42520843
  0
VERTEX
  8
0
 10
2.93879662
 20
6.42892779
  0
VERTEX
  8
0
 10
2.90435077
 20
6.43093078
  0
VERTEX
  8
0
 10
2.86936792
 20
6.43116954
  0
VERTEX
  8
0
 10
2.83419426
 20
6.42959623
  0
VERTEX
  8
0
 10
2.79652619
 20
6.42640648
  0
VERTEX
  8
0
 10
2.76000822
 20
6.42209361
  0
VERTEX
  8
0
 10
2.72279852
 20
6.41626783
  0
VERTEX
  8
0
 10
2.68305528
 20
6.40853929
  0
VERTEX
  8
0
 10
2.63893666
 20
6.39851818
  0
VERTEX
  8
0
 10
2.58860085
 20
6.38581468
  0
VERTEX
  8
0
 10
2.46191030
 20
6.35080118
  0
VERTEX
  8
0
 10
2.30320882
 20
6.30431609
  0
VERTEX
  8
0
 10
2.24166330
 20
6.28513276
  0
VERTEX
  8
0
 10
2.18956108
 20
6.26781645
  0
VERTEX
  8
0
 10
2.14508206
 20
6.25173780
  0
VERTEX
  8
0
 10
2.10640608
 20
6.23626746
  0
VERTEX
  8
0
 10
2.07171304
 20
6.22077608
  0
VERTEX
  8
0
 10
2.03918279
 20
6.20463432
  0
VERTEX
  8
0
 10
1.86874450
 20
6.11738102
  0
VERTEX
  8
0
 10
1.84167222
 20
6.10282487
  0
VERTEX
  8
0
 10
1.81458684
 20
6.08645339
  0
VERTEX
  8
0
 10
1.78744834
 20
6.06822507
  0
VERTEX
  8
0
 10
1.76021666
 20
6.04809838
  0
VERTEX
  8
0
 10
1.73285176
 20
6.02603180
  0
VERTEX
  8
0
 10
1.70531358
 20
6.00198380
  0
VERTEX
  8
0
 10
1.67756208
 20
5.97591286
  0
VERTEX
  8
0
 10
1.64955720
 20
5.94777747
  0
VERTEX
  8
0
 10
1.62125891
 20
5.91753609
  0
VERTEX
  8
0
 10
1.59262715
 20
5.88514720
  0
VERTEX
  8
0
 10
1.56362187
 20
5.85056929
  0
VERTEX
  8
0
 10
1.53420303
 20
5.81376082
  0
VERTEX
  8
0
 10
1.50433058
 20
5.77468027
  0
VERTEX
  8
0
 10
1.47396446
 20
5.73328613
  0
VERTEX
  8
0
 10
1.44306464
 20
5.68953686
  0
VERTEX
  8
0
 10
1.41159106
 20
5.64339095
  0
VERTEX
  8
0
 10
1.38969347
 20
5.61004912
  0
VERTEX
  8
0
 10
1.37239947
 20
5.58202960
  0
VERTEX
  8
0
 10
1.35952212
 20
5.55885691
  0
VERTEX
  8
0
 10
1.35087449
 20
5.54005560
  0
VERTEX
  8
0
 10
1.34626963
 20
5.52515023
  0
VERTEX
  8
0
 10
1.34542482
 20
5.51900993
  0
VERTEX
  8
0
 10
1.34552061
 20
5.51366532
  0
VERTEX
  8
0
 10
1.34653362
 20
5.50905696
  0
VERTEX
  8
0
 10
1.34844050
 20
5.50512543
  0
VERTEX
  8
0
 10
1.35121786
 20
5.50181128
  0
VERTEX
  8
0
 10
1.35484235
 20
5.49905509
  0
VERTEX
  8
0
 10
1.35906394
 20
5.49694201
  0
VERTEX
  8
0
 10
1.36355687
 20
5.49566199
  0
VERTEX
  8
0
 10
1.36833141
 20
5.49522182
  0
VERTEX
  8
0
 10
1.37339784
 20
5.49562828
  0
VERTEX
  8
0
 10
1.38444746
 20
5.49900825
  0
VERTEX
  8
0
 10
1.39678788
 20
5.50585623
  0
VERTEX
  8
0
 10
1.41050130
 20
5.51622651
  0
VERTEX
  8
0
 10
1.42566987
 20
5.53017341
  0
VERTEX
  8
0
 10
1.44237578
 20
5.54775123
  0
VERTEX
  8
0
 10
1.46070121
 20
5.56901428
  0
VERTEX
  8
0
 10
1.50030895
 20
5.61488546
  0
VERTEX
  8
0
 10
1.54854178
 20
5.66774800
  0
VERTEX
  8
0
 10
1.60214585
 20
5.72432262
  0
VERTEX
  8
0
 10
1.65786731
 20
5.78133003
  0
VERTEX
  8
0
 10
1.71245230
 20
5.83549095
  0
VERTEX
  8
0
 10
1.76264697
 20
5.88352611
  0
VERTEX
  8
0
 10
1.80519747
 20
5.92215623
  0
VERTEX
  8
0
 10
1.82258933
 20
5.93691962
  0
VERTEX
  8
0
 10
1.83684995
 20
5.94810203
  0
VERTEX
  8
0
 10
1.86848292
 20
5.97074038
  0
VERTEX
  8
0
 10
1.89861300
 20
5.99039457
  0
VERTEX
  8
0
 10
1.93014375
 20
6.00840708
  0
VERTEX
  8
0
 10
1.96597872
 20
6.02612040
  0
VERTEX
  8
0
 10
2.00902148
 20
6.04487701
  0
VERTEX
  8
0
 10
2.06217558
 20
6.06601940
  0
VERTEX
  8
0
 10
2.12834457
 20
6.09089006
  0
VERTEX
  8
0
 10
2.21043201
 20
6.12083147
  0
VERTEX
  8
0
 10
2.32624842
 20
6.16180917
  0
VERTEX
  8
0
 10
2.42834626
 20
6.19584010
  0
VERTEX
  8
0
 10
2.51862375
 20
6.22339080
  0
VERTEX
  8
0
 10
2.55992307
 20
6.23488185
  0
VERTEX
  8
0
 10
2.59897914
 20
6.24492780
  0
VERTEX
  8
0
 10
2.63602924
 20
6.25358696
  0
VERTEX
  8
0
 10
2.67131065
 20
6.26091765
  0
VERTEX
  8
0
 10
2.70506064
 20
6.26697818
  0
VERTEX
  8
0
 10
2.73751651
 20
6.27182688
  0
VERTEX
  8
0
 10
2.76891552
 20
6.27552205
  0
VERTEX
  8
0
 10
2.79949495
 20
6.27812202
  0
VERTEX
  8
0
 10
2.82949209
 20
6.27968510
  0
VERTEX
  8
0
 10
2.85914421
 20
6.28026962
  0
VERTEX
  8
0
 10
2.89181833
 20
6.27948551
  0
VERTEX
  8
0
 10
2.92231064
 20
6.27692663
  0
VERTEX
  8
0
 10
2.95032742
 20
6.27267506
  0
VERTEX
  8
0
 10
2.97557491
 20
6.26681287
  0
VERTEX
  8
0
 10
2.99775937
 20
6.25942212
  0
VERTEX
  8
0
 10
3.01658706
 20
6.25058489
  0
VERTEX
  8
0
 10
3.02465032
 20
6.24564949
  0
VERTEX
  8
0
 10
3.03176423
 20
6.24038325
  0
VERTEX
  8
0
 10
3.03789208
 20
6.23479642
  0
VERTEX
  8
0
 10
3.04299715
 20
6.22889926
  0
VERTEX
  8
0
 10
3.04698627
 20
6.22076485
  0
VERTEX
  8
0
 10
3.05118230
 20
6.20690857
  0
VERTEX
  8
0
 10
3.05553082
 20
6.18783174
  0
VERTEX
  8
0
 10
3.05997742
 20
6.16403568
  0
VERTEX
  8
0
 10
3.06894718
 20
6.10429119
  0
VERTEX
  8
0
 10
3.07765627
 20
6.03168568
  0
VERTEX
  8
0
 10
3.08566936
 20
5.95022974
  0
VERTEX
  8
0
 10
3.09255115
 20
5.86393397
  0
VERTEX
  8
0
 10
3.09786630
 20
5.77680895
  0
VERTEX
  8
0
 10
3.10117950
 20
5.69286528
  0
VERTEX
  8
0
 10
3.10408620
 20
5.60721836
  0
VERTEX
  8
0
 10
3.10799101
 20
5.53061560
  0
VERTEX
  8
0
 10
3.11291013
 20
5.46292024
  0
VERTEX
  8
0
 10
3.11885978
 20
5.40399548
  0
VERTEX
  8
0
 10
3.12585616
 20
5.35370455
  0
VERTEX
  8
0
 10
3.13391548
 20
5.31191066
  0
VERTEX
  8
0
 10
3.13834882
 20
5.29415735
  0
VERTEX
  8
0
 10
3.14305397
 20
5.27847702
  0
VERTEX
  8
0
 10
3.14803296
 20
5.26485255
  0
VERTEX
  8
0
 10
3.15328782
 20
5.25326686
  0
VERTEX
  8
0
 10
3.16051252
 20
5.23627917
  0
VERTEX
  8
0
 10
3.16616412
 20
5.21744577
  0
VERTEX
  8
0
 10
3.17014976
 20
5.19803369
  0
VERTEX
  8
0
 10
3.17237657
 20
5.17930992
  0
VERTEX
  8
0
 10
3.17275169
 20
5.16254146
  0
VERTEX
  8
0
 10
3.17118225
 20
5.14899532
  0
VERTEX
  8
0
 10
3.16963930
 20
5.14382655
  0
VERTEX
  8
0
 10
3.16757539
 20
5.13993849
  0
VERTEX
  8
0
 10
3.16497890
 20
5.13748952
  0
VERTEX
  8
0
 10
3.16183824
 20
5.13663800
  0
VERTEX
  8
0
 10
3.15761800
 20
5.13859228
  0
VERTEX
  8
0
 10
3.14982415
 20
5.14419331
  0
VERTEX
  8
0
 10
3.12530101
 20
5.16476469
  0
VERTEX
  8
0
 10
3.09183972
 20
5.19521033
  0
VERTEX
  8
0
 10
3.05301116
 20
5.23238841
  0
VERTEX
  8
0
 10
3.00898838
 20
5.27297879
  0
VERTEX
  8
0
 10
2.95010506
 20
5.32369907
  0
VERTEX
  8
0
 10
2.88144278
 20
5.38052538
  0
VERTEX
  8
0
 10
2.80808311
 20
5.43943388
  0
VERTEX
  8
0
 10
2.73510764
 20
5.49640069
  0
VERTEX
  8
0
 10
2.66759793
 20
5.54740196
  0
VERTEX
  8
0
 10
2.61063555
 20
5.58841382
  0
VERTEX
  8
0
 10
2.58769761
 20
5.60391627
  0
VERTEX
  8
0
 10
2.56930209
 20
5.61541242
  0
VERTEX
  8
0
 10
2.55650084
 20
5.62241509
  0
VERTEX
  8
0
 10
2.54372045
 20
5.62801395
  0
VERTEX
  8
0
 10
2.52956397
 20
5.63243829
  0
VERTEX
  8
0
 10
2.51263446
 20
5.63591741
  0
VERTEX
  8
0
 10
2.49153496
 20
5.63868063
  0
VERTEX
  8
0
 10
2.46486851
 20
5.64095726
  0
VERTEX
  8
0
 10
2.38924699
 20
5.64496793
  0
VERTEX
  8
0
 10
2.30826911
 20
5.64777278
  0
VERTEX
  8
0
 10
2.27830048
 20
5.64761897
  0
VERTEX
  8
0
 10
2.25182917
 20
5.64611852
  0
VERTEX
  8
0
 10
2.22621803
 20
5.64303954
  0
VERTEX
  8
0
 10
2.19882988
 20
5.63815015
  0
VERTEX
  8
0
 10
2.16702757
 20
5.63121848
  0
VERTEX
  8
0
 10
2.12817393
 20
5.62201265
  0
VERTEX
  8
0
 10
1.99588857
 20
5.59115566
  0
VERTEX
  8
0
 10
1.84764192
 20
5.55786970
  0
VERTEX
  8
0
 10
1.69643181
 20
5.52440126
  0
VERTEX
  8
0
 10
1.60073794
 20
5.50214676
  0
VERTEX
  8
0
 10
1.53877554
 20
5.48576788
  0
VERTEX
  8
0
 10
1.48875981
 20
5.46992628
  0
VERTEX
  8
0
 10
1.46775535
 20
5.46168884
  0
VERTEX
  8
0
 10
1.44020229
 20
5.44912810
  0
VERTEX
  8
0
 10
1.40708081
 20
5.43281248
  0
VERTEX
  8
0
 10
1.36937111
 20
5.41331040
  0
VERTEX
  8
0
 10
1.28410778
 20
5.36702048
  0
VERTEX
  8
0
 10
1.19225381
 20
5.31480566
  0
VERTEX
  8
0
 10
1.10165070
 20
5.26121322
  0
VERTEX
  8
0
 10
1.02013995
 20
5.21079048
  0
VERTEX
  8
0
 10
0.98524468
 20
5.18818878
  0
VERTEX
  8
0
 10
0.95556307
 20
5.16808473
  0
VERTEX
  8
0
 10
0.93207531
 20
5.15104677
  0
VERTEX
  8
0
 10
0.91576157
 20
5.13764329
  0
VERTEX
  8
0
 10
0.89718254
 20
5.11737257
  0
VERTEX
  8
0
 10
0.86685583
 20
5.08080070
  0
VERTEX
  8
0
 10
0.82898151
 20
5.03311645
  0
VERTEX
  8
0
 10
0.78775965
 20
4.97950860
  0
VERTEX
  8
0
 10
0.75255105
 20
4.93199583
  0
VERTEX
  8
0
 10
0.72122149
 20
4.88770563
  0
VERTEX
  8
0
 10
0.69402231
 20
4.84705900
  0
VERTEX
  8
0
 10
0.67120483
 20
4.81047691
  0
VERTEX
  8
0
 10
0.65302039
 20
4.77838035
  0
VERTEX
  8
0
 10
0.63972033
 20
4.75119032
  0
VERTEX
  8
0
 10
0.63498048
 20
4.73956681
  0
VERTEX
  8
0
 10
0.63155598
 20
4.72932780
  0
VERTEX
  8
0
 10
0.62947824
 20
4.72052592
  0
VERTEX
  8
0
 10
0.62877868
 20
4.71321378
  0
VERTEX
  8
0
 10
0.62956155
 20
4.70585931
  0
VERTEX
  8
0
 10
0.63176125
 20
4.69859848
  0
VERTEX
  8
0
 10
0.63515440
 20
4.69170468
  0
VERTEX
  8
0
 10
0.63951760
 20
4.68545127
  0
VERTEX
  8
0
 10
0.64462747
 20
4.68011163
  0
VERTEX
  8
0
 10
0.65026063
 20
4.67595914
  0
VERTEX
  8
0
 10
0.65619368
 20
4.67326717
  0
VERTEX
  8
0
 10
0.66220326
 20
4.67230910
  0
VERTEX
  8
0
 10
0.66604015
 20
4.67417362
  0
VERTEX
  8
0
 10
0.67273092
 20
4.67957531
  0
VERTEX
  8
0
 10
0.69365073
 20
4.69983899
  0
VERTEX
  8
0
 10
0.72291587
 20
4.73079769
  0
VERTEX
  8
0
 10
0.75847951
 20
4.77014897
  0
VERTEX
  8
0
 10
0.79829482
 20
4.81559039
  0
VERTEX
  8
0
 10
0.84031500
 20
4.86481949
  0
VERTEX
  8
0
 10
0.88249320
 20
4.91553385
  0
VERTEX
  8
0
 10
0.92278261
 20
4.96543100
  0
VERTEX
  8
0
 10
0.94752313
 20
4.99623089
  0
VERTEX
  8
0
 10
0.96906681
 20
5.02145279
  0
VERTEX
  8
0
 10
0.99020151
 20
5.04341657
  0
VERTEX
  8
0
 10
1.01371507
 20
5.06444212
  0
VERTEX
  8
0
 10
1.04239534
 20
5.08684933
  0
VERTEX
  8
0
 10
1.07903018
 20
5.11295809
  0
VERTEX
  8
0
 10
1.18731491
 20
5.18555980
  0
VERTEX
  8
0
 10
1.26355866
 20
5.23492341
  0
VERTEX
  8
0
 10
1.33122239
 20
5.27669319
  0
VERTEX
  8
0
 10
1.38295334
 20
5.30646342
  0
VERTEX
  8
0
 10
1.40054629
 20
5.31547193
  0
VERTEX
  8
0
 10
1.41139877
 20
5.31982841
  0
VERTEX
  8
0
 10
1.55421812
 20
5.35489151
  0
VERTEX
  8
0
 10
1.75781198
 20
5.40322458
  0
VERTEX
  8
0
 10
1.95409193
 20
5.44883194
  0
VERTEX
  8
0
 10
2.07496958
 20
5.47571794
  0
VERTEX
  8
0
 10
2.12637638
 20
5.48530565
  0
VERTEX
  8
0
 10
2.14595904
 20
5.48808616
  0
VERTEX
  8
0
 10
2.16267261
 20
5.48959347
  0
VERTEX
  8
0
 10
2.17742568
 20
5.48987936
  0
VERTEX
  8
0
 10
2.19112680
 20
5.48899561
  0
VERTEX
  8
0
 10
2.20468455
 20
5.48699399
  0
VERTEX
  8
0
 10
2.21900748
 20
5.48392628
  0
VERTEX
  8
0
 10
2.24286241
 20
5.47985101
  0
VERTEX
  8
0
 10
2.27175814
 20
5.47743801
  0
VERTEX
  8
0
 10
2.30270862
 20
5.47683765
  0
VERTEX
  8
0
 10
2.33272780
 20
5.47820026
  0
VERTEX
  8
0
 10
2.39914543
 20
5.48376843
  0
VERTEX
  8
0
 10
2.44457235
 20
5.44445176
  0
VERTEX
  8
0
 10
2.46530071
 20
5.42784893
  0
VERTEX
  8
0
 10
2.48815831
 20
5.41170739
  0
VERTEX
  8
0
 10
2.51036963
 20
5.39787315
  0
VERTEX
  8
0
 10
2.52915913
 20
5.38819221
  0
VERTEX
  8
0
 10
2.53999066
 20
5.38224647
  0
VERTEX
  8
0
 10
2.55582750
 20
5.37178505
  0
VERTEX
  8
0
 10
2.59949114
 20
5.33963667
  0
VERTEX
  8
0
 10
2.65409811
 20
5.29639016
  0
VERTEX
  8
0
 10
2.71359644
 20
5.24668860
  0
VERTEX
  8
0
 10
2.81571155
 20
5.16032279
  0
VERTEX
  8
0
 10
2.85633778
 20
5.12705946
  0
VERTEX
  8
0
 10
2.89090502
 20
5.09971710
  0
VERTEX
  8
0
 10
2.92008468
 20
5.07777663
  0
VERTEX
  8
0
 10
2.94454818
 20
5.06071900
  0
VERTEX
  8
0
 10
2.96496694
 20
5.04802514
  0
VERTEX
  8
0
 10
2.98201238
 20
5.03917600
  0
VERTEX
  8
0
 10
2.99135847
 20
5.03309418
  0
VERTEX
  8
0
 10
3.00239245
 20
5.02317401
  0
VERTEX
  8
0
 10
3.01406235
 20
5.01076136
  0
VERTEX
  8
0
 10
3.02531625
 20
4.99720215
  0
VERTEX
  8
0
 10
3.03510222
 20
4.98384226
  0
VERTEX
  8
0
 10
3.04236830
 20
4.97202758
  0
VERTEX
  8
0
 10
3.04606256
 20
4.96310400
  0
VERTEX
  8
0
 10
3.04624153
 20
4.96014697
  0
VERTEX
  8
0
 10
3.04513307
 20
4.95841743
  0
VERTEX
  8
0
 10
3.01533283
 20
4.94515784
  0
VERTEX
  8
0
 10
3.00841808
 20
4.94266765
  0
VERTEX
  8
0
 10
3.00121503
 20
4.94101142
  0
VERTEX
  8
0
 10
2.99373483
 20
4.94018452
  0
VERTEX
  8
0
 10
2.98598867
 20
4.94018231
  0
VERTEX
  8
0
 10
2.97798772
 20
4.94100015
  0
VERTEX
  8
0
 10
2.96974313
 20
4.94263343
  0
VERTEX
  8
0
 10
2.95256777
 20
4.94832771
  0
VERTEX
  8
0
 10
2.93455195
 20
4.95722809
  0
VERTEX
  8
0
 10
2.91578503
 20
4.96929750
  0
VERTEX
  8
0
 10
2.89635637
 20
4.98449888
  0
VERTEX
  8
0
 10
2.87635534
 20
5.00279516
  0
VERTEX
  8
0
 10
2.85990967
 20
5.01756502
  0
VERTEX
  8
0
 10
2.84485653
 20
5.02868031
  0
VERTEX
  8
0
 10
2.83286163
 20
5.03506340
  0
VERTEX
  8
0
 10
2.82853154
 20
5.03614361
  0
VERTEX
  8
0
 10
2.82559064
 20
5.03563667
  0
VERTEX
  8
0
 10
2.81777023
 20
5.03279095
  0
VERTEX
  8
0
 10
2.80427940
 20
5.02986483
  0
VERTEX
  8
0
 10
2.78701227
 20
5.02720245
  0
VERTEX
  8
0
 10
2.76786297
 20
5.02514797
  0
VERTEX
  8
0
 10
2.74376690
 20
5.02401004
  0
VERTEX
  8
0
 10
2.73448917
 20
5.02448688
  0
VERTEX
  8
0
 10
2.72664700
 20
5.02575715
  0
VERTEX
  8
0
 10
2.71993193
 20
5.02789304
  0
VERTEX
  8
0
 10
2.71403546
 20
5.03096671
  0
VERTEX
  8
0
 10
2.70864911
 20
5.03505034
  0
VERTEX
  8
0
 10
2.70346442
 20
5.04021611
  0
VERTEX
  8
0
 10
2.69582352
 20
5.04717001
  0
VERTEX
  8
0
 10
2.68712796
 20
5.05256530
  0
VERTEX
  8
0
 10
2.67777027
 20
5.05635007
  0
VERTEX
  8
0
 10
2.66814301
 20
5.05847239
  0
VERTEX
  8
0
 10
2.65863873
 20
5.05888035
  0
VERTEX
  8
0
 10
2.64964997
 20
5.05752203
  0
VERTEX
  8
0
 10
2.64156928
 20
5.05434551
  0
VERTEX
  8
0
 10
2.63478922
 20
5.04929887
  0
VERTEX
  8
0
 10
2.63203181
 20
5.04720618
  0
VERTEX
  8
0
 10
2.62885849
 20
5.04604655
  0
VERTEX
  8
0
 10
2.62524639
 20
5.04582637
  0
VERTEX
  8
0
 10
2.62117265
 20
5.04655198
  0
VERTEX
  8
0
 10
2.61154879
 20
5.05086605
  0
VERTEX
  8
0
 10
2.59980397
 20
5.05903970
  0
VERTEX
  8
0
 10
2.58611776
 20
5.06855649
  0
VERTEX
  8
0
 10
2.58018764
 20
5.07140320
  0
VERTEX
  8
0
 10
2.57448554
 20
5.07304638
  0
VERTEX
  8
0
 10
2.56872596
 20
5.07353925
  0
VERTEX
  8
0
 10
2.56262343
 20
5.07293500
  0
VERTEX
  8
0
 10
2.54824760
 20
5.06864798
  0
VERTEX
  8
0
 10
2.54035649
 20
5.06591017
  0
VERTEX
  8
0
 10
2.53357027
 20
5.06427317
  0
VERTEX
  8
0
 10
2.52753303
 20
5.06383561
  0
VERTEX
  8
0
 10
2.52188889
 20
5.06469610
  0
VERTEX
  8
0
 10
2.51628195
 20
5.06695326
  0
VERTEX
  8
0
 10
2.51035631
 20
5.07070571
  0
VERTEX
  8
0
 10
2.49612533
 20
5.08309093
  0
VERTEX
  8
0
 10
2.48553447
 20
5.09259216
  0
VERTEX
  8
0
 10
2.47602474
 20
5.09961340
  0
VERTEX
  8
0
 10
2.46732158
 20
5.10418778
  0
VERTEX
  8
0
 10
2.45915043
 20
5.10634843
  0
VERTEX
  8
0
 10
2.45123674
 20
5.10612847
  0
VERTEX
  8
0
 10
2.44330596
 20
5.10356102
  0
VERTEX
  8
0
 10
2.43508354
 20
5.09867921
  0
VERTEX
  8
0
 10
2.42629492
 20
5.09151617
  0
VERTEX
  8
0
 10
2.41591268
 20
5.08315913
  0
VERTEX
  8
0
 10
2.41173549
 20
5.08128678
  0
VERTEX
  8
0
 10
2.40771441
 20
5.08102318
  0
VERTEX
  8
0
 10
2.40345953
 20
5.08242181
  0
VERTEX
  8
0
 10
2.39858095
 20
5.08553613
  0
VERTEX
  8
0
 10
2.38539315
 20
5.09712575
  0
VERTEX
  8
0
 10
2.37500740
 20
5.10534836
  0
VERTEX
  8
0
 10
2.36381319
 20
5.11168738
  0
VERTEX
  8
0
 10
2.35315617
 20
5.11551662
  0
VERTEX
  8
0
 10
2.34844963
 20
5.11629438
  0
VERTEX
  8
0
 10
2.34438200
 20
5.11620987
  0
VERTEX
  8
0
 10
2.33582458
 20
5.11573425
  0
VERTEX
  8
0
 10
2.32575769
 20
5.11638096
  0
VERTEX
  8
0
 10
2.31543685
 20
5.11800985
  0
VERTEX
  8
0
 10
2.30611761
 20
5.12048079
  0
VERTEX
  8
0
 10
2.29638281
 20
5.12246118
  0
VERTEX
  8
0
 10
2.28493050
 20
5.12275452
  0
VERTEX
  8
0
 10
2.27318904
 20
5.12142464
  0
VERTEX
  8
0
 10
2.26258678
 20
5.11853538
  0
VERTEX
  8
0
 10
2.25617318
 20
5.11639342
  0
VERTEX
  8
0
 10
2.25035323
 20
5.11516366
  0
VERTEX
  8
0
 10
2.24495071
 20
5.11488880
  0
VERTEX
  8
0
 10
2.23978944
 20
5.11561153
  0
VERTEX
  8
0
 10
2.23469320
 20
5.11737455
  0
VERTEX
  8
0
 10
2.22948580
 20
5.12022056
  0
VERTEX
  8
0
 10
2.21803270
 20
5.12933236
  0
VERTEX
  8
0
 10
2.20584794
 20
5.13926147
  0
VERTEX
  8
0
 10
2.20059751
 20
5.14208939
  0
VERTEX
  8
0
 10
2.19542036
 20
5.14356942
  0
VERTEX
  8
0
 10
2.18995048
 20
5.14375895
  0
VERTEX
  8
0
 10
2.18382186
 20
5.14271536
  0
VERTEX
  8
0
 10
2.16812440
 20
5.13715845
  0
VERTEX
  8
0
 10
2.15434061
 20
5.13246490
  0
VERTEX
  8
0
 10
2.14217793
 20
5.13053701
  0
VERTEX
  8
0
 10
2.13138075
 20
5.13136249
  0
VERTEX
  8
0
 10
2.12169345
 20
5.13492909
  0
VERTEX
  8
0
 10
2.11273303
 20
5.13826712
  0
VERTEX
  8
0
 10
2.10157491
 20
5.14027036
  0
VERTEX
  8
0
 10
2.08964116
 20
5.14078384
  0
VERTEX
  8
0
 10
2.07835385
 20
5.13965256
  0
VERTEX
  8
0
 10
2.06627007
 20
5.13887771
  0
VERTEX
  8
0
 10
2.05315485
 20
5.14066445
  0
VERTEX
  8
0
 10
2.04013058
 20
5.14476022
  0
VERTEX
  8
0
 10
2.02831962
 20
5.15091244
  0
VERTEX
  8
0
 10
2.01526221
 20
5.15838423
  0
VERTEX
  8
0
 10
2.00969170
 20
5.16050558
  0
VERTEX
  8
0
 10
2.00447645
 20
5.16158173
  0
VERTEX
  8
0
 10
1.99940382
 20
5.16163603
  0
VERTEX
  8
0
 10
1.99426115
 20
5.16069186
  0
VERTEX
  8
0
 10
1.98291511
 20
5.15590156
  0
VERTEX
  8
0
 10
1.97187928
 20
5.15107097
  0
VERTEX
  8
0
 10
1.96719829
 20
5.15008716
  0
VERTEX
  8
0
 10
1.96283400
 20
5.15008576
  0
VERTEX
  8
0
 10
1.95860549
 20
5.15108785
  0
VERTEX
  8
0
 10
1.95433181
 20
5.15311449
  0
VERTEX
  8
0
 10
1.94492527
 20
5.16032573
  0
VERTEX
  8
0
 10
1.93554228
 20
5.16727023
  0
VERTEX
  8
0
 10
1.93093977
 20
5.16935264
  0
VERTEX
  8
0
 10
1.92622028
 20
5.17053555
  0
VERTEX
  8
0
 10
1.92125155
 20
5.17083924
  0
VERTEX
  8
0
 10
1.91590135
 20
5.17028401
  0
VERTEX
  8
0
 10
1.90352756
 20
5.16667794
  0
VERTEX
  8
0
 10
1.89121689
 20
5.16305174
  0
VERTEX
  8
0
 10
1.88598504
 20
5.16248591
  0
VERTEX
  8
0
 10
1.88119476
 20
5.16277912
  0
VERTEX
  8
0
 10
1.87671547
 20
5.16395202
  0
VERTEX
  8
0
 10
1.87241661
 20
5.16602527
  0
VERTEX
  8
0
 10
1.86383789
 20
5.17295539
  0
VERTEX
  8
0
 10
1.85509998
 20
5.18020855
  0
VERTEX
  8
0
 10
1.85094017
 20
5.18224374
  0
VERTEX
  8
0
 10
1.84665074
 20
5.18324822
  0
VERTEX
  8
0
 10
1.84202988
 20
5.18324467
  0
VERTEX
  8
0
 10
1.83687582
 20
5.18225575
  0
VERTEX
  8
0
 10
1.82416088
 20
5.17741247
  0
VERTEX
  8
0
 10
1.81290677
 20
5.17304920
  0
VERTEX
  8
0
 10
1.80423815
 20
5.17146511
  0
VERTEX
  8
0
 10
1.80079463
 20
5.17171317
  0
VERTEX
  8
0
 10
1.79790294
 20
5.17265352
  0
VERTEX
  8
0
 10
1.79553159
 20
5.17428535
  0
VERTEX
  8
0
 10
1.79364906
 20
5.17660780
  0
VERTEX
  8
0
 10
1.79186048
 20
5.17855994
  0
VERTEX
  8
0
 10
1.78918704
 20
5.18018631
  0
VERTEX
  8
0
 10
1.78170702
 20
5.18237506
  0
VERTEX
  8
0
 10
1.77225193
 20
5.18300074
  0
VERTEX
  8
0
 10
1.76186470
 20
5.18189004
  0
VERTEX
  8
0
 10
1.75024749
 20
5.18091619
  0
VERTEX
  8
0
 10
1.73889637
 20
5.18233367
  0
VERTEX
  8
0
 10
1.72857372
 20
5.18596491
  0
VERTEX
  8
0
 10
1.72004192
 20
5.19163235
  0
VERTEX
  8
0
 10
1.71474950
 20
5.19592063
  0
VERTEX
  8
0
 10
1.70946043
 20
5.19887631
  0
VERTEX
  8
0
 10
1.70354717
 20
5.20045472
  0
VERTEX
  8
0
 10
1.69638216
 20
5.20061121
  0
VERTEX
  8
0
 10
1.68733787
 20
5.19930111
  0
VERTEX
  8
0
 10
1.67578674
 20
5.19647975
  0
VERTEX
  8
0
 10
1.64265377
 20
5.18612463
  0
VERTEX
  8
0
 10
1.60979597
 20
5.17710496
  0
VERTEX
  8
0
 10
1.56544965
 20
5.16746974
  0
VERTEX
  8
0
 10
1.51542644
 20
5.15837258
  0
VERTEX
  8
0
 10
1.46553796
 20
5.15096708
  0
VERTEX
  8
0
 10
1.39658955
 20
5.14176694
  0
VERTEX
  8
0
 10
1.34244183
 20
5.13287672
  0
VERTEX
  8
0
 10
1.31958194
 20
5.12791535
  0
VERTEX
  8
0
 10
1.29881868
 20
5.12227249
  0
VERTEX
  8
0
 10
1.27961753
 20
5.11569513
  0
VERTEX
  8
0
 10
1.26144397
 20
5.10793028
  0
VERTEX
  8
0
 10
1.24376350
 20
5.09872497
  0
VERTEX
  8
0
 10
1.22604159
 20
5.08782618
  0
VERTEX
  8
0
 10
1.20774373
 20
5.07498093
  0
VERTEX
  8
0
 10
1.18833540
 20
5.05993622
  0
VERTEX
  8
0
 10
1.14404927
 20
5.02223647
  0
VERTEX
  8
0
 10
1.08890709
 20
4.97270298
  0
VERTEX
  8
0
 10
1.01076711
 20
4.90079110
  0
VERTEX
  8
0
 10
0.92244828
 20
4.81757971
  0
VERTEX
  8
0
 10
0.82915176
 20
4.72816454
  0
VERTEX
  8
0
 10
0.73607867
 20
4.63764131
  0
VERTEX
  8
0
 10
0.64843015
 20
4.55110574
  0
VERTEX
  8
0
 10
0.57140734
 20
4.47365357
  0
VERTEX
  8
0
 10
0.51021138
 20
4.41038050
  0
VERTEX
  8
0
 10
0.47004340
 20
4.36638227
  0
VERTEX
  8
0
 10
0.44179474
 20
4.33169128
  0
VERTEX
  8
0
 10
0.41475480
 20
4.29519817
  0
VERTEX
  8
0
 10
0.38900510
 20
4.25710781
  0
VERTEX
  8
0
 10
0.36462716
 20
4.21762505
  0
VERTEX
  8
0
 10
0.34170250
 20
4.17695476
  0
VERTEX
  8
0
 10
0.32031265
 20
4.13530179
  0
VERTEX
  8
0
 10
0.30053912
 20
4.09287100
  0
VERTEX
  8
0
 10
0.28246344
 20
4.04986726
  0
VERTEX
  8
0
 10
0.26616712
 20
4.00649542
  0
VERTEX
  8
0
 10
0.25173170
 20
3.96296034
  0
VERTEX
  8
0
 10
0.23923869
 20
3.91946689
  0
VERTEX
  8
0
 10
0.22876960
 20
3.87621992
  0
VERTEX
  8
0
 10
0.22040598
 20
3.83342430
  0
VERTEX
  8
0
 10
0.21422932
 20
3.79128487
  0
VERTEX
  8
0
 10
0.21032117
 20
3.75000651
  0
VERTEX
  8
0
 10
0.20876303
 20
3.70979408
  0
VERTEX
  8
0
 10
0.20877492
 20
3.66050192
  0
VERTEX
  8
0
 10
0.20957006
 20
3.64494198
  0
VERTEX
  8
0
 10
0.21120545
 20
3.63415584
  0
VERTEX
  8
0
 10
0.21391672
 20
3.62718079
  0
VERTEX
  8
0
 10
0.21793944
 20
3.62305413
  0
VERTEX
  8
0
 10
0.22350924
 20
3.62081313
  0
VERTEX
  8
0
 10
0.23086171
 20
3.61949509
  0
VERTEX
  8
0
 10
0.24039407
 20
3.61888607
  0
VERTEX
  8
0
 10
0.24943398
 20
3.61962110
  0
VERTEX
  8
0
 10
0.25696120
 20
3.62153691
  0
VERTEX
  8
0
 10
0.26195548
 20
3.62447026
  0
VERTEX
  8
0
 10
0.26401617
 20
3.62824947
  0
VERTEX
  8
0
 10
0.26673301
 20
3.63589163
  0
VERTEX
  8
0
 10
0.27367009
 20
3.66091838
  0
VERTEX
  8
0
 10
0.28183658
 20
3.69585759
  0
VERTEX
  8
0
 10
0.29030238
 20
3.73701634
  0
VERTEX
  8
0
 10
0.29756041
 20
3.77242523
  0
VERTEX
  8
0
 10
0.30551030
 20
3.80697781
  0
VERTEX
  8
0
 10
0.31417240
 20
3.84072144
  0
VERTEX
  8
0
 10
0.32356705
 20
3.87370349
  0
VERTEX
  8
0
 10
0.33371459
 20
3.90597133
  0
VERTEX
  8
0
 10
0.34463536
 20
3.93757233
  0
VERTEX
  8
0
 10
0.35634970
 20
3.96855386
  0
VERTEX
  8
0
 10
0.36887795
 20
3.99896328
  0
VERTEX
  8
0
 10
0.38224045
 20
4.02884797
  0
VERTEX
  8
0
 10
0.39645754
 20
4.05825530
  0
VERTEX
  8
0
 10
0.41154956
 20
4.08723263
  0
VERTEX
  8
0
 10
0.42753686
 20
4.11582734
  0
VERTEX
  8
0
 10
0.44443978
 20
4.14408678
  0
VERTEX
  8
0
 10
0.46227865
 20
4.17205835
  0
VERTEX
  8
0
 10
0.48107381
 20
4.19978939
  0
VERTEX
  8
0
 10
0.50084561
 20
4.22732728
  0
VERTEX
  8
0
 10
0.52268686
 20
4.25437770
  0
VERTEX
  8
0
 10
0.55490344
 20
4.29077484
  0
VERTEX
  8
0
 10
0.59603574
 20
4.33509578
  0
VERTEX
  8
0
 10
0.64462413
 20
4.38591761
  0
VERTEX
  8
0
 10
0.75833072
 20
4.50137220
  0
VERTEX
  8
0
 10
0.88434625
 20
4.62575522
  0
VERTEX
  8
0
 10
1.01099377
 20
4.74768327
  0
VERTEX
  8
0
 10
1.12659632
 20
4.85577295
  0
VERTEX
  8
0
 10
1.17660668
 20
4.90107109
  0
VERTEX
  8
0
 10
1.21947694
 20
4.93864086
  0
VERTEX
  8
0
 10
1.25374748
 20
4.96705934
  0
VERTEX
  8
0
 10
1.27795868
 20
4.98490361
  0
VERTEX
  8
0
 10
1.28641692
 20
4.98903530
  0
VERTEX
  8
0
 10
1.29854504
 20
4.99304985
  0
VERTEX
  8
0
 10
1.31385479
 20
4.99690313
  0
VERTEX
  8
0
 10
1.33185792
 20
5.00055100
  0
VERTEX
  8
0
 10
1.37399131
 20
5.00705392
  0
VERTEX
  8
0
 10
1.42103924
 20
5.01220545
  0
VERTEX
  8
0
 10
1.46909570
 20
5.01565245
  0
VERTEX
  8
0
 10
1.51425471
 20
5.01704177
  0
VERTEX
  8
0
 10
1.55261028
 20
5.01602026
  0
VERTEX
  8
0
 10
1.56801614
 20
5.01449508
  0
VERTEX
  8
0
 10
1.58025640
 20
5.01223477
  0
VERTEX
  8
0
 10
1.61301427
 20
5.00645513
  0
VERTEX
  8
0
 10
1.67010469
 20
4.99880181
  0
VERTEX
  8
0
 10
1.74349239
 20
4.99027146
  0
VERTEX
  8
0
 10
1.82514207
 20
4.98186070
  0
VERTEX
  8
0
 10
1.92312702
 20
4.97119744
  0
VERTEX
  8
0
 10
2.01386549
 20
4.95878899
  0
VERTEX
  8
0
 10
2.09809211
 20
4.94452337
  0
VERTEX
  8
0
 10
2.13799305
 20
4.93665912
  0
VERTEX
  8
0
 10
2.17654151
 20
4.92828858
  0
VERTEX
  8
0
 10
2.26281660
 20
4.90926773
  0
VERTEX
  8
0
 10
2.37060494
 20
4.88641271
  0
VERTEX
  8
0
 10
2.61160514
 20
4.83705391
  0
VERTEX
  8
0
 10
2.82130969
 20
4.79591976
  0
VERTEX
  8
0
 10
2.88997846
 20
4.78334554
  0
VERTEX
  8
0
 10
2.92148615
 20
4.77871781
  0
VERTEX
  8
0
 10
2.92681790
 20
4.77797198
  0
VERTEX
  8
0
 10
2.93449433
 20
4.77585709
  0
VERTEX
  8
0
 10
2.95535069
 20
4.76825570
  0
VERTEX
  8
0
 10
2.98099413
 20
4.75738480
  0
VERTEX
  8
0
 10
3.00836354
 20
4.74471556
  0
VERTEX
  8
0
 10
3.03439782
 20
4.73171914
  0
VERTEX
  8
0
 10
3.05603588
 20
4.71986670
  0
VERTEX
  8
0
 10
3.07021660
 20
4.71062941
  0
VERTEX
  8
0
 10
3.07355386
 20
4.70745118
  0
VERTEX
  8
0
 10
3.07411682
 20
4.70630262
  0
VERTEX
  8
0
 10
3.07387888
 20
4.70547842
  0
VERTEX
  8
0
 10
3.06977835
 20
4.70481510
  0
VERTEX
  8
0
 10
3.05968987
 20
4.70457718
  0
VERTEX
  8
0
 10
3.02422363
 20
4.70528945
  0
VERTEX
  8
0
 10
2.97282927
 20
4.70743900
  0
VERTEX
  8
0
 10
2.91085592
 20
4.71084958
  0
VERTEX
  8
0
 10
2.81911010
 20
4.71573203
  0
VERTEX
  8
0
 10
2.73242675
 20
4.71897776
  0
VERTEX
  8
0
 10
2.65216998
 20
4.72060234
  0
VERTEX
  8
0
 10
2.57970391
 20
4.72062136
  0
VERTEX
  8
0
 10
2.51639263
 20
4.71905043
  0
VERTEX
  8
0
 10
2.46360025
 20
4.71590512
  0
VERTEX
  8
0
 10
2.42269089
 20
4.71120104
  0
VERTEX
  8
0
 10
2.40711862
 20
4.70826932
  0
VERTEX
  8
0
 10
2.39502864
 20
4.70495376
  0
VERTEX
  8
0
 10
2.37209313
 20
4.69564722
  0
VERTEX
  8
0
 10
2.35102686
 20
4.68402772
  0
VERTEX
  8
0
 10
2.33189922
 20
4.67016894
  0
VERTEX
  8
0
 10
2.31477964
 20
4.65414457
  0
VERTEX
  8
0
 10
2.29973753
 20
4.63602829
  0
VERTEX
  8
0
 10
2.28684230
 20
4.61589378
  0
VERTEX
  8
0
 10
2.27616336
 20
4.59381472
  0
VERTEX
  8
0
 10
2.26777013
 20
4.56986481
  0
VERTEX
  8
0
 10
2.25736085
 20
4.53177089
  0
VERTEX
  8
0
 10
2.24746862
 20
4.49102279
  0
VERTEX
  8
0
 10
2.23819615
 20
4.44818646
  0
VERTEX
  8
0
 10
2.22964616
 20
4.40382788
  0
VERTEX
  8
0
 10
2.22192137
 20
4.35851303
  0
VERTEX
  8
0
 10
2.21512449
 20
4.31280787
  0
VERTEX
  8
0
 10
2.20935824
 20
4.26727838
  0
VERTEX
  8
0
 10
2.20472532
 20
4.22249053
  0
VERTEX
  8
0
 10
2.19892121
 20
4.16904179
  0
VERTEX
  8
0
 10
2.19220120
 20
4.12631525
  0
VERTEX
  8
0
 10
2.18847081
 20
4.10883258
  0
VERTEX
  8
0
 10
2.18447912
 20
4.09386220
  0
VERTEX
  8
0
 10
2.18021537
 20
4.08134802
  0
VERTEX
  8
0
 10
2.17566877
 20
4.07123395
  0
VERTEX
  8
0
 10
2.16808571
 20
4.05511148
  0
VERTEX
  8
0
 10
2.16260950
 20
4.03972647
  0
VERTEX
  8
0
 10
2.15924240
 20
4.02522620
  0
VERTEX
  8
0
 10
2.15798669
 20
4.01175795
  0
VERTEX
  8
0
 10
2.15884464
 20
3.99946899
  0
VERTEX
  8
0
 10
2.16181851
 20
3.98850661
  0
VERTEX
  8
0
 10
2.16691060
 20
3.97901808
  0
VERTEX
  8
0
 10
2.17412315
 20
3.97115068
  0
VERTEX
  8
0
 10
2.19888243
 20
3.94898509
  0
VERTEX
  8
0
 10
2.22232398
 20
3.92567259
  0
VERTEX
  8
0
 10
2.24403113
 20
3.90175462
  0
VERTEX
  8
0
 10
2.26358719
 20
3.87777263
  0
VERTEX
  8
0
 10
2.28057549
 20
3.85426805
  0
VERTEX
  8
0
 10
2.29457934
 20
3.83178232
  0
VERTEX
  8
0
 10
2.30518206
 20
3.81085689
  0
VERTEX
  8
0
 10
2.30907779
 20
3.80114849
  0
VERTEX
  8
0
 10
2.31196699
 20
3.79203321
  0
VERTEX
  8
0
 10
2.31515544
 20
3.78227964
  0
VERTEX
  8
0
 10
2.31936439
 20
3.77265644
  0
VERTEX
  8
0
 10
2.32446231
 20
3.76327007
  0
VERTEX
  8
0
 10
2.33031762
 20
3.75422702
  0
VERTEX
  8
0
 10
2.34377423
 20
3.73759681
  0
VERTEX
  8
0
 10
2.35868179
 20
3.72361765
  0
VERTEX
  8
0
 10
2.36635079
 20
3.71788843
  0
VERTEX
  8
0
 10
2.37398787
 20
3.71314141
  0
VERTEX
  8
0
 10
2.38146146
 20
3.70948309
  0
VERTEX
  8
0
 10
2.38864002
 20
3.70701993
  0
VERTEX
  8
0
 10
2.39539199
 20
3.70585844
  0
VERTEX
  8
0
 10
2.40158582
 20
3.70610508
  0
VERTEX
  8
0
 10
2.40708995
 20
3.70786633
  0
VERTEX
  8
0
 10
2.41177283
 20
3.71124869
  0
VERTEX
  8
0
 10
2.41823540
 20
3.71376760
  0
VERTEX
  8
0
 10
2.43118077
 20
3.71597513
  0
VERTEX
  8
0
 10
2.44873089
 20
3.71763323
  0
VERTEX
  8
0
 10
2.46900775
 20
3.71850384
  0
VERTEX
  8
0
 10
2.51995140
 20
3.71946759
  0
VERTEX
  8
0
 10
2.52048151
 20
3.75220994
  0
VERTEX
  8
0
 10
2.52122062
 20
3.76237769
  0
VERTEX
  8
0
 10
2.52350297
 20
3.77186584
  0
VERTEX
  8
0
 10
2.52794930
 20
3.78146180
  0
VERTEX
  8
0
 10
2.53518036
 20
3.79195300
  0
VERTEX
  8
0
 10
2.54581691
 20
3.80412686
  0
VERTEX
  8
0
 10
2.56047969
 20
3.81877080
  0
VERTEX
  8
0
 10
2.60436697
 20
3.85861865
  0
VERTEX
  8
0
 10
2.63842189
 20
3.88938151
  0
VERTEX
  8
0
 10
2.66952633
 20
3.91868526
  0
VERTEX
  8
0
 10
2.69424262
 20
3.94321466
  0
VERTEX
  8
0
 10
2.70913309
 20
3.95965446
  0
VERTEX
  8
0
 10
2.72010816
 20
3.97470479
  0
VERTEX
  8
0
 10
2.72313759
 20
3.98025457
  0
VERTEX
  8
0
 10
2.72459996
 20
3.98493621
  0
VERTEX
  8
0
 10
2.72454904
 20
3.98908628
  0
VERTEX
  8
0
 10
2.72303861
 20
3.99304136
  0
VERTEX
  8
0
 10
2.72012243
 20
3.99713804
  0
VERTEX
  8
0
 10
2.71585425
 20
4.00171289
  0
VERTEX
  8
0
 10
2.71087343
 20
4.00580405
  0
VERTEX
  8
0
 10
2.70521465
 20
4.00803922
  0
VERTEX
  8
0
 10
2.69802477
 20
4.00813941
  0
VERTEX
  8
0
 10
2.68845063
 20
4.00582563
  0
VERTEX
  8
0
 10
2.67563906
 20
4.00081889
  0
VERTEX
  8
0
 10
2.65873691
 20
3.99284019
  0
VERTEX
  8
0
 10
2.60924821
 20
3.96685100
  0
VERTEX
  8
0
 10
2.51733122
 20
3.91729985
  0
VERTEX
  8
0
 10
2.51139478
 20
3.94095238
  0
VERTEX
  8
0
 10
2.50915757
 20
3.95273616
  0
VERTEX
  8
0
 10
2.50861093
 20
3.96331444
  0
VERTEX
  8
0
 10
2.50970275
 20
3.97258013
  0
VERTEX
  8
0
 10
2.51238092
 20
3.98042610
  0
VERTEX
  8
0
 10
2.51659334
 20
3.98674524
  0
VERTEX
  8
0
 10
2.52228790
 20
3.99143042
  0
VERTEX
  8
0
 10
2.52941250
 20
3.99437453
  0
VERTEX
  8
0
 10
2.53791503
 20
3.99547046
  0
VERTEX
  8
0
 10
2.54925091
 20
3.99592314
  0
VERTEX
  8
0
 10
2.55217241
 20
3.99654642
  0
VERTEX
  8
0
 10
2.55329727
 20
3.99763433
  0
VERTEX
  8
0
 10
2.55265123
 20
3.99933684
  0
VERTEX
  8
0
 10
2.55026001
 20
4.00180395
  0
VERTEX
  8
0
 10
2.54034501
 20
4.00963193
  0
VERTEX
  8
0
 10
2.52444762
 20
4.02040702
  0
VERTEX
  8
0
 10
2.51192489
 20
4.02685890
  0
VERTEX
  8
0
 10
2.51003109
 20
4.02801297
  0
VERTEX
  8
0
 10
2.50892732
 20
4.02990731
  0
VERTEX
  8
0
 10
2.50859998
 20
4.03248344
  0
VERTEX
  8
0
 10
2.50903545
 20
4.03568288
  0
VERTEX
  8
0
 10
2.51214044
 20
4.04371772
  0
VERTEX
  8
0
 10
2.51813345
 20
4.05354398
  0
VERTEX
  8
0
 10
2.52627684
 20
4.06733202
  0
VERTEX
  8
0
 10
2.52919010
 20
4.07435124
  0
VERTEX
  8
0
 10
2.53131113
 20
4.08156571
  0
VERTEX
  8
0
 10
2.53262497
 20
4.08905927
  0
VERTEX
  8
0
 10
2.53311666
 20
4.09691577
  0
VERTEX
  8
0
 10
2.53277124
 20
4.10521904
  0
VERTEX
  8
0
 10
2.53157376
 20
4.11405292
  0
VERTEX
  8
0
 10
2.52656274
 20
4.13364790
  0
VERTEX
  8
0
 10
2.51796395
 20
4.15637144
  0
VERTEX
  8
0
 10
2.50565769
 20
4.18289426
  0
VERTEX
  8
0
 10
2.48952431
 20
4.21388709
  0
VERTEX
  8
0
 10
2.47077398
 20
4.25024853
  0
VERTEX
  8
0
 10
2.45872790
 20
4.27751734
  0
VERTEX
  8
0
 10
2.45525519
 20
4.28764733
  0
VERTEX
  8
0
 10
2.45350201
 20
4.29539055
  0
VERTEX
  8
0
 10
2.45348287
 20
4.30070911
  0
VERTEX
  8
0
 10
2.45521224
 20
4.30356516
  0
VERTEX
  8
0
 10
2.45866240
 20
4.30645686
  0
VERTEX
  8
0
 10
2.46174612
 20
4.31056460
  0
VERTEX
  8
0
 10
2.46445646
 20
4.31576965
  0
VERTEX
  8
0
 10
2.46678648
 20
4.32195329
  0
VERTEX
  8
0
 10
2.47027783
 20
4.33678141
  0
VERTEX
  8
0
 10
2.47216466
 20
4.35409910
  0
VERTEX
  8
0
 10
2.47239149
 20
4.37295655
  0
VERTEX
  8
0
 10
2.47090281
 20
4.39240390
  0
VERTEX
  8
0
 10
2.46764313
 20
4.41149135
  0
VERTEX
  8
0
 10
2.46255696
 20
4.42926903
  0
VERTEX
  8
0
 10
2.45400528
 20
4.45696746
  0
VERTEX
  8
0
 10
2.45124851
 20
4.46935686
  0
VERTEX
  8
0
 10
2.44949108
 20
4.48073957
  0
VERTEX
  8
0
 10
2.44872296
 20
4.49109051
  0
VERTEX
  8
0
 10
2.44893410
 20
4.50038455
  0
VERTEX
  8
0
 10
2.45011447
 20
4.50859662
  0
VERTEX
  8
0
 10
2.45225404
 20
4.51570159
  0
VERTEX
  8
0
 10
2.45534277
 20
4.52167438
  0
VERTEX
  8
0
 10
2.45937063
 20
4.52648987
  0
VERTEX
  8
0
 10
2.46432758
 20
4.53012298
  0
VERTEX
  8
0
 10
2.47020359
 20
4.53254859
  0
VERTEX
  8
0
 10
2.47698863
 20
4.53374160
  0
VERTEX
  8
0
 10
2.48467265
 20
4.53367692
  0
VERTEX
  8
0
 10
2.49324563
 20
4.53232944
  0
VERTEX
  8
0
 10
2.50269752
 20
4.52967406
  0
VERTEX
  8
0
 10
2.51074146
 20
4.52670226
  0
VERTEX
  8
0
 10
2.51702446
 20
4.52355277
  0
VERTEX
  8
0
 10
2.52175869
 20
4.51982012
  0
VERTEX
  8
0
 10
2.52515635
 20
4.51509885
  0
VERTEX
  8
0
 10
2.52742962
 20
4.50898349
  0
VERTEX
  8
0
 10
2.52879068
 20
4.50106859
  0
VERTEX
  8
0
 10
2.52962491
 20
4.47821829
  0
VERTEX
  8
0
 10
2.53065591
 20
4.46122230
  0
VERTEX
  8
0
 10
2.53366667
 20
4.44789692
  0
VERTEX
  8
0
 10
2.53587592
 20
4.44263080
  0
VERTEX
  8
0
 10
2.53853385
 20
4.43830644
  0
VERTEX
  8
0
 10
2.54162504
 20
4.43493187
  0
VERTEX
  8
0
 10
2.54513408
 20
4.43251514
  0
VERTEX
  8
0
 10
2.54904554
 20
4.43106428
  0
VERTEX
  8
0
 10
2.55334400
 20
4.43058733
  0
VERTEX
  8
0
 10
2.55801405
 20
4.43109232
  0
VERTEX
  8
0
 10
2.56304027
 20
4.43258728
  0
VERTEX
  8
0
 10
2.57409952
 20
4.43857930
  0
VERTEX
  8
0
 10
2.58639840
 20
4.44862767
  0
VERTEX
  8
0
 10
2.59877111
 20
4.45974156
  0
VERTEX
  8
0
 10
2.60298822
 20
4.46254978
  0
VERTEX
  8
0
 10
2.60639561
 20
4.46353884
  0
VERTEX
  8
0
 10
2.60937065
 20
4.46271872
  0
VERTEX
  8
0
 10
2.61229068
 20
4.46009942
  0
VERTEX
  8
0
 10
2.61947508
 20
4.44950323
  0
VERTEX
  8
0
 10
2.62561232
 20
4.44124551
  0
VERTEX
  8
0
 10
2.63211928
 20
4.43548685
  0
VERTEX
  8
0
 10
2.63895265
 20
4.43222438
  0
VERTEX
  8
0
 10
2.64606914
 20
4.43145526
  0
VERTEX
  8
0
 10
2.65342546
 20
4.43317664
  0
VERTEX
  8
0
 10
2.66097832
 20
4.43738565
  0
VERTEX
  8
0
 10
2.66868442
 20
4.44407946
  0
VERTEX
  8
0
 10
2.67650046
 20
4.45325521
  0
VERTEX
  8
0
 10
2.69368644
 20
4.47603935
  0
VERTEX
  8
0
 10
2.70383395
 20
4.45567357
  0
VERTEX
  8
0
 10
2.70713463
 20
4.45001276
  0
VERTEX
  8
0
 10
2.71103574
 20
4.44543201
  0
VERTEX
  8
0
 10
2.71586132
 20
4.44181854
  0
VERTEX
  8
0
 10
2.72193539
 20
4.43905955
  0
VERTEX
  8
0
 10
2.72958196
 20
4.43704225
  0
VERTEX
  8
0
 10
2.73912506
 20
4.43565386
  0
VERTEX
  8
0
 10
2.76519693
 20
4.43431261
  0
VERTEX
  8
0
 10
2.79223832
 20
4.43462255
  0
VERTEX
  8
0
 10
2.80203786
 20
4.43570925
  0
VERTEX
  8
0
 10
2.80994542
 20
4.43761262
  0
VERTEX
  8
0
 10
2.81640259
 20
4.44047928
  0
VERTEX
  8
0
 10
2.82185096
 20
4.44445587
  0
VERTEX
  8
0
 10
2.82673211
 20
4.44968902
  0
VERTEX
  8
0
 10
2.83148763
 20
4.45632536
  0
VERTEX
  8
0
 10
2.83942707
 20
4.46646544
  0
VERTEX
  8
0
 10
2.84341265
 20
4.46999823
  0
VERTEX
  8
0
 10
2.84747697
 20
4.47254017
  0
VERTEX
  8
0
 10
2.85167116
 20
4.47411675
  0
VERTEX
  8
0
 10
2.85604635
 20
4.47475347
  0
VERTEX
  8
0
 10
2.86065365
 20
4.47447582
  0
VERTEX
  8
0
 10
2.86554420
 20
4.47330928
  0
VERTEX
  8
0
 10
2.87049381
 20
4.47225366
  0
VERTEX
  8
0
 10
2.87561821
 20
4.47218773
  0
VERTEX
  8
0
 10
2.88094631
 20
4.47312399
  0
VERTEX
  8
0
 10
2.88650697
 20
4.47507495
  0
VERTEX
  8
0
 10
2.89232909
 20
4.47805312
  0
VERTEX
  8
0
 10
2.89844154
 20
4.48207101
  0
VERTEX
  8
0
 10
2.91165302
 20
4.49327598
  0
VERTEX
  8
0
 10
2.92616910
 20
4.50602089
  0
VERTEX
  8
0
 10
2.93205262
 20
4.50995101
  0
VERTEX
  8
0
 10
2.93737819
 20
4.51237117
  0
VERTEX
  8
0
 10
2.94241459
 20
4.51337009
  0
VERTEX
  8
0
 10
2.94743062
 20
4.51303645
  0
VERTEX
  8
0
 10
2.95269507
 20
4.51145897
  0
VERTEX
  8
0
 10
2.95847673
 20
4.50872634
  0
VERTEX
  8
0
 10
2.96810929
 20
4.50463362
  0
VERTEX
  8
0
 10
2.97977720
 20
4.50128205
  0
VERTEX
  8
0
 10
2.99200865
 20
4.49901749
  0
VERTEX
  8
0
 10
3.00333186
 20
4.49818578
  0
VERTEX
  8
0
 10
3.01615260
 20
4.49755012
  0
VERTEX
  8
0
 10
3.02003437
 20
4.49655539
  0
VERTEX
  8
0
 10
3.02237442
 20
4.49493144
  0
VERTEX
  8
0
 10
3.02328077
 20
4.49254485
  0
VERTEX
  8
0
 10
3.02286142
 20
4.48926216
  0
VERTEX
  8
0
 10
3.01847767
 20
4.47947468
  0
VERTEX
  8
0
 10
3.01247714
 20
4.46623271
  0
VERTEX
  8
0
 10
3.00924738
 20
4.45370544
  0
VERTEX
  8
0
 10
3.00891521
 20
4.44152452
  0
VERTEX
  8
0
 10
3.01160744
 20
4.42932161
  0
VERTEX
  8
0
 10
3.01745089
 20
4.41672835
  0
VERTEX
  8
0
 10
3.02657238
 20
4.40337640
  0
VERTEX
  8
0
 10
3.03909873
 20
4.38889740
  0
VERTEX
  8
0
 10
3.05515675
 20
4.37292300
  0
VERTEX
  8
0
 10
3.07460869
 20
4.35379608
  0
VERTEX
  8
0
 10
3.09305471
 20
4.33426163
  0
VERTEX
  8
0
 10
3.10841293
 20
4.31660973
  0
VERTEX
  8
0
 10
3.11860150
 20
4.30313043
  0
VERTEX
  8
0
 10
3.12531698
 20
4.29375017
  0
VERTEX
  8
0
 10
3.13260919
 20
4.28534079
  0
VERTEX
  8
0
 10
3.14043086
 20
4.27791128
  0
VERTEX
  8
0
 10
3.14873474
 20
4.27147062
  0
VERTEX
  8
0
 10
3.15747357
 20
4.26602779
  0
VERTEX
  8
0
 10
3.16660008
 20
4.26159178
  0
VERTEX
  8
0
 10
3.17606702
 20
4.25817156
  0
VERTEX
  8
0
 10
3.18582712
 20
4.25577613
  0
VERTEX
  8
0
 10
3.19583313
 20
4.25441446
  0
VERTEX
  8
0
 10
3.20603778
 20
4.25409554
  0
VERTEX
  8
0
 10
3.21639381
 20
4.25482836
  0
VERTEX
  8
0
 10
3.22685396
 20
4.25662189
  0
VERTEX
  8
0
 10
3.23737098
 20
4.25948511
  0
VERTEX
  8
0
 10
3.24789760
 20
4.26342702
  0
VERTEX
  8
0
 10
3.25838656
 20
4.26845659
  0
VERTEX
  8
0
 10
3.26879061
 20
4.27458281
  0
VERTEX
  8
0
 10
3.29211634
 20
4.28963779
  0
VERTEX
  8
0
 10
3.28635094
 20
4.24665720
  0
VERTEX
  8
0
 10
3.28449913
 20
4.23526099
  0
VERTEX
  8
0
 10
3.28211551
 20
4.22510594
  0
VERTEX
  8
0
 10
3.27909652
 20
4.21599537
  0
VERTEX
  8
0
 10
3.27533860
 20
4.20773261
  0
VERTEX
  8
0
 10
3.27073818
 20
4.20012099
  0
VERTEX
  8
0
 10
3.26519169
 20
4.19296383
  0
VERTEX
  8
0
 10
3.25859557
 20
4.18606446
  0
VERTEX
  8
0
 10
3.25084624
 20
4.17922620
  0
VERTEX
  8
0
 10
3.23930622
 20
4.16842369
  0
VERTEX
  8
0
 10
3.22986884
 20
4.15708536
  0
VERTEX
  8
0
 10
3.22350710
 20
4.14655778
  0
VERTEX
  8
0
 10
3.22178365
 20
4.14201884
  0
VERTEX
  8
0
 10
3.22119400
 20
4.13818756
  0
VERTEX
  8
0
 10
3.22271361
 20
4.13111854
  0
VERTEX
  8
0
 10
3.22678356
 20
4.12412748
  0
VERTEX
  8
0
 10
3.23278044
 20
4.11761999
  0
VERTEX
  8
0
 10
3.24008081
 20
4.11200166
  0
VERTEX
  8
0
 10
3.24806127
 20
4.10767808
  0
VERTEX
  8
0
 10
3.25609838
 20
4.10505485
  0
VERTEX
  8
0
 10
3.26356872
 20
4.10453757
  0
VERTEX
  8
0
 10
3.26689654
 20
4.10519541
  0
VERTEX
  8
0
 10
3.26984889
 20
4.10653184
  0
VERTEX
  8
0
 10
3.27463896
 20
4.10872019
  0
VERTEX
  8
0
 10
3.27770095
 20
4.10854849
  0
VERTEX
  8
0
 10
3.27912467
 20
4.10645009
  0
VERTEX
  8
0
 10
3.27899991
 20
4.10285831
  0
VERTEX
  8
0
 10
3.27741645
 20
4.09820652
  0
VERTEX
  8
0
 10
3.27446410
 20
4.09292807
  0
VERTEX
  8
0
 10
3.27023265
 20
4.08745629
  0
VERTEX
  8
0
 10
3.26481189
 20
4.08222453
  0
VERTEX
  8
0
 10
3.25914802
 20
4.07642212
  0
VERTEX
  8
0
 10
3.25491837
 20
4.06977524
  0
VERTEX
  8
0
 10
3.25214277
 20
4.06255352
  0
VERTEX
  8
0
 10
3.25084103
 20
4.05502656
  0
VERTEX
  8
0
 10
3.25103299
 20
4.04746397
  0
VERTEX
  8
0
 10
3.25273847
 20
4.04013538
  0
VERTEX
  8
0
 10
3.25597730
 20
4.03331039
  0
VERTEX
  8
0
 10
3.26076931
 20
4.02725863
  0
VERTEX
  8
0
 10
3.26487810
 20
4.02134355
  0
VERTEX
  8
0
 10
3.26578500
 20
4.01809147
  0
VERTEX
  8
0
 10
3.26592203
 20
4.01457062
  0
VERTEX
  8
0
 10
3.26387183
 20
4.00650530
  0
VERTEX
  8
0
 10
3.25869821
 20
3.99671305
  0
VERTEX
  8
0
 10
3.25519656
 20
3.99068306
  0
VERTEX
  8
0
 10
3.25288738
 20
3.98544889
  0
VERTEX
  8
0
 10
3.25183322
 20
3.98070842
  0
VERTEX
  8
0
 10
3.25209665
 20
3.97615949
  0
VERTEX
  8
0
 10
3.25374023
 20
3.97149998
  0
VERTEX
  8
0
 10
3.25682653
 20
3.96642776
  0
VERTEX
  8
0
 10
3.26757754
 20
3.95383662
  0
VERTEX
  8
0
 10
3.28266819
 20
3.93641406
  0
VERTEX
  8
0
 10
3.28642499
 20
3.93033098
  0
VERTEX
  8
0
 10
3.28765299
 20
3.92566109
  0
VERTEX
  8
0
 10
3.28634985
 20
3.92215017
  0
VERTEX
  8
0
 10
3.28251324
 20
3.91954401
  0
VERTEX
  8
0
 10
3.27614082
 20
3.91758840
  0
VERTEX
  8
0
 10
3.26723025
 20
3.91602913
  0
VERTEX
  8
0
 10
3.26236232
 20
3.91492263
  0
VERTEX
  8
0
 10
3.25797643
 20
3.91309875
  0
VERTEX
  8
0
 10
3.25408583
 20
3.91062609
  0
VERTEX
  8
0
 10
3.25070375
 20
3.90757322
  0
VERTEX
  8
0
 10
3.24551818
 20
3.90000124
  0
VERTEX
  8
0
 10
3.24252566
 20
3.89093152
  0
VERTEX
  8
0
 10
3.24183216
 20
3.88091276
  0
VERTEX
  8
0
 10
3.24354363
 20
3.87049369
  0
VERTEX
  8
0
 10
3.24776604
 20
3.86022299
  0
VERTEX
  8
0
 10
3.25460535
 20
3.85064939
  0
VERTEX
  8
0
 10
3.26244231
 20
3.84111930
  0
VERTEX
  8
0
 10
3.26443460
 20
3.83748721
  0
VERTEX
  8
0
 10
3.26515106
 20
3.83429663
  0
VERTEX
  8
0
 10
3.26459792
 20
3.83131218
  0
VERTEX
  8
0
 10
3.26278140
 20
3.82829852
  0
VERTEX
  8
0
 10
3.25538311
 20
3.82124212
  0
VERTEX
  8
0
 10
3.24920650
 20
3.81489362
  0
VERTEX
  8
0
 10
3.24478361
 20
3.80773615
  0
VERTEX
  8
0
 10
3.24211557
 20
3.80004105
  0
VERTEX
  8
0
 10
3.24120354
 20
3.79207968
  0
VERTEX
  8
0
 10
3.24204866
 20
3.78412338
  0
VERTEX
  8
0
 10
3.24465208
 20
3.77644350
  0
VERTEX
  8
0
 10
3.24901494
 20
3.76931140
  0
VERTEX
  8
0
 10
3.25513838
 20
3.76299842
  0
VERTEX
  8
0
 10
3.25833980
 20
3.75957307
  0
VERTEX
  8
0
 10
3.26119360
 20
3.75494829
  0
VERTEX
  8
0
 10
3.26576061
 20
3.74247573
  0
VERTEX
  8
0
 10
3.26864408
 20
3.72633144
  0
VERTEX
  8
0
 10
3.26964864
 20
3.70726610
  0
VERTEX
  8
0
 10
3.26964864
 20
3.66357616
  0
VERTEX
  8
0
 10
3.21402591
 20
3.66951541
  0
VERTEX
  8
0
 10
3.14039495
 20
3.67811409
  0
VERTEX
  8
0
 10
3.13653924
 20
3.67825793
  0
VERTEX
  8
0
 10
3.13251651
 20
3.67763118
  0
VERTEX
  8
0
 10
3.12443437
 20
3.67433290
  0
VERTEX
  8
0
 10
3.11707740
 20
3.66875332
  0
VERTEX
  8
0
 10
3.11137442
 20
3.66142649
  0
VERTEX
  8
0
 10
3.09777151
 20
3.63787594
  0
VERTEX
  8
0
 10
3.09587766
 20
3.63769579
  0
VERTEX
  8
0
 10
3.09145654
 20
3.63881184
  0
VERTEX
  8
0
 10
3.07617877
 20
3.64446751
  0
VERTEX
  8
0
 10
3.05423061
 20
3.65391295
  0
VERTEX
  8
0
 10
3.02790453
 20
3.66621817
  0
VERTEX
  8
0
 10
2.99021996
 20
3.68385819
  0
VERTEX
  8
0
 10
2.97753852
 20
3.68889277
  0
VERTEX
  8
0
 10
2.96786306
 20
3.69161472
  0
VERTEX
  8
0
 10
2.96036763
 20
3.69218228
  0
VERTEX
  8
0
 10
2.95422629
 20
3.69075367
  0
VERTEX
  8
0
 10
2.94861310
 20
3.68748713
  0
VERTEX
  8
0
 10
2.94270212
 20
3.68254090
  0
VERTEX
  8
0
 10
2.93691462
 20
3.67757298
  0
VERTEX
  8
0
 10
2.93187173
 20
3.67422778
  0
VERTEX
  8
0
 10
2.92702992
 20
3.67262687
  0
VERTEX
  8
0
 10
2.92184566
 20
3.67289182
  0
VERTEX
  8
0
 10
2.91577541
 20
3.67514422
  0
VERTEX
  8
0
 10
2.90827563
 20
3.67950565
  0
VERTEX
  8
0
 10
2.88681336
 20
3.69504189
  0
VERTEX
  8
0
 10
2.87244558
 20
3.70501681
  0
VERTEX
  8
0
 10
2.85854222
 20
3.71294534
  0
VERTEX
  8
0
 10
2.84537683
 20
3.71876710
  0
VERTEX
  8
0
 10
2.83322292
 20
3.72242171
  0
VERTEX
  8
0
 10
2.82235404
 20
3.72384879
  0
VERTEX
  8
0
 10
2.81304371
 20
3.72298797
  0
VERTEX
  8
0
 10
2.80556545
 20
3.71977887
  0
VERTEX
  8
0
 10
2.80259883
 20
3.71727484
  0
VERTEX
  8
0
 10
2.80019280
 20
3.71416111
  0
VERTEX
  8
0
 10
2.79822940
 20
3.71174492
  0
VERTEX
  8
0
 10
2.79595056
 20
3.71021618
  0
VERTEX
  8
0
 10
2.79342781
 20
3.70950485
  0
VERTEX
  8
0
 10
2.79073262
 20
3.70954092
  0
VERTEX
  8
0
 10
2.78511098
 20
3.71157517
  0
VERTEX
  8
0
 10
2.77965763
 20
3.71575874
  0
VERTEX
  8
0
 10
2.77494458
 20
3.72153146
  0
VERTEX
  8
0
 10
2.77154383
 20
3.72833316
  0
VERTEX
  8
0
 10
2.77002737
 20
3.73560367
  0
VERTEX
  8
0
 10
2.77096720
 20
3.74278280
  0
VERTEX
  8
0
 10
2.77142608
 20
3.74518986
  0
VERTEX
  8
0
 10
2.77071349
 20
3.74611653
  0
VERTEX
  8
0
 10
2.76892656
 20
3.74563686
  0
VERTEX
  8
0
 10
2.76616248
 20
3.74382486
  0
VERTEX
  8
0
 10
2.75809146
 20
3.73650003
  0
VERTEX
  8
0
 10
2.74727772
 20
3.72473427
  0
VERTEX
  8
0
 10
2.73312587
 20
3.70959051
  0
VERTEX
  8
0
 10
2.72736681
 20
3.70455080
  0
VERTEX
  8
0
 10
2.72234204
 20
3.70111812
  0
VERTEX
  8
0
 10
2.71794384
 20
3.69923166
  0
VERTEX
  8
0
 10
2.71406450
 20
3.69883063
  0
VERTEX
  8
0
 10
2.71059630
 20
3.69985420
  0
VERTEX
  8
0
 10
2.70743152
 20
3.70224158
  0
VERTEX
  8
0
 10
2.70467059
 20
3.70603933
  0
VERTEX
  8
0
 10
2.70263013
 20
3.71110490
  0
VERTEX
  8
0
 10
2.70128892
 20
3.71733148
  0
VERTEX
  8
0
 10
2.70062577
 20
3.72461227
  0
VERTEX
  8
0
 10
2.70124877
 20
3.74190926
  0
VERTEX
  8
0
 10
2.70432946
 20
3.76214144
  0
VERTEX
  8
0
 10
2.70969814
 20
3.78445437
  0
VERTEX
  8
0
 10
2.71718515
 20
3.80799360
  0
VERTEX
  8
0
 10
2.72662080
 20
3.83190470
  0
VERTEX
  8
0
 10
2.73783540
 20
3.85533324
  0
VERTEX
  8
0
 10
2.74696471
 20
3.87391183
  0
VERTEX
  8
0
 10
2.75365038
 20
3.89024791
  0
VERTEX
  8
0
 10
2.75788850
 20
3.90426915
  0
VERTEX
  8
0
 10
2.75967518
 20
3.91590324
  0
VERTEX
  8
0
 10
2.75900649
 20
3.92507786
  0
VERTEX
  8
0
 10
2.75775015
 20
3.92872027
  0
VERTEX
  8
0
 10
2.75587852
 20
3.93172069
  0
VERTEX
  8
0
 10
2.75339108
 20
3.93407009
  0
VERTEX
  8
0
 10
2.75028736
 20
3.93575942
  0
VERTEX
  8
0
 10
2.74656686
 20
3.93677965
  0
VERTEX
  8
0
 10
2.74222910
 20
3.93712174
  0
VERTEX
  8
0
 10
2.73863091
 20
3.93630353
  0
VERTEX
  8
0
 10
2.73403095
 20
3.93390498
  0
VERTEX
  8
0
 10
2.72212076
 20
3.92470323
  0
VERTEX
  8
0
 10
2.70708850
 20
3.91018926
  0
VERTEX
  8
0
 10
2.68952415
 20
3.89103585
  0
VERTEX
  8
0
 10
2.67001769
 20
3.86791579
  0
VERTEX
  8
0
 10
2.64915910
 20
3.84150185
  0
VERTEX
  8
0
 10
2.62753836
 20
3.81246681
  0
VERTEX
  8
0
 10
2.60574545
 20
3.78148346
  0
VERTEX
  8
0
 10
2.58302495
 20
3.74988791
  0
VERTEX
  8
0
 10
2.57359392
 20
3.73829980
  0
VERTEX
  8
0
 10
2.56518385
 20
3.72925730
  0
VERTEX
  8
0
 10
2.55759584
 20
3.72256478
  0
VERTEX
  8
0
 10
2.55063101
 20
3.71802661
  0
VERTEX
  8
0
 10
2.54409044
 20
3.71544717
  0
VERTEX
  8
0
 10
2.53777525
 20
3.71463083
  0
VERTEX
  8
0
 10
2.53281982
 20
3.71424909
  0
VERTEX
  8
0
 10
2.52827330
 20
3.71311742
  0
VERTEX
  8
0
 10
2.52414208
 20
3.71125617
  0
VERTEX
  8
0
 10
2.52043257
 20
3.70868569
  0
VERTEX
  8
0
 10
2.51715116
 20
3.70542631
  0
VERTEX
  8
0
 10
2.51430425
 20
3.70149837
  0
VERTEX
  8
0
 10
2.50993949
 20
3.69171821
  0
VERTEX
  8
0
 10
2.50738949
 20
3.67950796
  0
VERTEX
  8
0
 10
2.50670541
 20
3.66503034
  0
VERTEX
  8
0
 10
2.50793842
 20
3.64844812
  0
VERTEX
  8
0
 10
2.51113969
 20
3.62992402
  0
VERTEX
  8
0
 10
2.51396834
 20
3.61368992
  0
VERTEX
  8
0
 10
2.51588337
 20
3.59625744
  0
VERTEX
  8
0
 10
2.51671561
 20
3.57971864
  0
VERTEX
  8
0
 10
2.51629587
 20
3.56616558
  0
VERTEX
  8
0
 10
2.51604479
 20
3.55820495
  0
VERTEX
  8
0
 10
2.51702861
 20
3.55060183
  0
VERTEX
  8
0
 10
2.51945187
 20
3.54301915
  0
VERTEX
  8
0
 10
2.52351911
 20
3.53511981
  0
VERTEX
  8
0
 10
2.52943487
 20
3.52656673
  0
VERTEX
  8
0
 10
2.53740368
 20
3.51702282
  0
VERTEX
  8
0
 10
2.56031860
 20
3.49361418
  0
VERTEX
  8
0
 10
2.58133062
 20
3.47483261
  0
VERTEX
  8
0
 10
2.60402320
 20
3.45696390
  0
VERTEX
  8
0
 10
2.62566613
 20
3.44202827
  0
VERTEX
  8
0
 10
2.64352922
 20
3.43204592
  0
VERTEX
  8
0
 10
2.65902418
 20
3.42330791
  0
VERTEX
  8
0
 10
2.67422040
 20
3.41176045
  0
VERTEX
  8
0
 10
2.68737213
 20
3.39890627
  0
VERTEX
  8
0
 10
2.69263576
 20
3.39245876
  0
VERTEX
  8
0
 10
2.69673359
 20
3.38624810
  0
VERTEX
  8
0
 10
2.70413499
 20
3.37453965
  0
VERTEX
  8
0
 10
2.71195112
 20
3.36427137
  0
VERTEX
  8
0
 10
2.71925086
 20
3.35655104
  0
VERTEX
  8
0
 10
2.72510312
 20
3.35248644
  0
VERTEX
  8
0
 10
2.73086295
 20
3.35176952
  0
VERTEX
  8
0
 10
2.74147129
 20
3.35199917
  0
VERTEX
  8
0
 10
2.77495204
 20
3.35495250
  0
VERTEX
  8
0
 10
2.82098251
 20
3.36065509
  0
VERTEX
  8
0
 10
2.87499982
 20
3.36841561
  0
VERTEX
  8
0
 10
2.93244111
 20
3.37754271
  0
VERTEX
  8
0
 10
2.98874350
 20
3.38734506
  0
VERTEX
  8
0
 10
3.03934412
 20
3.39713133
  0
VERTEX
  8
0
 10
3.07968010
 20
3.40621017
  0
VERTEX
  8
0
 10
3.14941392
 20
3.42488296
  0
VERTEX
  8
0
 10
3.17894240
 20
3.43383550
  0
VERTEX
  8
0
 10
3.20619932
 20
3.44298817
  0
VERTEX
  8
0
 10
3.23215022
 20
3.45268300
  0
VERTEX
  8
0
 10
3.25776065
 20
3.46326201
  0
VERTEX
  8
0
 10
3.28399615
 20
3.47506724
  0
VERTEX
  8
0
 10
3.31182227
 20
3.48844070
  0
VERTEX
  8
0
 10
3.33891247
 20
3.50114519
  0
VERTEX
  8
0
 10
3.36361863
 20
3.51154906
  0
VERTEX
  8
0
 10
3.38321283
 20
3.51857870
  0
VERTEX
  8
0
 10
3.39496712
 20
3.52116049
  0
VERTEX
  8
0
 10
3.40008635
 20
3.52153195
  0
VERTEX
  8
0
 10
3.40503798
 20
3.52266637
  0
VERTEX
  8
0
 10
3.40984108
 20
3.52459379
  0
VERTEX
  8
0
 10
3.41451468
 20
3.52734426
  0
VERTEX
  8
0
 10
3.42354958
 20
3.53543455
  0
VERTEX
  8
0
 10
3.43229506
 20
3.54717763
  0
VERTEX
  8
0
 10
3.44090351
 20
3.56281388
  0
VERTEX
  8
0
 10
3.44952732
 20
3.58258368
  0
VERTEX
  8
0
 10
3.45831885
 20
3.60672743
  0
VERTEX
  8
0
 10
3.46743049
 20
3.63548551
  0
VERTEX
  8
0
 10
3.48062589
 20
3.68260982
  0
VERTEX
  8
0
 10
3.49115648
 20
3.72780722
  0
VERTEX
  8
0
 10
3.49921234
 20
3.77306191
  0
VERTEX
  8
0
 10
3.50498356
 20
3.82035808
  0
VERTEX
  8
0
 10
3.50866022
 20
3.87167992
  0
VERTEX
  8
0
 10
3.51043242
 20
3.92901163
  0
VERTEX
  8
0
 10
3.51049022
 20
3.99433739
  0
VERTEX
  8
0
 10
3.50902372
 20
4.06964141
  0
VERTEX
  8
0
 10
3.50637485
 20
4.20833475
  0
VERTEX
  8
0
 10
3.50639416
 20
4.25052575
  0
VERTEX
  8
0
 10
3.50738113
 20
4.26602136
  0
VERTEX
  8
0
 10
3.50990110
 20
4.26527485
  0
VERTEX
  8
0
 10
3.51252290
 20
4.26309837
  0
VERTEX
  8
0
 10
3.51796371
 20
4.25483368
  0
VERTEX
  8
0
 10
3.52348702
 20
4.24198369
  0
VERTEX
  8
0
 10
3.52887631
 20
4.22530483
  0
VERTEX
  8
0
 10
3.53391503
 20
4.20555351
  0
VERTEX
  8
0
 10
3.53838667
 20
4.18348613
  0
VERTEX
  8
0
 10
3.54207468
 20
4.15985911
  0
VERTEX
  8
0
 10
3.54476253
 20
4.13542887
  0
VERTEX
  8
0
 10
3.55378864
 20
4.05235753
  0
VERTEX
  8
0
 10
3.56613617
 20
3.96130555
  0
VERTEX
  8
0
 10
3.57915552
 20
3.89057054
  0
VERTEX
  8
0
 10
3.60294740
 20
3.77449322
  0
VERTEX
  8
0
 10
3.63440924
 20
3.62710732
  0
VERTEX
  8
0
 10
3.67043845
 20
3.46244653
  0
VERTEX
  8
0
 10
3.70793248
 20
3.29454457
  0
VERTEX
  8
0
 10
3.74378875
 20
3.13743517
  0
VERTEX
  8
0
 10
3.77490469
 20
3.00515203
  0
VERTEX
  8
0
 10
3.79817774
 20
2.91172887
  0
VERTEX
  8
0
 10
3.83754606
 20
2.75999366
  0
VERTEX
  8
0
 10
3.83793660
 20
2.75388518
  0
VERTEX
  8
0
 10
3.83680964
 20
2.74574124
  0
VERTEX
  8
0
 10
3.83420296
 20
2.73566349
  0
VERTEX
  8
0
 10
3.83015439
 20
2.72375357
  0
VERTEX
  8
0
 10
3.81788277
 20
2.69484378
  0
VERTEX
  8
0
 10
3.80029721
 20
2.65982504
  0
VERTEX
  8
0
 10
3.78629608
 20
2.63474330
  0
VERTEX
  8
0
 10
3.77123669
 20
2.61111967
  0
VERTEX
  8
0
 10
3.75300762
 20
2.58657164
  0
VERTEX
  8
0
 10
3.72949745
 20
2.55871674
  0
VERTEX
  8
0
 10
3.69859474
 20
2.52517246
  0
VERTEX
  8
0
 10
3.65818807
 20
2.48355631
  0
VERTEX
  8
0
 10
3.54041716
 20
2.36657843
  0
VERTEX
  8
0
 10
3.44665521
 20
2.27529758
  0
VERTEX
  8
0
 10
3.35711680
 20
2.19010311
  0
VERTEX
  8
0
 10
3.27162986
 20
2.11086856
  0
VERTEX
  8
0
 10
3.19002233
 20
2.03746747
  0
VERTEX
  8
0
 10
3.11212214
 20
1.96977337
  0
VERTEX
  8
0
 10
3.03775725
 20
1.90765978
  0
VERTEX
  8
0
 10
2.96675557
 20
1.85100026
  0
VERTEX
  8
0
 10
2.89894507
 20
1.79966832
  0
VERTEX
  8
0
 10
2.83415366
 20
1.75353751
  0
VERTEX
  8
0
 10
2.77220930
 20
1.71248135
  0
VERTEX
  8
0
 10
2.71293992
 20
1.67637339
  0
VERTEX
  8
0
 10
2.68425458
 20
1.66013546
  0
VERTEX
  8
0
 10
2.65617346
 20
1.64508715
  0
VERTEX
  8
0
 10
2.62867506
 20
1.63121266
  0
VERTEX
  8
0
 10
2.60173786
 20
1.61849617
  0
VERTEX
  8
0
 10
2.57534036
 20
1.60692188
  0
VERTEX
  8
0
 10
2.54946106
 20
1.59647398
  0
VERTEX
  8
0
 10
2.52407843
 20
1.58713666
  0
VERTEX
  8
0
 10
2.49917099
 20
1.57889412
  0
VERTEX
  8
0
 10
2.47471721
 20
1.57173054
  0
VERTEX
  8
0
 10
2.45069559
 20
1.56563011
  0
VERTEX
  8
0
 10
2.35308323
 20
1.54215394
  0
VERTEX
  8
0
 10
2.35073640
 20
1.54103236
  0
VERTEX
  8
0
 10
2.34862394
 20
1.53913917
  0
VERTEX
  8
0
 10
2.34513494
 20
1.53342230
  0
VERTEX
  8
0
 10
2.34268175
 20
1.52577194
  0
VERTEX
  8
0
 10
2.34132990
 20
1.51695673
  0
VERTEX
  8
0
 10
2.34114492
 20
1.50774532
  0
VERTEX
  8
0
 10
2.34219233
 20
1.49890632
  0
VERTEX
  8
0
 10
2.34453767
 20
1.49120838
  0
VERTEX
  8
0
 10
2.34824647
 20
1.48542014
  0
VERTEX
  8
0
 10
2.35206294
 20
1.48316896
  0
VERTEX
  8
0
 10
2.35834207
 20
1.48159625
  0
VERTEX
  8
0
 10
2.36684873
 20
1.48067208
  0
VERTEX
  8
0
 10
2.37734779
 20
1.48036651
  0
VERTEX
  8
0
 10
2.40338258
 20
1.48149143
  0
VERTEX
  8
0
 10
2.43456538
 20
1.48473152
  0
VERTEX
  8
0
 10
2.46901515
 20
1.48984730
  0
VERTEX
  8
0
 10
2.50485084
 20
1.49659928
  0
VERTEX
  8
0
 10
2.54019138
 20
1.50474799
  0
VERTEX
  8
0
 10
2.57315574
 20
1.51405393
  0
SEQEND
  0
POLYLINE
  8
0
 66
   1
 70
    1
  0
VERTEX
  8
0
 10
4.84650748
 20
3.49455832
  0
VERTEX
  8
0
 10
4.87552805
 20
3.64609175
  0
VERTEX
  8
0
 10
4.89597048
 20
3.75345481
  0
VERTEX
  8
0
 10
4.90447314
 20
3.80218751
  0
VERTEX
  8
0
 10
4.89998142
 20
3.80713624
  0
VERTEX
  8
0
 10
4.88710804
 20
3.81860865
  0
VERTEX
  8
0
 10
4.83982683
 20
3.85815928
  0
VERTEX
  8
0
 10
4.76985065
 20
3.91490890
  0
VERTEX
  8
0
 10
4.68440062
 20
3.98292704
  0
VERTEX
  8
0
 10
4.46432808
 20
4.15668583
  0
VERTEX
  8
0
 10
4.37968481
 20
4.16251512
  0
VERTEX
  8
0
 10
4.34681940
 20
4.16437196
  0
VERTEX
  8
0
 10
4.31990548
 20
4.16511858
  0
VERTEX
  8
0
 10
4.30172040
 20
4.16473275
  0
VERTEX
  8
0
 10
4.29676910
 20
4.16410822
  0
VERTEX
  8
0
 10
4.29504151
 20
4.16319225
  0
VERTEX
  8
0
 10
4.30082647
 20
4.15408047
  0
VERTEX
  8
0
 10
4.31653722
 20
4.13322075
  0
VERTEX
  8
0
 10
4.36787150
 20
4.06848441
  0
VERTEX
  8
0
 10
4.42931509
 20
3.99343694
  0
VERTEX
  8
0
 10
4.48113873
 20
3.93253205
  0
VERTEX
  8
0
 10
4.49580993
 20
3.91484070
  0
VERTEX
  8
0
 10
4.50878728
 20
3.89688296
  0
VERTEX
  8
0
 10
4.51998993
 20
3.87883106
  0
VERTEX
  8
0
 10
4.52933703
 20
3.86085725
  0
VERTEX
  8
0
 10
4.53674774
 20
3.84313376
  0
VERTEX
  8
0
 10
4.54214120
 20
3.82583283
  0
VERTEX
  8
0
 10
4.54543656
 20
3.80912671
  0
VERTEX
  8
0
 10
4.54655298
 20
3.79318763
  0
VERTEX
  8
0
 10
4.54731449
 20
3.78444174
  0
VERTEX
  8
0
 10
4.54996278
 20
3.77571673
  0
VERTEX
  8
0
 10
4.55504354
 20
3.76637005
  0
VERTEX
  8
0
 10
4.56310244
 20
3.75575910
  0
VERTEX
  8
0
 10
4.57468516
 20
3.74324132
  0
VERTEX
  8
0
 10
4.59033739
 20
3.72817413
  0
VERTEX
  8
0
 10
4.63603304
 20
3.68782119
  0
VERTEX
  8
0
 10
4.67497461
 20
3.65336464
  0
VERTEX
  8
0
 10
4.71485708
 20
3.61638928
  0
VERTEX
  8
0
 10
4.75099863
 20
3.58133119
  0
VERTEX
  8
0
 10
4.77871744
 20
3.55262643
  0
VERTEX
  8
0
 10
4.80837749
 20
3.52112379
  0
VERTEX
  8
0
 10
4.82947993
 20
3.50101558
  0
VERTEX
  8
0
 10
4.83686076
 20
3.49520125
  0
VERTEX
  8
0
 10
4.84214863
 20
3.49219576
  0
VERTEX
  8
0
 10
4.84535905
 20
3.49198587
  0
VERTEX
  8
0
 10
4.84619004
 20
3.49292513
  0
VERTEX
  8
0
 10
4.84650748
 20
3.49455832
  0
SEQEND
  0
POLYLINE
  8
0
 66
   1
 70
    1
  0
VERTEX
  8
0
 10
3.09848251
 20
3.81570421
  0
VERTEX
  8
0
 10
3.10187647
 20
3.82054518
  0
VERTEX
  8
0
 10
3.10503756
 20
3.82805039
  0
VERTEX
  8
0
 10
3.10796689
 20
3.83822585
  0
VERTEX
  8
0
 10
3.11066558
 20
3.85107761
  0
VERTEX
  8
0
 10
3.11537547
 20
3.88483408
  0
VERTEX
  8
0
 10
3.11917610
 20
3.92936804
  0
VERTEX
  8
0
 10
3.12211941
 20
3.98392369
  0
VERTEX
  8
0
 10
3.12227325
 20
4.00374428
  0
VERTEX
  8
0
 10
3.12140259
 20
4.02014359
  0
VERTEX
  8
0
 10
3.11939801
 20
4.03428429
  0
VERTEX
  8
0
 10
3.11615004
 20
4.04732906
  0
VERTEX
  8
0
 10
3.11154923
 20
4.06044055
  0
VERTEX
  8
0
 10
3.10548614
 20
4.07478144
  0
VERTEX
  8
0
 10
3.08511275
 20
4.12054270
  0
VERTEX
  8
0
 10
2.99034226
 20
4.01190356
  0
VERTEX
  8
0
 10
2.95362895
 20
3.96918788
  0
VERTEX
  8
0
 10
2.92573316
 20
3.93491920
  0
VERTEX
  8
0
 10
2.90610836
 20
3.90786923
  0
VERTEX
  8
0
 10
2.89922680
 20
3.89666743
  0
VERTEX
  8
0
 10
2.89420804
 20
3.88680971
  0
VERTEX
  8
0
 10
2.89098378
 20
3.87814253
  0
VERTEX
  8
0
 10
2.88948569
 20
3.87051237
  0
VERTEX
  8
0
 10
2.88964546
 20
3.86376567
  0
VERTEX
  8
0
 10
2.89139478
 20
3.85774892
  0
VERTEX
  8
0
 10
2.89466533
 20
3.85230857
  0
VERTEX
  8
0
 10
2.89938880
 20
3.84729109
  0
VERTEX
  8
0
 10
2.90549687
 20
3.84254296
  0
VERTEX
  8
0
 10
2.91292124
 20
3.83791062
  0
VERTEX
  8
0
 10
2.92713556
 20
3.83134820
  0
VERTEX
  8
0
 10
2.94410793
 20
3.82595190
  0
VERTEX
  8
0
 10
2.96170896
 20
3.82228017
  0
VERTEX
  8
0
 10
2.97780925
 20
3.82089144
  0
VERTEX
  8
0
 10
2.99273478
 20
3.82009401
  0
VERTEX
  8
0
 10
3.00713730
 20
3.81803227
  0
VERTEX
  8
0
 10
3.01937615
 20
3.81501875
  0
VERTEX
  8
0
 10
3.02781068
 20
3.81136604
  0
VERTEX
  8
0
 10
3.03629725
 20
3.80694769
  0
VERTEX
  8
0
 10
3.04557241
 20
3.80398898
  0
VERTEX
  8
0
 10
3.05529150
 20
3.80246874
  0
VERTEX
  8
0
 10
3.06510984
 20
3.80236583
  0
VERTEX
  8
0
 10
3.07468278
 20
3.80365907
  0
VERTEX
  8
0
 10
3.08366564
 20
3.80632732
  0
VERTEX
  8
0
 10
3.09171377
 20
3.81034942
  0
VERTEX
  8
0
 10
3.09848251
 20
3.81570421
  0
SEQEND
  0
POLYLINE
  8
0
 66
   1
 70
    1
  0
VERTEX
  8
0
 10
5.50927020
 20
4.60519957
  0
VERTEX
  8
0
 10
5.55281947
 20
4.73724526
  0
VERTEX
  8
0
 10
5.58781758
 20
4.84604402
  0
VERTEX
  8
0
 10
5.61070015
 20
4.92032137
  0
VERTEX
  8
0
 10
5.61648425
 20
4.94099124
  0
VERTEX
  8
0
 10
5.61790283
 20
4.94880281
  0
VERTEX
  8
0
 10
5.61005538
 20
4.95099363
  0
VERTEX
  8
0
 10
5.59195979
 20
4.95368759
  0
VERTEX
  8
0
 10
5.53579981
 20
4.95921799
  0
VERTEX
  8
0
 10
5.45812147
 20
4.96520814
  0
VERTEX
  8
0
 10
5.36993089
 20
4.69407551
  0
VERTEX
  8
0
 10
5.30764663
 20
4.50009294
  0
VERTEX
  8
0
 10
5.28869925
 20
4.43914099
  0
VERTEX
  8
0
 10
5.28174034
 20
4.41444891
  0
VERTEX
  8
0
 10
5.28505526
 20
4.40734752
  0
VERTEX
  8
0
 10
5.29408097
 20
4.39429096
  0
VERTEX
  8
0
 10
5.30743891
 20
4.37713955
  0
VERTEX
  8
0
 10
5.32375051
 20
4.35775360
  0
VERTEX
  8
0
 10
5.34097215
 20
4.33732047
  0
VERTEX
  8
0
 10
5.35680806
 20
4.31731776
  0
VERTEX
  8
0
 10
5.36950141
 20
4.30004127
  0
VERTEX
  8
0
 10
5.37729535
 20
4.28778677
  0
VERTEX
  8
0
 10
5.38652596
 20
4.27241495
  0
VERTEX
  8
0
 10
5.39017791
 20
4.26773879
  0
VERTEX
  8
0
 10
5.39252147
 20
4.26602136
  0
VERTEX
  8
0
 10
5.40287526
 20
4.29278464
  0
VERTEX
  8
0
 10
5.42833852
 20
4.36565497
  0
VERTEX
  8
0
 10
5.50927020
 20
4.60519957
  0
SEQEND
  0
POLYLINE
  8
0
 66
   1
 70
    1
  0
VERTEX
  8
0
 10
6.59734651
 20
5.80652911
  0
VERTEX
  8
0
 10
6.59923720
 20
6.45816147
  0
VERTEX
  8
0
 10
6.60377457
 20
7.16565843
  0
VERTEX
  8
0
 10
6.61019585
 20
7.91293769
  0
VERTEX
  8
0
 10
5.15515848
 20
7.91255218
  0
VERTEX
  8
0
 10
4.31625386
 20
7.91202668
  0
VERTEX
  8
0
 10
4.05913463
 20
7.91124919
  0
VERTEX
  8
0
 10
3.88827737
 20
7.90982917
  0
VERTEX
  8
0
 10
3.78721199
 20
7.90754208
  0
VERTEX
  8
0
 10
3.75770436
 20
7.90600322
  0
VERTEX
  8
0
 10
3.73946843
 20
7.90416340
  0
VERTEX
  8
0
 10
3.73044544
 20
7.90199454
  0
VERTEX
  8
0
 10
3.72874543
 20
7.90077795
  0
VERTEX
  8
0
 10
3.72857662
 20
7.89946858
  0
VERTEX
  8
0
 10
3.73180323
 20
7.89655746
  0
VERTEX
  8
0
 10
3.73806650
 20
7.89323310
  0
VERTEX
  8
0
 10
3.75667538
 20
7.88328232
  0
VERTEX
  8
0
 10
3.77929309
 20
7.87018489
  0
VERTEX
  8
0
 10
3.82512816
 20
7.84135868
  0
VERTEX
  8
0
 10
3.87424351
 20
7.80841773
  0
VERTEX
  8
0
 10
4.55804804
 20
7.80253343
  0
VERTEX
  8
0
 10
5.05323663
 20
7.79707325
  0
VERTEX
  8
0
 10
5.21341014
 20
7.79439703
  0
VERTEX
  8
0
 10
5.28356189
 20
7.79220850
  0
VERTEX
  8
0
 10
5.31616764
 20
7.79009535
  0
VERTEX
  8
0
 10
5.37411325
 20
7.78762430
  0
VERTEX
  8
0
 10
5.53325181
 20
7.78283833
  0
VERTEX
  8
0
 10
5.70352316
 20
7.77790763
  0
VERTEX
  8
0
 10
5.85243764
 20
7.77203222
  0
VERTEX
  8
0
 10
5.95710212
 20
7.76626336
  0
VERTEX
  8
0
 10
5.98568650
 20
7.76374739
  0
VERTEX
  8
0
 10
5.99278976
 20
7.76263902
  0
VERTEX
  8
0
 10
5.99462346
 20
7.76165229
  0
VERTEX
  8
0
 10
5.96443043
 20
7.75435101
  0
VERTEX
  8
0
 10
5.88458140
 20
7.73683021
  0
VERTEX
  8
0
 10
5.62449435
 20
7.68163254
  0
VERTEX
  8
0
 10
5.17410214
 20
7.58656587
  0
VERTEX
  8
0
 10
5.09064678
 20
7.56832779
  0
VERTEX
  8
0
 10
5.08474400
 20
7.62479619
  0
VERTEX
  8
0
 10
5.08101960
 20
7.65942899
  0
VERTEX
  8
0
 10
5.07749906
 20
7.68540096
  0
VERTEX
  8
0
 10
5.07331383
 20
7.70395828
  0
VERTEX
  8
0
 10
5.07070055
 20
7.71084587
  0
VERTEX
  8
0
 10
5.06759539
 20
7.71634710
  0
VERTEX
  8
0
 10
5.06388978
 20
7.72061776
  0
VERTEX
  8
0
 10
5.05947517
 20
7.72381361
  0
VERTEX
  8
0
 10
5.05424298
 20
7.72609041
  0
VERTEX
  8
0
 10
5.04808464
 20
7.72760395
  0
VERTEX
  8
0
 10
5.03255526
 20
7.72896430
  0
VERTEX
  8
0
 10
5.01201849
 20
7.72914082
  0
VERTEX
  8
0
 10
4.95721026
 20
7.72914082
  0
VERTEX
  8
0
 10
4.95744436
 20
7.64261288
  0
VERTEX
  8
0
 10
4.95676920
 20
7.60824573
  0
VERTEX
  8
0
 10
4.95475791
 20
7.57863619
  0
VERTEX
  8
0
 10
4.95172129
 20
7.55694363
  0
VERTEX
  8
0
 10
4.94991560
 20
7.55005352
  0
VERTEX
  8
0
 10
4.94797014
 20
7.54632741
  0
VERTEX
  8
0
 10
4.93851951
 20
7.54311512
  0
VERTEX
  8
0
 10
4.91437135
 20
7.53671193
  0
VERTEX
  8
0
 10
4.82962916
 20
7.51606714
  0
VERTEX
  8
0
 10
4.56788830
 20
7.45556388
  0
VERTEX
  8
0
 10
4.28509502
 20
7.39256614
  0
VERTEX
  8
0
 10
4.17403731
 20
7.36880326
  0
VERTEX
  8
0
 10
4.10359680
 20
7.35482244
  0
VERTEX
  8
0
 10
4.09311001
 20
7.35288446
  0
VERTEX
  8
0
 10
4.08530909
 20
7.35088316
  0
VERTEX
  8
0
 10
4.07989975
 20
7.34823353
  0
VERTEX
  8
0
 10
4.07658773
 20
7.34435056
  0
VERTEX
  8
0
 10
4.07507875
 20
7.33864923
  0
VERTEX
  8
0
 10
4.07507853
 20
7.33054455
  0
VERTEX
  8
0
 10
4.07842727
 20
7.30478508
  0
VERTEX
  8
0
 10
4.08553394
 20
7.26377661
  0
VERTEX
  8
0
 10
4.08912986
 20
7.24777358
  0
VERTEX
  8
0
 10
4.09275315
 20
7.23477452
  0
VERTEX
  8
0
 10
4.09640307
 20
7.22478179
  0
VERTEX
  8
0
 10
4.10007884
 20
7.21779778
  0
VERTEX
  8
0
 10
4.10377970
 20
7.21382485
  0
VERTEX
  8
0
 10
4.10750490
 20
7.21286538
  0
VERTEX
  8
0
 10
4.21839147
 20
7.23844762
  0
VERTEX
  8
0
 10
4.71916047
 20
7.35726294
  0
VERTEX
  8
0
 10
5.03203300
 20
7.43159475
  0
VERTEX
  8
0
 10
5.08021292
 20
7.38447900
  0
VERTEX
  8
0
 10
5.12227272
 20
7.34137383
  0
VERTEX
  8
0
 10
5.16673889
 20
7.29227388
  0
VERTEX
  8
0
 10
5.21202905
 20
7.23918801
  0
VERTEX
  8
0
 10
5.25656078
 20
7.18412509
  0
VERTEX
  8
0
 10
5.29875169
 20
7.12909395
  0
VERTEX
  8
0
 10
5.33701937
 20
7.07610348
  0
VERTEX
  8
0
 10
5.36978143
 20
7.02716251
  0
VERTEX
  8
0
 10
5.38360334
 20
7.00483837
  0
VERTEX
  8
0
 10
5.39545545
 20
6.98427992
  0
VERTEX
  8
0
 10
5.42118531
 20
6.93845164
  0
VERTEX
  8
0
 10
5.43436814
 20
6.91656531
  0
VERTEX
  8
0
 10
5.43666479
 20
6.91716448
  0
VERTEX
  8
0
 10
5.44159829
 20
6.92075993
  0
VERTEX
  8
0
 10
5.45814566
 20
6.93575640
  0
VERTEX
  8
0
 10
5.48154985
 20
6.95918819
  0
VERTEX
  8
0
 10
5.50935047
 20
6.98868874
  0
VERTEX
  8
0
 10
5.58008519
 20
7.06564895
  0
VERTEX
  8
0
 10
5.53352945
 20
7.11928126
  0
VERTEX
  8
0
 10
5.50396788
 20
7.15178810
  0
VERTEX
  8
0
 10
5.45789426
 20
7.20065007
  0
VERTEX
  8
0
 10
5.34142498
 20
7.32096800
  0
VERTEX
  8
0
 10
5.28581791
 20
7.37877412
  0
VERTEX
  8
0
 10
5.24200733
 20
7.42672036
  0
VERTEX
  8
0
 10
5.22590023
 20
7.44543638
  0
VERTEX
  8
0
 10
5.21439167
 20
7.45981586
  0
VERTEX
  8
0
 10
5.20803144
 20
7.46923494
  0
VERTEX
  8
0
 10
5.20695377
 20
7.47188937
  0
VERTEX
  8
0
 10
5.20736936
 20
7.47306975
  0
VERTEX
  8
0
 10
5.24532331
 20
7.48292015
  0
VERTEX
  8
0
 10
5.32043442
 20
7.50091951
  0
VERTEX
  8
0
 10
5.60069848
 20
7.56835109
  0
VERTEX
  8
0
 10
6.06384715
 20
7.68179902
  0
VERTEX
  8
0
 10
6.15598240
 20
7.70408300
  0
VERTEX
  8
0
 10
6.23271680
 20
7.72189578
  0
VERTEX
  8
0
 10
6.28604104
 20
7.73343011
  0
VERTEX
  8
0
 10
6.30142144
 20
7.73627807
  0
VERTEX
  8
0
 10
6.30794580
 20
7.73687869
  0
VERTEX
  8
0
 10
6.30808181
 20
7.73578019
  0
VERTEX
  8
0
 10
6.30677268
 20
7.73313692
  0
VERTEX
  8
0
 10
6.30009183
 20
7.72353944
  0
VERTEX
  8
0
 10
6.27238971
 20
7.68936427
  0
VERTEX
  8
0
 10
6.22920493
 20
7.63952695
  0
VERTEX
  8
0
 10
6.17490300
 20
7.57920131
  0
VERTEX
  8
0
 10
5.76159120
 20
7.12723141
  0
VERTEX
  8
0
 10
5.49663174
 20
6.83659978
  0
VERTEX
  8
0
 10
5.27542657
 20
6.59219346
  0
VERTEX
  8
0
 10
4.99337762
 20
6.27889946
  0
VERTEX
  8
0
 10
4.79084511
 20
6.05548636
  0
VERTEX
  8
0
 10
4.72745077
 20
5.98688492
  0
VERTEX
  8
0
 10
4.70204994
 20
5.96093132
  0
VERTEX
  8
0
 10
4.70035650
 20
5.96115956
  0
VERTEX
  8
0
 10
4.69853277
 20
5.96289808
  0
VERTEX
  8
0
 10
4.69472384
 20
5.97031739
  0
VERTEX
  8
0
 10
4.69108196
 20
5.98201212
  0
VERTEX
  8
0
 10
4.68806592
 20
5.99680518
  0
VERTEX
  8
0
 10
4.68245356
 20
6.02571291
  0
VERTEX
  8
0
 10
4.67442271
 20
6.05782313
  0
VERTEX
  8
0
 10
4.66414359
 20
6.09275651
  0
VERTEX
  8
0
 10
4.65178645
 20
6.13013370
  0
VERTEX
  8
0
 10
4.63752151
 20
6.16957536
  0
VERTEX
  8
0
 10
4.62151901
 20
6.21070214
  0
VERTEX
  8
0
 10
4.60394918
 20
6.25313471
  0
VERTEX
  8
0
 10
4.58498225
 20
6.29649372
  0
VERTEX
  8
0
 10
4.56478845
 20
6.34039982
  0
VERTEX
  8
0
 10
4.54353802
 20
6.38447368
  0
VERTEX
  8
0
 10
4.52140119
 20
6.42833595
  0
VERTEX
  8
0
 10
4.49854819
 20
6.47160729
  0
VERTEX
  8
0
 10
4.47514925
 20
6.51390836
  0
VERTEX
  8
0
 10
4.45137460
 20
6.55485981
  0
VERTEX
  8
0
 10
4.42739448
 20
6.59408230
  0
VERTEX
  8
0
 10
4.40337912
 20
6.63119649
  0
VERTEX
  8
0
 10
4.37052254
 20
6.67893294
  0
VERTEX
  8
0
 10
4.33267773
 20
6.73151407
  0
VERTEX
  8
0
 10
4.29253183
 20
6.78548488
  0
VERTEX
  8
0
 10
4.25277200
 20
6.83739039
  0
VERTEX
  8
0
 10
4.21608541
 20
6.88377558
  0
VERTEX
  8
0
 10
4.18515920
 20
6.92118548
  0
VERTEX
  8
0
 10
4.16268054
 20
6.94616508
  0
VERTEX
  8
0
 10
4.15544877
 20
6.95291383
  0
VERTEX
  8
0
 10
4.15133658
 20
6.95525939
  0
VERTEX
  8
0
 10
4.15042772
 20
6.95221560
  0
VERTEX
  8
0
 10
4.15058695
 20
6.94349202
  0
VERTEX
  8
0
 10
4.15380769
 20
6.91145214
  0
VERTEX
  8
0
 10
4.16039481
 20
6.86403313
  0
VERTEX
  8
0
 10
4.16974433
 20
6.80612835
  0
VERTEX
  8
0
 10
4.19526984
 20
6.65699742
  0
VERTEX
  8
0
 10
4.25536076
 20
6.56423747
  0
VERTEX
  8
0
 10
4.27789458
 20
6.52854400
  0
VERTEX
  8
0
 10
4.29975924
 20
6.49209880
  0
VERTEX
  8
0
 10
4.32089592
 20
6.45504066
  0
VERTEX
  8
0
 10
4.34124581
 20
6.41750837
  0
VERTEX
  8
0
 10
4.36075008
 20
6.37964072
  0
VERTEX
  8
0
 10
4.37934992
 20
6.34157651
  0
VERTEX
  8
0
 10
4.39698650
 20
6.30345452
  0
VERTEX
  8
0
 10
4.41360102
 20
6.26541355
  0
VERTEX
  8
0
 10
4.42913464
 20
6.22759238
  0
VERTEX
  8
0
 10
4.44352855
 20
6.19012980
  0
VERTEX
  8
0
 10
4.45672393
 20
6.15316462
  0
VERTEX
  8
0
 10
4.46866197
 20
6.11683561
  0
VERTEX
  8
0
 10
4.47928384
 20
6.08128157
  0
VERTEX
  8
0
 10
4.48853072
 20
6.04664128
  0
VERTEX
  8
0
 10
4.49634379
 20
6.01305355
  0
VERTEX
  8
0
 10
4.50266424
 20
5.98065716
  0
VERTEX
  8
0
 10
4.50902611
 20
5.93940360
  0
VERTEX
  8
0
 10
4.51357853
 20
5.89931153
  0
VERTEX
  8
0
 10
4.51632084
 20
5.86126515
  0
VERTEX
  8
0
 10
4.51725238
 20
5.82614864
  0
VERTEX
  8
0
 10
4.51637249
 20
5.79484619
  0
VERTEX
  8
0
 10
4.51368052
 20
5.76824198
  0
VERTEX
  8
0
 10
4.51165480
 20
5.75697802
  0
VERTEX
  8
0
 10
4.50917581
 20
5.74722020
  0
VERTEX
  8
0
 10
4.50624347
 20
5.73907903
  0
VERTEX
  8
0
 10
4.50285770
 20
5.73266504
  0
VERTEX
  8
0
 10
4.49844346
 20
5.72542426
  0
VERTEX
  8
0
 10
4.49562244
 20
5.71891661
  0
VERTEX
  8
0
 10
4.49458135
 20
5.71239088
  0
VERTEX
  8
0
 10
4.49550692
 20
5.70509587
  0
VERTEX
  8
0
 10
4.49858586
 20
5.69628038
  0
VERTEX
  8
0
 10
4.50400488
 20
5.68519320
  0
VERTEX
  8
0
 10
4.52261007
 20
5.65319892
  0
VERTEX
  8
0
 10
4.53758774
 20
5.62575395
  0
VERTEX
  8
0
 10
4.55291756
 20
5.59321469
  0
VERTEX
  8
0
 10
4.56680053
 20
5.55965195
  0
VERTEX
  8
0
 10
4.57743763
 20
5.52913654
  0
VERTEX
  8
0
 10
4.59783618
 20
5.46214287
  0
VERTEX
  8
0
 10
4.62205382
 20
5.49044246
  0
VERTEX
  8
0
 10
4.68704439
 20
5.56549582
  0
VERTEX
  8
0
 10
4.72781732
 20
5.61224968
  0
VERTEX
  8
0
 10
4.77503277
 20
5.58810049
  0
VERTEX
  8
0
 10
4.80001113
 20
5.57453221
  0
VERTEX
  8
0
 10
4.83311815
 20
5.55544070
  0
VERTEX
  8
0
 10
4.90646685
 20
5.51082980
  0
VERTEX
  8
0
 10
4.94416842
 20
5.48843447
  0
VERTEX
  8
0
 10
4.97907676
 20
5.47035676
  0
VERTEX
  8
0
 10
4.99483572
 20
5.46324470
  0
VERTEX
  8
0
 10
5.00911908
 20
5.45758128
  0
VERTEX
  8
0
 10
5.02166774
 20
5.45348955
  0
VERTEX
  8
0
 10
5.03222258
 20
5.45109262
  0
VERTEX
  8
0
 10
5.07576636
 20
5.44253841
  0
VERTEX
  8
0
 10
5.12212729
 20
5.43126203
  0
VERTEX
  8
0
 10
5.14820980
 20
5.42534003
  0
VERTEX
  8
0
 10
5.18274859
 20
5.41918479
  0
VERTEX
  8
0
 10
5.22247864
 20
5.41319144
  0
VERTEX
  8
0
 10
5.26413491
 20
5.40775513
  0
VERTEX
  8
0
 10
5.30445238
 20
5.40327098
  0
VERTEX
  8
0
 10
5.34016602
 20
5.40013413
  0
VERTEX
  8
0
 10
5.36801080
 20
5.39873972
  0
VERTEX
  8
0
 10
5.38472171
 20
5.39948287
  0
VERTEX
  8
0
 10
5.38725197
 20
5.40061189
  0
VERTEX
  8
0
 10
5.38824621
 20
5.40268825
  0
VERTEX
  8
0
 10
5.38776155
 20
5.40566948
  0
VERTEX
  8
0
 10
5.38585512
 20
5.40951314
  0
VERTEX
  8
0
 10
5.37800550
 20
5.41961789
  0
VERTEX
  8
0
 10
5.36515439
 20
5.43266284
  0
VERTEX
  8
0
 10
5.34775886
 20
5.44830834
  0
VERTEX
  8
0
 10
5.32627596
 20
5.46621473
  0
VERTEX
  8
0
 10
5.27287626
 20
5.50745156
  0
VERTEX
  8
0
 10
5.20861171
 20
5.55365607
  0
VERTEX
  8
0
 10
5.13713875
 20
5.60211102
  0
VERTEX
  8
0
 10
5.06211382
 20
5.65009915
  0
VERTEX
  8
0
 10
4.98719333
 20
5.69490321
  0
VERTEX
  8
0
 10
4.91011486
 20
5.73787140
  0
VERTEX
  8
0
 10
4.88489575
 20
5.75094248
  0
VERTEX
  8
0
 10
4.87352950
 20
5.75574313
  0
VERTEX
  8
0
 10
4.87056748
 20
5.75601863
  0
VERTEX
  8
0
 10
4.86847592
 20
5.75691831
  0
VERTEX
  8
0
 10
4.86733380
 20
5.75855195
  0
VERTEX
  8
0
 10
4.86722012
 20
5.76102936
  0
VERTEX
  8
0
 10
4.87039401
 20
5.76895458
  0
VERTEX
  8
0
 10
4.87862951
 20
5.78157227
  0
VERTEX
  8
0
 10
4.89255852
 20
5.79976071
  0
VERTEX
  8
0
 10
4.91281295
 20
5.82439819
  0
VERTEX
  8
0
 10
4.97482574
 20
5.89653345
  0
VERTEX
  8
0
 10
5.27906296
 20
6.24811094
  0
VERTEX
  8
0
 10
5.55592942
 20
6.57056000
  0
VERTEX
  8
0
 10
5.65251275
 20
6.68404689
  0
VERTEX
  8
0
 10
5.71706314
 20
6.64918178
  0
VERTEX
  8
0
 10
5.74715003
 20
6.63159050
  0
VERTEX
  8
0
 10
5.78135311
 20
6.60946686
  0
VERTEX
  8
0
 10
5.81546513
 20
6.58564065
  0
VERTEX
  8
0
 10
5.84527885
 20
6.56294162
  0
VERTEX
  8
0
 10
5.87791059
 20
6.53743777
  0
VERTEX
  8
0
 10
5.88940388
 20
6.52938920
  0
VERTEX
  8
0
 10
5.89823581
 20
6.52419857
  0
VERTEX
  8
0
 10
5.90482163
 20
6.52165764
  0
VERTEX
  8
0
 10
5.90957662
 20
6.52155816
  0
VERTEX
  8
0
 10
5.91291605
 20
6.52369190
  0
VERTEX
  8
0
 10
5.91525517
 20
6.52785063
  0
VERTEX
  8
0
 10
5.95581138
 20
6.63540506
  0
VERTEX
  8
0
 10
5.99005756
 20
6.72667540
  0
VERTEX
  8
0
 10
5.95754390
 20
6.75434788
  0
VERTEX
  8
0
 10
5.92660057
 20
6.77945398
  0
VERTEX
  8
0
 10
5.88258901
 20
6.81397139
  0
VERTEX
  8
0
 10
5.84044039
 20
6.84631346
  0
VERTEX
  8
0
 10
5.81508587
 20
6.86489353
  0
VERTEX
  8
0
 10
5.81876928
 20
6.87060635
  0
VERTEX
  8
0
 10
5.83069816
 20
6.88608153
  0
VERTEX
  8
0
 10
5.87581901
 20
6.94206227
  0
VERTEX
  8
0
 10
6.02679953
 20
7.12434852
  0
VERTEX
  8
0
 10
6.11062621
 20
7.22394170
  0
VERTEX
  8
0
 10
6.17975006
 20
7.30502296
  0
VERTEX
  8
0
 10
6.22700421
 20
7.35925897
  0
VERTEX
  8
0
 10
6.24019048
 20
7.37370584
  0
VERTEX
  8
0
 10
6.24522175
 20
7.37831640
  0
VERTEX
  8
0
 10
6.24452403
 20
7.37195271
  0
VERTEX
  8
0
 10
6.23895529
 20
7.35166732
  0
VERTEX
  8
0
 10
6.20637689
 20
7.24813652
  0
VERTEX
  8
0
 10
6.13383084
 20
7.02533407
  0
VERTEX
  8
0
 10
6.00766143
 20
6.64087003
  0
VERTEX
  8
0
 10
5.71960874
 20
5.76156783
  0
VERTEX
  8
0
 10
5.63085421
 20
5.48859281
  0
VERTEX
  8
0
 10
5.59751299
 20
5.38364344
  0
VERTEX
  8
0
 10
5.59893854
 20
5.38176208
  0
VERTEX
  8
0
 10
5.60345630
 20
5.37969958
  0
VERTEX
  8
0
 10
5.62006787
 20
5.37525497
  0
VERTEX
  8
0
 10
5.64394653
 20
5.37075725
  0
VERTEX
  8
0
 10
5.67169110
 20
5.36665406
  0
VERTEX
  8
0
 10
5.69990041
 20
5.36339304
  0
VERTEX
  8
0
 10
5.72517327
 20
5.36142182
  0
VERTEX
  8
0
 10
5.74410853
 20
5.36118805
  0
VERTEX
  8
0
 10
5.75013668
 20
5.36186259
  0
VERTEX
  8
0
 10
5.75330499
 20
5.36313936
  0
VERTEX
  8
0
 10
5.76344324
 20
5.39209511
  0
VERTEX
  8
0
 10
5.78782840
 20
5.46752393
  0
VERTEX
  8
0
 10
5.86454441
 20
5.71055443
  0
VERTEX
  8
0
 10
5.95386297
 20
5.99773812
  0
VERTEX
  8
0
 10
6.02619398
 20
6.23458226
  0
VERTEX
  8
0
 10
6.08159227
 20
6.41678840
  0
VERTEX
  8
0
 10
6.09642079
 20
6.46356526
  0
VERTEX
  8
0
 10
6.15582779
 20
6.45672873
  0
VERTEX
  8
0
 10
6.18690113
 20
6.45238667
  0
VERTEX
  8
0
 10
6.22022551
 20
6.44635454
  0
VERTEX
  8
0
 10
6.25477676
 20
6.43890205
  0
VERTEX
  8
0
 10
6.28953069
 20
6.43029890
  0
VERTEX
  8
0
 10
6.32346311
 20
6.42081478
  0
VERTEX
  8
0
 10
6.35554984
 20
6.41071940
  0
VERTEX
  8
0
 10
6.38476668
 20
6.40028246
  0
VERTEX
  8
0
 10
6.41008945
 20
6.38977365
  0
VERTEX
  8
0
 10
6.45984036
 20
6.36719246
  0
VERTEX
  8
0
 10
6.46417216
 20
6.43631661
  0
VERTEX
  8
0
 10
6.46514738
 20
6.46485199
  0
VERTEX
  8
0
 10
6.46443515
 20
6.48944332
  0
VERTEX
  8
0
 10
6.46218103
 20
6.50797265
  0
VERTEX
  8
0
 10
6.46052124
 20
6.51430221
  0
VERTEX
  8
0
 10
6.45853056
 20
6.51832204
  0
VERTEX
  8
0
 10
6.45236571
 20
6.52490650
  0
VERTEX
  8
0
 10
6.44394808
 20
6.53174253
  0
VERTEX
  8
0
 10
6.43343648
 20
6.53877182
  0
VERTEX
  8
0
 10
6.42098965
 20
6.54593603
  0
VERTEX
  8
0
 10
6.39092547
 20
6.56043593
  0
VERTEX
  8
0
 10
6.35502574
 20
6.57477564
  0
VERTEX
  8
0
 10
6.31456067
 20
6.58848854
  0
VERTEX
  8
0
 10
6.27080046
 20
6.60110803
  0
VERTEX
  8
0
 10
6.22501531
 20
6.61216751
  0
VERTEX
  8
0
 10
6.17847544
 20
6.62120037
  0
VERTEX
  8
0
 10
6.16091417
 20
6.62498034
  0
VERTEX
  8
0
 10
6.15483307
 20
6.62712061
  0
VERTEX
  8
0
 10
6.15038693
 20
6.62954415
  0
VERTEX
  8
0
 10
6.14745222
 20
6.63233830
  0
VERTEX
  8
0
 10
6.14590540
 20
6.63559037
  0
VERTEX
  8
0
 10
6.14562292
 20
6.63938768
  0
VERTEX
  8
0
 10
6.14648124
 20
6.64381755
  0
VERTEX
  8
0
 10
6.20434193
 20
6.84806530
  0
VERTEX
  8
0
 10
6.26143130
 20
7.05862298
  0
VERTEX
  8
0
 10
6.31182727
 20
7.25317077
  0
VERTEX
  8
0
 10
6.33266456
 20
7.33746602
  0
VERTEX
  8
0
 10
6.34960772
 20
7.40938888
  0
VERTEX
  8
0
 10
6.36920954
 20
7.49221195
  0
VERTEX
  8
0
 10
6.37720475
 20
7.52075205
  0
VERTEX
  8
0
 10
6.38516938
 20
7.54368111
  0
VERTEX
  8
0
 10
6.39398336
 20
7.56322654
  0
VERTEX
  8
0
 10
6.40452662
 20
7.58161578
  0
VERTEX
  8
0
 10
6.41767907
 20
7.60107625
  0
VERTEX
  8
0
 10
6.43432063
 20
7.62383539
  0
VERTEX
  8
0
 10
6.48609332
 20
7.69354559
  0
VERTEX
  8
0
 10
6.49250106
 20
7.64604695
  0
VERTEX
  8
0
 10
6.49380579
 20
7.61238805
  0
VERTEX
  8
0
 10
6.49505637
 20
7.53436542
  0
VERTEX
  8
0
 10
6.49727603
 20
7.26539453
  0
VERTEX
  8
0
 10
6.49892199
 20
6.87946540
  0
VERTEX
  8
0
 10
6.49975618
 20
6.41690912
  0
VERTEX
  8
0
 10
6.50060359
 20
5.23526995
  0
VERTEX
  8
0
 10
6.53687927
 20
5.21562229
  0
VERTEX
  8
0
 10
6.55191858
 20
5.20794236
  0
VERTEX
  8
0
 10
6.56605099
 20
5.20155584
  0
VERTEX
  8
0
 10
6.57768945
 20
5.19712869
  0
VERTEX
  8
0
 10
6.58524689
 20
5.19532685
  0
VERTEX
  8
0
 10
6.58695708
 20
5.19679611
  0
VERTEX
  8
0
 10
6.58850947
 20
5.20161668
  0
VERTEX
  8
0
 10
6.59116704
 20
5.22263699
  0
VERTEX
  8
0
 10
6.59327209
 20
5.26103832
  0
VERTEX
  8
0
 10
6.59487710
 20
5.31947120
  0
VERTEX
  8
0
 10
6.59679696
 20
5.50703380
  0
VERTEX
  8
0
 10
6.59734651
 20
5.80652911
  0
SEQEND
  0
POLYLINE
  8
0
 66
   1
 70
    1
  0
VERTEX
  8
0
 10
1.28454942
 20
5.69107510
  0
VERTEX
  8
0
 10
1.30936708
 20
5.72830660
  0
VERTEX
  8
0
 10
1.33910899
 20
5.77114834
  0
VERTEX
  8
0
 10
1.37003878
 20
5.81430427
  0
VERTEX
  8
0
 10
1.39842007
 20
5.85247834
  0
VERTEX
  8
0
 10
1.47636096
 20
5.95620929
  0
VERTEX
  8
0
 10
1.48093071
 20
5.96345506
  0
VERTEX
  8
0
 10
1.48347884
 20
5.97077121
  0
VERTEX
  8
0
 10
1.48355445
 20
5.97950581
  0
VERTEX
  8
0
 10
1.48070665
 20
5.99100695
  0
VERTEX
  8
0
 10
1.47448453
 20
6.00662272
  0
VERTEX
  8
0
 10
1.46443720
 20
6.02770118
  0
VERTEX
  8
0
 10
1.43106329
 20
6.09163853
  0
VERTEX
  8
0
 10
1.40652893
 20
6.13688490
  0
VERTEX
  8
0
 10
1.37967210
 20
6.18475833
  0
VERTEX
  8
0
 10
1.32165203
 20
6.28395115
  0
VERTEX
  8
0
 10
1.26232511
 20
6.38034649
  0
VERTEX
  8
0
 10
1.23383472
 20
6.42472308
  0
VERTEX
  8
0
 10
1.20701337
 20
6.46507386
  0
VERTEX
  8
0
 10
1.18096347
 20
6.50560591
  0
VERTEX
  8
0
 10
1.17379000
 20
6.51849777
  0
VERTEX
  8
0
 10
1.17216808
 20
6.52225568
  0
VERTEX
  8
0
 10
1.17204728
 20
6.52389988
  0
VERTEX
  8
0
 10
1.25677369
 20
6.54452616
  0
VERTEX
  8
0
 10
1.45586445
 20
6.59066545
  0
VERTEX
  8
0
 10
1.96380043
 20
6.70817598
  0
VERTEX
  8
0
 10
2.29326141
 20
6.78567226
  0
VERTEX
  8
0
 10
2.30140837
 20
6.78700303
  0
VERTEX
  8
0
 10
2.30527820
 20
6.78677088
  0
VERTEX
  8
0
 10
2.30919389
 20
6.78573549
  0
VERTEX
  8
0
 10
2.31329166
 20
6.78374318
  0
VERTEX
  8
0
 10
2.31770774
 20
6.78064029
  0
VERTEX
  8
0
 10
2.32803968
 20
6.77048810
  0
VERTEX
  8
0
 10
2.34127947
 20
6.75404957
  0
VERTEX
  8
0
 10
2.35851688
 20
6.73009538
  0
VERTEX
  8
0
 10
2.40934360
 20
6.65472261
  0
VERTEX
  8
0
 10
2.50603363
 20
6.50898314
  0
VERTEX
  8
0
 10
2.50800064
 20
6.50757108
  0
VERTEX
  8
0
 10
2.51152982
 20
6.50680504
  0
VERTEX
  8
0
 10
2.52248119
 20
6.50712040
  0
VERTEX
  8
0
 10
2.53730068
 20
6.50974796
  0
VERTEX
  8
0
 10
2.55440122
 20
6.51450651
  0
VERTEX
  8
0
 10
2.57546974
 20
6.52079590
  0
VERTEX
  8
0
 10
2.60109319
 20
6.52759161
  0
VERTEX
  8
0
 10
2.65305668
 20
6.53943072
  0
VERTEX
  8
0
 10
2.70877422
 20
6.55038250
  0
VERTEX
  8
0
 10
2.67878436
 20
6.59214179
  0
VERTEX
  8
0
 10
2.63514550
 20
6.65045901
  0
VERTEX
  8
0
 10
2.57233756
 20
6.73202757
  0
VERTEX
  8
0
 10
2.54122527
 20
6.77331967
  0
VERTEX
  8
0
 10
2.51955329
 20
6.80504801
  0
VERTEX
  8
0
 10
2.51252190
 20
6.81690535
  0
VERTEX
  8
0
 10
2.50816796
 20
6.82586726
  0
VERTEX
  8
0
 10
2.50659726
 20
6.83176556
  0
VERTEX
  8
0
 10
2.50688869
 20
6.83351331
  0
VERTEX
  8
0
 10
2.50791560
 20
6.83443210
  0
VERTEX
  8
0
 10
2.61429008
 20
6.86025657
  0
VERTEX
  8
0
 10
2.86730103
 20
6.92016599
  0
VERTEX
  8
0
 10
3.51554752
 20
7.07204246
  0
VERTEX
  8
0
 10
3.63198077
 20
7.09975624
  0
VERTEX
  8
0
 10
3.66805357
 20
7.10884016
  0
VERTEX
  8
0
 10
3.68207810
 20
7.11295226
  0
VERTEX
  8
0
 10
3.68221590
 20
7.11961467
  0
VERTEX
  8
0
 10
3.68073331
 20
7.13540367
  0
VERTEX
  8
0
 10
3.67463832
 20
7.18228235
  0
VERTEX
  8
0
 10
3.66725572
 20
7.22943003
  0
VERTEX
  8
0
 10
3.66416363
 20
7.24555529
  0
VERTEX
  8
0
 10
3.66204813
 20
7.25268845
  0
VERTEX
  8
0
 10
3.64943527
 20
7.25091502
  0
VERTEX
  8
0
 10
3.61669783
 20
7.24432202
  0
VERTEX
  8
0
 10
3.51071272
 20
7.22085531
  0
VERTEX
  8
0
 10
3.29866921
 20
7.17289102
  0
VERTEX
  8
0
 10
3.00362691
 20
7.10497837
  0
VERTEX
  8
0
 10
2.62760664
 20
7.01739194
  0
VERTEX
  8
0
 10
2.52399566
 20
6.99254618
  0
VERTEX
  8
0
 10
2.49091027
 20
6.98401983
  0
VERTEX
  8
0
 10
2.47689845
 20
6.97973852
  0
VERTEX
  8
0
 10
2.47622331
 20
6.98022084
  0
VERTEX
  8
0
 10
2.47561202
 20
6.98248252
  0
VERTEX
  8
0
 10
2.47458602
 20
6.99199149
  0
VERTEX
  8
0
 10
2.47335531
 20
7.02848426
  0
VERTEX
  8
0
 10
2.47328635
 20
7.08357669
  0
VERTEX
  8
0
 10
2.47445918
 20
7.15162864
  0
VERTEX
  8
0
 10
2.47514134
 20
7.23685201
  0
VERTEX
  8
0
 10
2.47436043
 20
7.27793920
  0
VERTEX
  8
0
 10
2.47283615
 20
7.31797652
  0
VERTEX
  8
0
 10
2.47057196
 20
7.35693880
  0
VERTEX
  8
0
 10
2.46757134
 20
7.39480087
  0
VERTEX
  8
0
 10
2.46383776
 20
7.43153759
  0
VERTEX
  8
0
 10
2.45937469
 20
7.46712379
  0
VERTEX
  8
0
 10
2.45418559
 20
7.50153431
  0
VERTEX
  8
0
 10
2.44827393
 20
7.53474399
  0
VERTEX
  8
0
 10
2.44164319
 20
7.56672767
  0
VERTEX
  8
0
 10
2.43429682
 20
7.59746019
  0
VERTEX
  8
0
 10
2.42623832
 20
7.62691638
  0
VERTEX
  8
0
 10
2.41747113
 20
7.65507109
  0
VERTEX
  8
0
 10
2.40799873
 20
7.68189915
  0
VERTEX
  8
0
 10
2.39782459
 20
7.70737541
  0
VERTEX
  8
0
 10
2.38037287
 20
7.74848788
  0
VERTEX
  8
0
 10
2.28813077
 20
7.74848788
  0
VERTEX
  8
0
 10
2.25231483
 20
7.74809994
  0
VERTEX
  8
0
 10
2.22298469
 20
7.74704367
  0
VERTEX
  8
0
 10
2.20316704
 20
7.74548041
  0
VERTEX
  8
0
 10
2.19777124
 20
7.74455908
  0
VERTEX
  8
0
 10
2.19588857
 20
7.74357150
  0
VERTEX
  8
0
 10
2.20268957
 20
7.71099630
  0
VERTEX
  8
0
 10
2.21904097
 20
7.63958118
  0
VERTEX
  8
0
 10
2.23343457
 20
7.57640238
  0
VERTEX
  8
0
 10
2.24477357
 20
7.52209192
  0
VERTEX
  8
0
 10
2.25340947
 20
7.47359879
  0
VERTEX
  8
0
 10
2.25969374
 20
7.42787198
  0
VERTEX
  8
0
 10
2.26397787
 20
7.38186047
  0
VERTEX
  8
0
 10
2.26661335
 20
7.33251325
  0
VERTEX
  8
0
 10
2.26795165
 20
7.27677930
  0
VERTEX
  8
0
 10
2.26834426
 20
7.21160762
  0
VERTEX
  8
0
 10
2.26766561
 20
7.11832406
  0
VERTEX
  8
0
 10
2.26665437
 20
7.08302926
  0
VERTEX
  8
0
 10
2.26508879
 20
7.05378516
  0
VERTEX
  8
0
 10
2.26288907
 20
7.02945630
  0
VERTEX
  8
0
 10
2.25997538
 20
7.00890719
  0
VERTEX
  8
0
 10
2.25626794
 20
6.99100239
  0
VERTEX
  8
0
 10
2.25168693
 20
6.97460641
  0
VERTEX
  8
0
 10
2.23493397
 20
6.92140207
  0
VERTEX
  8
0
 10
1.86958300
 20
6.83074720
  0
VERTEX
  8
0
 10
1.56182594
 20
6.75314958
  0
VERTEX
  8
0
 10
1.42950474
 20
6.71898128
  0
VERTEX
  8
0
 10
1.33494547
 20
6.69388760
  0
VERTEX
  8
0
 10
1.21433997
 20
6.66224889
  0
VERTEX
  8
0
 10
1.17683663
 20
6.65339744
  0
VERTEX
  8
0
 10
1.16626615
 20
6.65132842
  0
VERTEX
  8
0
 10
1.16209507
 20
6.65106475
  0
VERTEX
  8
0
 10
1.16173908
 20
6.66023855
  0
VERTEX
  8
0
 10
1.16340425
 20
6.68271672
  0
VERTEX
  8
0
 10
1.17155627
 20
6.75406706
  0
VERTEX
  8
0
 10
1.17483219
 20
6.78318153
  0
VERTEX
  8
0
 10
1.17761387
 20
6.81621429
  0
VERTEX
  8
0
 10
1.18171202
 20
6.89165341
  0
VERTEX
  8
0
 10
1.18388581
 20
6.97562177
  0
VERTEX
  8
0
 10
1.18417031
 20
7.06335675
  0
VERTEX
  8
0
 10
1.18260061
 20
7.15009573
  0
VERTEX
  8
0
 10
1.17921179
 20
7.23107608
  0
VERTEX
  8
0
 10
1.17403892
 20
7.30153518
  0
VERTEX
  8
0
 10
1.17079443
 20
7.33133094
  0
VERTEX
  8
0
 10
1.16711709
 20
7.35671041
  0
VERTEX
  8
0
 10
1.15835973
 20
7.40423315
  0
VERTEX
  8
0
 10
1.14834159
 20
7.45119674
  0
VERTEX
  8
0
 10
1.13726408
 20
7.49690424
  0
VERTEX
  8
0
 10
1.12532866
 20
7.54065868
  0
VERTEX
  8
0
 10
1.11273676
 20
7.58176314
  0
VERTEX
  8
0
 10
1.09968983
 20
7.61952067
  0
VERTEX
  8
0
 10
1.08638930
 20
7.65323432
  0
VERTEX
  8
0
 10
1.07303661
 20
7.68220715
  0
VERTEX
  8
0
 10
1.04446143
 20
7.73881437
  0
VERTEX
  8
0
 10
0.89362621
 20
7.73881437
  0
VERTEX
  8
0
 10
0.81545562
 20
7.73830591
  0
VERTEX
  8
0
 10
0.78931599
 20
7.73752198
  0
VERTEX
  8
0
 10
0.77048238
 20
7.73625307
  0
VERTEX
  8
0
 10
0.75796146
 20
7.73440027
  0
VERTEX
  8
0
 10
0.75075991
 20
7.73186468
  0
VERTEX
  8
0
 10
0.74884348
 20
7.73030993
  0
VERTEX
  8
0
 10
0.74788439
 20
7.72854741
  0
VERTEX
  8
0
 10
0.74834159
 20
7.72434955
  0
VERTEX
  8
0
 10
0.75626646
 20
7.69976522
  0
VERTEX
  8
0
 10
0.76733156
 20
7.66009409
  0
VERTEX
  8
0
 10
0.79499876
 20
7.55138036
  0
VERTEX
  8
0
 10
0.82357583
 20
7.42998630
  0
VERTEX
  8
0
 10
0.83577826
 20
7.37446475
  0
VERTEX
  8
0
 10
0.84529541
 20
7.32768984
  0
VERTEX
  8
0
 10
0.85634856
 20
7.26642074
  0
VERTEX
  8
0
 10
0.86572142
 20
7.20709261
  0
VERTEX
  8
0
 10
0.87341495
 20
7.14973448
  0
VERTEX
  8
0
 10
0.87943011
 20
7.09437536
  0
VERTEX
  8
0
 10
0.88376786
 20
7.04104428
  0
VERTEX
  8
0
 10
0.88642917
 20
6.98977026
  0
VERTEX
  8
0
 10
0.88741500
 20
6.94058233
  0
VERTEX
  8
0
 10
0.88672631
 20
6.89350949
  0
VERTEX
  8
0
 10
0.88436406
 20
6.84858079
  0
VERTEX
  8
0
 10
0.88032922
 20
6.80582523
  0
VERTEX
  8
0
 10
0.87462274
 20
6.76527184
  0
VERTEX
  8
0
 10
0.86724560
 20
6.72694964
  0
VERTEX
  8
0
 10
0.85819875
 20
6.69088766
  0
VERTEX
  8
0
 10
0.84748316
 20
6.65711491
  0
VERTEX
  8
0
 10
0.83509978
 20
6.62566042
  0
VERTEX
  8
0
 10
0.82104959
 20
6.59655322
  0
VERTEX
  8
0
 10
0.81115802
 20
6.57827924
  0
VERTEX
  8
0
 10
0.80276524
 20
6.56419478
  0
VERTEX
  8
0
 10
0.79476772
 20
6.55344224
  0
VERTEX
  8
0
 10
0.78606197
 20
6.54516399
  0
VERTEX
  8
0
 10
0.77554448
 20
6.53850240
  0
VERTEX
  8
0
 10
0.76211175
 20
6.53259988
  0
VERTEX
  8
0
 10
0.74466025
 20
6.52659878
  0
VERTEX
  8
0
 10
0.72208650
 20
6.51964150
  0
VERTEX
  8
0
 10
0.63531697
 20
6.49194647
  0
VERTEX
  8
0
 10
0.54374294
 20
6.46030517
  0
VERTEX
  8
0
 10
0.45283645
 20
6.42691027
  0
VERTEX
  8
0
 10
0.36806955
 20
6.39395445
  0
VERTEX
  8
0
 10
0.29491430
 20
6.36363035
  0
VERTEX
  8
0
 10
0.23884272
 20
6.33813064
  0
VERTEX
  8
0
 10
0.21892334
 20
6.32787514
  0
VERTEX
  8
0
 10
0.20532689
 20
6.31964799
  0
VERTEX
  8
0
 10
0.20111352
 20
6.31638070
  0
VERTEX
  8
0
 10
0.19873739
 20
6.31372327
  0
VERTEX
  8
0
 10
0.19828399
 20
6.31170997
  0
VERTEX
  8
0
 10
0.19983883
 20
6.31037506
  0
VERTEX
  8
0
 10
0.20345710
 20
6.31008199
  0
VERTEX
  8
0
 10
0.21056357
 20
6.31067719
  0
VERTEX
  8
0
 10
0.23573072
 20
6.31463707
  0
VERTEX
  8
0
 10
0.33330915
 20
6.33436778
  0
VERTEX
  8
0
 10
0.50040792
 20
6.37124256
  0
VERTEX
  8
0
 10
0.74486087
 20
6.42693677
  0
VERTEX
  8
0
 10
0.84562082
 20
6.44878342
  0
VERTEX
  8
0
 10
0.87759310
 20
6.45471505
  0
VERTEX
  8
0
 10
0.88688080
 20
6.45601507
  0
VERTEX
  8
0
 10
0.89090420
 20
6.45604536
  0
VERTEX
  8
0
 10
0.89558979
 20
6.44877392
  0
VERTEX
  8
0
 10
0.90441606
 20
6.43043251
  0
VERTEX
  8
0
 10
0.93254318
 20
6.36545986
  0
VERTEX
  8
0
 10
0.97139066
 20
6.27096762
  0
VERTEX
  8
0
 10
1.01706358
 20
6.15679603
  0
VERTEX
  8
0
 10
1.06566702
 20
6.03278529
  0
VERTEX
  8
0
 10
1.11330607
 20
5.90877563
  0
VERTEX
  8
0
 10
1.15608581
 20
5.79460727
  0
VERTEX
  8
0
 10
1.19011134
 20
5.70012043
  0
VERTEX
  8
0
 10
1.20269366
 20
5.66542657
  0
VERTEX
  8
0
 10
1.21390524
 20
5.63710967
  0
VERTEX
  8
0
 10
1.22252481
 20
5.61808519
  0
VERTEX
  8
0
 10
1.22548093
 20
5.61296869
  0
VERTEX
  8
0
 10
1.22733106
 20
5.61126859
  0
VERTEX
  8
0
 10
1.22958937
 20
5.61301083
  0
VERTEX
  8
0
 10
1.23371533
 20
5.61776019
  0
VERTEX
  8
0
 10
1.24663147
 20
5.63497091
  0
VERTEX
  8
0
 10
1.26420200
 20
5.66028210
  0
VERTEX
  8
0
 10
1.28454942
 20
5.69107510
  0
SEQEND
  0
POLYLINE
  8
0
 66
   1
 70
    1
  0
VERTEX
  8
0
 10
2.96240417
 20
5.83071155
  0
VERTEX
  8
0
 10
2.96009588
 20
5.87562785
  0
VERTEX
  8
0
 10
2.95595162
 20
5.92524338
  0
VERTEX
  8
0
 10
2.95042042
 20
5.97640338
  0
VERTEX
  8
0
 10
2.94395133
 20
6.02595311
  0
VERTEX
  8
0
 10
2.93699338
 20
6.07073781
  0
VERTEX
  8
0
 10
2.92999560
 20
6.10760271
  0
VERTEX
  8
0
 10
2.92340704
 20
6.13339307
  0
VERTEX
  8
0
 10
2.92040654
 20
6.14114944
  0
VERTEX
  8
0
 10
2.91767672
 20
6.14495413
  0
VERTEX
  8
0
 10
2.91183876
 20
6.14757745
  0
VERTEX
  8
0
 10
2.90351791
 20
6.14958418
  0
VERTEX
  8
0
 10
2.88100580
 20
6.15187704
  0
VERTEX
  8
0
 10
2.85329690
 20
6.15209094
  0
VERTEX
  8
0
 10
2.82354772
 20
6.15048410
  0
VERTEX
  8
0
 10
2.79491479
 20
6.14731477
  0
VERTEX
  8
0
 10
2.77055463
 20
6.14284115
  0
VERTEX
  8
0
 10
2.76096325
 20
6.14019594
  0
VERTEX
  8
0
 10
2.75362376
 20
6.13732149
  0
VERTEX
  8
0
 10
2.74893071
 20
6.13425009
  0
VERTEX
  8
0
 10
2.74769991
 20
6.13265062
  0
VERTEX
  8
0
 10
2.74727868
 20
6.13101402
  0
VERTEX
  8
0
 10
2.75048333
 20
6.12198944
  0
VERTEX
  8
0
 10
2.75920878
 20
6.10417303
  0
VERTEX
  8
0
 10
2.77212226
 20
6.08014191
  0
VERTEX
  8
0
 10
2.78789099
 20
6.05247319
  0
VERTEX
  8
0
 10
2.84197039
 20
5.95805532
  0
VERTEX
  8
0
 10
2.89465352
 20
5.86297660
  0
VERTEX
  8
0
 10
2.93458829
 20
5.78807186
  0
VERTEX
  8
0
 10
2.94622749
 20
5.76469562
  0
VERTEX
  8
0
 10
2.95042257
 20
5.75417595
  0
VERTEX
  8
0
 10
2.95099504
 20
5.75102831
  0
VERTEX
  8
0
 10
2.95255376
 20
5.74845044
  0
VERTEX
  8
0
 10
2.95486066
 20
5.74670841
  0
VERTEX
  8
0
 10
2.95767768
 20
5.74606828
  0
VERTEX
  8
0
 10
2.95908349
 20
5.74779561
  0
VERTEX
  8
0
 10
2.96029524
 20
5.75274672
  0
VERTEX
  8
0
 10
2.96205895
 20
5.77093165
  0
VERTEX
  8
0
 10
2.96281365
 20
5.79784572
  0
VERTEX
  8
0
 10
2.96240417
 20
5.83071155
  0
SEQEND
  0
POLYLINE
  8
0
 66
   1
 70
    1
  0
VERTEX
  8
0
 10
2.38210376
 20
7.81292290
  0
VERTEX
  8
0
 10
2.85875126
 20
7.81657266
  0
VERTEX
  8
0
 10
3.16471810
 20
7.82045584
  0
VERTEX
  8
0
 10
3.26240312
 20
7.82264283
  0
VERTEX
  8
0
 10
3.32786617
 20
7.82507761
  0
VERTEX
  8
0
 10
3.36458999
 20
7.82782331
  0
VERTEX
  8
0
 10
3.37326305
 20
7.82933249
  0
VERTEX
  8
0
 10
3.37605732
 20
7.83094309
  0
VERTEX
  8
0
 10
3.37794419
 20
7.83821971
  0
VERTEX
  8
0
 10
3.38308163
 20
7.84947188
  0
VERTEX
  8
0
 10
3.39068491
 20
7.86316347
  0
VERTEX
  8
0
 10
3.39996929
 20
7.87775837
  0
VERTEX
  8
0
 10
3.42388029
 20
7.91299349
  0
VERTEX
  8
0
 10
1.78690983
 20
7.91054726
  0
VERTEX
  8
0
 10
0.14993955
 20
7.90810090
  0
VERTEX
  8
0
 10
0.14677503
 20
7.88577616
  0
VERTEX
  8
0
 10
0.14650739
 20
7.87376071
  0
VERTEX
  8
0
 10
0.14890940
 20
7.86170057
  0
VERTEX
  8
0
 10
0.15373514
 20
7.84992555
  0
VERTEX
  8
0
 10
0.16073868
 20
7.83876544
  0
VERTEX
  8
0
 10
0.16967410
 20
7.82855004
  0
VERTEX
  8
0
 10
0.18029551
 20
7.81960915
  0
VERTEX
  8
0
 10
0.19235697
 20
7.81227255
  0
VERTEX
  8
0
 10
0.20561256
 20
7.80687006
  0
VERTEX
  8
0
 10
0.22212554
 20
7.80466703
  0
VERTEX
  8
0
 10
0.25607413
 20
7.80290644
  0
VERTEX
  8
0
 10
0.30722017
 20
7.80159029
  0
VERTEX
  8
0
 10
0.37532546
 20
7.80072060
  0
VERTEX
  8
0
 10
0.56146108
 20
7.80032864
  0
VERTEX
  8
0
 10
0.81257551
 20
7.80174668
  0
VERTEX
  8
0
 10
2.38210376
 20
7.81292290
  0
SEQEND
  0
ENDSEC
  0
EOF
