  0
SECTION
  2
HEADER
  9
$ACADVER
  1
AC1006
  0
ENDSEC
  0
SECTION
  2
TABLES
  0
TABLE
  2
LTYPE
 70
    25
  0
LTYPE
  2
CONTINUOUS
 70
    64
  3
Solid line
 72
    64
 73
     0
 40
0.000000
  0
LTYPE
  2
DASHDOT
 70
    64
  3
__ . __ . __ . __ . __ . __ . __ . __ . __ . __
 72
    65
 73
     4
 40
1.000000
 49
0.500000
 49
-0.250000
 49
0.000000
 49
-0.250000
  0
LTYPE
  2
DASHED
 70
    64
  3
__ __ __ __ __ __ __ __ __ __ __ __ __ __ __ __
 72
    65
 73
     2
 40
0.750000
 49
0.500000
 49
-0.250000
  0
LTYPE
  2
DIVIDE
 70
    64
  3
____ . . ____ . . ____ . . ____ . . ____ . . __
 72
    65
 73
     6
 40
1.250000
 49
0.500000
 49
-0.250000
 49
0.000000
 49
-0.250000
 49
0.000000
 49
-0.250000
  0
LTYPE
  2
DOT
 70
    64
  3
. . . . . . . . . . . . . . . . . . . . . . . . 
 72
    65
 73
     2
 40
0.250000
 49
0.000000
 49
-0.250000
  0
ENDTAB
  0
ENDSEC
  0
SECTION
  2
ENTITIES
  0
ARC
  8
0
 62
     7
  6
CONTINUOUS
 10
5.798749
 20
1.585841
 30
0.000000
 40
0.009523
 50
44.259941
 51
55.993252
  0
ARC
  8
0
 62
     7
  6
CONTINUOUS
 10
5.809448
 20
1.601689
 30
0.000000
 40
0.009599
 50
224.483458
 51
235.958912
  0
LINE
  8
0
 62
     7
  6
CONTINUOUS
 10
5.802599
 20
1.594963
 30
0.000000
 11
5.802599
 21
6.700691
 31
0.000000
  0
ARC
  8
0
 62
     7
  6
CONTINUOUS
 10
5.809342
 20
6.694110
 30
0.000000
 40
0.009422
 50
123.929230
 51
135.689512
  0
ARC
  8
0
 62
     7
  6
CONTINUOUS
 10
5.798828
 20
6.709735
 30
0.000000
 40
0.009412
 50
303.941847
 51
315.745103
  0
ARC
  8
0
 62
     7
  6
CONTINUOUS
 10
5.662506
 20
6.874118
 30
0.000000
 40
0.222915
 50
309.924819
 51
360.843950
  0
ARC
  8
0
 62
     7
  6
CONTINUOUS
 10
5.613220
 20
6.874301
 30
0.000000
 40
0.272194
 50
0.652705
 51
33.094469
  0
ARC
  8
0
 62
     7
  6
CONTINUOUS
 10
5.692118
 20
6.940156
 30
0.000000
 40
0.170566
 50
29.029255
 51
87.310234
  0
ARC
  8
0
 62
     7
  6
CONTINUOUS
 10
5.700572
 20
6.969631
 30
0.000000
 40
0.140904
 50
90.182606
 51
125.184236
  0
ARC
  8
0
 62
     7
  6
CONTINUOUS
 10
7.233508
 20
7.139318
 30
0.000000
 40
1.615048
 50
179.862054
 51
181.934729
  0
ARC
  8
0
 62
     7
  6
CONTINUOUS
 10
8.694942
 20
7.127622
 30
0.000000
 40
3.076516
 50
176.859791
 51
179.709766
  0
ARC
  8
0
 62
     7
  6
CONTINUOUS
 10
5.392146
 20
7.536912
 30
0.000000
 40
0.333586
 50
313.802355
 51
357.924619
  0
ARC
  8
0
 62
     7
  6
CONTINUOUS
 10
5.471337
 20
7.524650
 30
0.000000
 40
0.254177
 50
0.040853
 51
11.158506
  0
ARC
  8
0
 62
     7
  6
CONTINUOUS
 10
5.393138
 20
7.500305
 30
0.000000
 40
0.335723
 50
12.652249
 51
63.228699
  0
ARC
  8
0
 62
     7
  6
CONTINUOUS
 10
5.244972
 20
7.649840
 30
0.000000
 40
0.334952
 50
26.643027
 51
77.422364
  0
ARC
  8
0
 62
     7
  6
CONTINUOUS
 10
5.268188
 20
7.730048
 30
0.000000
 40
0.251667
 50
78.604766
 51
89.354960
  0
ARC
  8
0
 62
     7
  6
CONTINUOUS
 10
5.274142
 20
7.694398
 30
0.000000
 40
0.287318
 50
90.622357
 51
115.868088
  0
ARC
  8
0
 62
     7
  6
CONTINUOUS
 10
5.332872
 20
7.571253
 30
0.000000
 40
0.423748
 50
115.748646
 51
133.380359
  0
ARC
  8
0
 62
     7
  6
CONTINUOUS
 10
4.877537
 20
10.598909
 30
0.000000
 40
2.724630
 50
270.174298
 51
273.456892
  0
LINE
  8
0
 62
     7
  6
CONTINUOUS
 10
4.885825
 20
7.874292
 30
0.000000
 11
4.885825
 21
7.874292
 31
0.000000
  0
ARC
  8
0
 62
     7
  6
CONTINUOUS
 10
4.875931
 20
8.961154
 30
0.000000
 40
1.086906
 50
267.506608
 51
270.521567
  0
ARC
  8
0
 62
     7
  6
CONTINUOUS
 10
4.714204
 20
7.956412
 30
0.000000
 40
0.140285
 50
324.664802
 51
360.018286
  0
ARC
  8
0
 62
     7
  6
CONTINUOUS
 10
4.685353
 20
7.948897
 30
0.000000
 40
0.169306
 50
2.559149
 51
61.036086
  0
ARC
  8
0
 62
     7
  6
CONTINUOUS
 10
4.618992
 20
7.872402
 30
0.000000
 40
0.269190
 50
56.558025
 51
89.485048
  0
ARC
  8
0
 62
     7
  6
CONTINUOUS
 10
4.618312
 20
7.918401
 30
0.000000
 40
0.223202
 50
89.204353
 51
139.995687
  0
ARC
  8
0
 62
     7
  6
CONTINUOUS
 10
4.524724
 20
7.997606
 30
0.000000
 40
0.100598
 50
140.284911
 51
144.552724
  0
LINE
  8
0
 62
     7
  6
CONTINUOUS
 10
4.442771
 20
8.055948
 30
0.000000
 11
4.260467
 21
8.055948
 31
0.000000
  0
LINE
  8
0
 62
     7
  6
CONTINUOUS
 10
4.260467
 20
8.055948
 30
0.000000
 11
1.736833
 21
8.055948
 31
0.000000
  0
LINE
  8
0
 62
     7
  6
CONTINUOUS
 10
1.736833
 20
8.055948
 30
0.000000
 11
1.554529
 21
8.055948
 31
0.000000
  0
ARC
  8
0
 62
     7
  6
CONTINUOUS
 10
1.472086
 20
7.997215
 30
0.000000
 40
0.101226
 50
35.466395
 51
39.708090
  0
ARC
  8
0
 62
     7
  6
CONTINUOUS
 10
1.378988
 20
7.918401
 30
0.000000
 40
0.223202
 50
40.004313
 51
90.795647
  0
ARC
  8
0
 62
     7
  6
CONTINUOUS
 10
1.378308
 20
7.872402
 30
0.000000
 40
0.269190
 50
90.514952
 51
123.441975
  0
ARC
  8
0
 62
     7
  6
CONTINUOUS
 10
1.311947
 20
7.948897
 30
0.000000
 40
0.169306
 50
118.963914
 51
177.440851
  0
ARC
  8
0
 62
     7
  6
CONTINUOUS
 10
1.283096
 20
7.956412
 30
0.000000
 40
0.140285
 50
179.981714
 51
215.335198
  0
ARC
  8
0
 62
     7
  6
CONTINUOUS
 10
1.121369
 20
8.961154
 30
0.000000
 40
1.086906
 50
269.478433
 51
272.493392
  0
ARC
  8
0
 62
     7
  6
CONTINUOUS
 10
1.119763
 20
10.598909
 30
0.000000
 40
2.724630
 50
266.543108
 51
269.825702
  0
ARC
  8
0
 62
     7
  6
CONTINUOUS
 10
0.664428
 20
7.571253
 30
0.000000
 40
0.423748
 50
46.619641
 51
64.251354
  0
ARC
  8
0
 62
     7
  6
CONTINUOUS
 10
0.723159
 20
7.694402
 30
0.000000
 40
0.287313
 50
64.131695
 51
89.377651
  0
ARC
  8
0
 62
     7
  6
CONTINUOUS
 10
0.729113
 20
7.730037
 30
0.000000
 40
0.251677
 50
90.645027
 51
101.394992
  0
ARC
  8
0
 62
     7
  6
CONTINUOUS
 10
0.752328
 20
7.649840
 30
0.000000
 40
0.334952
 50
102.577636
 51
153.356973
  0
ARC
  8
0
 62
     7
  6
CONTINUOUS
 10
0.604169
 20
7.500298
 30
0.000000
 40
0.335732
 50
116.771798
 51
167.346939
  0
ARC
  8
0
 62
     7
  6
CONTINUOUS
 10
0.525962
 20
7.524655
 30
0.000000
 40
0.254176
 50
168.842652
 51
179.960305
  0
ARC
  8
0
 62
     7
  6
CONTINUOUS
 10
0.605155
 20
7.536914
 30
0.000000
 40
0.333587
 50
182.075798
 51
226.198062
  0
ARC
  8
0
 62
     7
  6
CONTINUOUS
 10
-2.697641
 20
7.127662
 30
0.000000
 40
3.076515
 50
0.289486
 51
3.139460
  0
ARC
  8
0
 62
     7
  6
CONTINUOUS
 10
-1.239428
 20
7.139313
 30
0.000000
 40
1.618267
 50
358.069295
 51
360.137845
  0
ARC
  8
0
 62
     7
  6
CONTINUOUS
 10
0.296728
 20
6.969622
 30
0.000000
 40
0.140913
 50
54.816846
 51
89.817133
  0
ARC
  8
0
 62
     7
  6
CONTINUOUS
 10
0.305181
 20
6.940161
 30
0.000000
 40
0.170562
 50
92.689594
 51
150.971646
  0
ARC
  8
0
 62
     7
  6
CONTINUOUS
 10
0.384083
 20
6.874283
 30
0.000000
 40
0.272204
 50
146.902623
 51
179.343713
  0
ARC
  8
0
 62
     7
  6
CONTINUOUS
 10
0.334791
 20
6.874126
 30
0.000000
 40
0.222919
 50
179.158225
 51
230.077355
  0
ARC
  8
0
 62
     7
  6
CONTINUOUS
 10
0.198482
 20
6.709746
 30
0.000000
 40
0.009425
 50
224.263583
 51
236.049467
  0
ARC
  8
0
 62
     7
  6
CONTINUOUS
 10
0.187950
 20
6.694104
 30
0.000000
 40
0.009432
 50
44.300050
 51
56.043190
  0
LINE
  8
0
 62
     7
  6
CONTINUOUS
 10
0.194700
 20
6.700691
 30
0.000000
 11
0.194700
 21
1.594963
 31
0.000000
  0
ARC
  8
0
 62
     7
  6
CONTINUOUS
 10
0.187843
 20
1.601695
 30
0.000000
 40
0.009609
 50
304.068769
 51
315.527078
  0
ARC
  8
0
 62
     7
  6
CONTINUOUS
 10
0.198561
 20
1.585831
 30
0.000000
 40
0.009536
 50
124.015320
 51
135.731487
  0
ARC
  8
0
 62
     7
  6
CONTINUOUS
 10
0.335519
 20
1.421195
 30
0.000000
 40
0.223642
 50
130.010865
 51
180.751813
  0
ARC
  8
0
 62
     7
  6
CONTINUOUS
 10
0.384089
 20
1.421373
 30
0.000000
 40
0.272211
 50
180.655184
 51
213.096948
  0
ARC
  8
0
 62
     7
  6
CONTINUOUS
 10
0.305192
 20
1.355512
 30
0.000000
 40
0.170580
 50
209.031789
 51
267.306972
  0
ARC
  8
0
 62
     7
  6
CONTINUOUS
 10
0.296728
 20
1.326032
 30
0.000000
 40
0.140913
 50
270.182867
 51
305.183154
  0
ARC
  8
0
 62
     7
  6
CONTINUOUS
 10
-1.239385
 20
1.156343
 30
0.000000
 40
1.618225
 50
359.862392
 51
361.930714
  0
ARC
  8
0
 62
     7
  6
CONTINUOUS
 10
-2.697782
 20
1.167997
 30
0.000000
 40
3.076656
 50
356.860618
 51
359.710593
  0
ARC
  8
0
 62
     7
  6
CONTINUOUS
 10
0.605145
 20
0.758746
 30
0.000000
 40
0.333577
 50
133.801259
 51
177.925068
  0
ARC
  8
0
 62
     7
  6
CONTINUOUS
 10
0.525812
 20
0.770993
 30
0.000000
 40
0.254026
 50
180.038203
 51
191.160657
  0
ARC
  8
0
 62
     7
  6
CONTINUOUS
 10
0.604181
 20
0.795363
 30
0.000000
 40
0.335743
 50
192.652406
 51
243.226892
  0
ARC
  8
0
 62
     7
  6
CONTINUOUS
 10
0.752301
 20
0.645794
 30
0.000000
 40
0.334918
 50
206.641995
 51
257.425913
  0
ARC
  8
0
 62
     7
  6
CONTINUOUS
 10
0.729082
 20
0.564930
 30
0.000000
 40
0.250990
 50
258.580477
 51
269.360170
  0
ARC
  8
0
 62
     7
  6
CONTINUOUS
 10
0.723160
 20
0.601254
 30
0.000000
 40
0.287315
 50
270.622018
 51
295.867748
  0
ARC
  8
0
 62
     7
  6
CONTINUOUS
 10
0.664438
 20
0.724383
 30
0.000000
 40
0.423728
 50
295.748554
 51
313.381178
  0
ARC
  8
0
 62
     7
  6
CONTINUOUS
 10
1.119903
 20
-2.303251
 30
0.000000
 40
2.724634
 50
90.177233
 51
93.459827
  0
LINE
  8
0
 62
     7
  6
CONTINUOUS
 10
1.111474
 20
0.421370
 30
0.000000
 11
1.111474
 21
0.421370
 31
0.000000
  0
ARC
  8
0
 62
     7
  6
CONTINUOUS
 10
1.121376
 20
-0.656322
 30
0.000000
 40
1.077737
 50
87.485762
 51
90.526385
  0
ARC
  8
0
 62
     7
  6
CONTINUOUS
 10
1.283096
 20
0.339243
 30
0.000000
 40
0.140285
 50
144.664802
 51
180.018286
  0
ARC
  8
0
 62
     7
  6
CONTINUOUS
 10
1.311949
 20
0.346758
 30
0.000000
 40
0.169308
 50
182.559181
 51
241.035689
  0
ARC
  8
0
 62
     7
  6
CONTINUOUS
 10
1.378309
 20
0.423262
 30
0.000000
 40
0.269200
 50
236.559057
 51
269.484734
  0
ARC
  8
0
 62
     7
  6
CONTINUOUS
 10
1.378988
 20
0.377253
 30
0.000000
 40
0.223202
 50
269.204353
 51
319.995687
  0
ARC
  8
0
 62
     7
  6
CONTINUOUS
 10
1.472086
 20
0.298440
 30
0.000000
 40
0.101226
 50
320.291910
 51
324.533605
  0
LINE
  8
0
 62
     7
  6
CONTINUOUS
 10
1.554529
 20
0.239706
 30
0.000000
 11
1.736833
 21
0.239706
 31
0.000000
  0
LINE
  8
0
 62
     7
  6
CONTINUOUS
 10
1.736833
 20
0.239706
 30
0.000000
 11
4.260467
 21
0.239706
 31
0.000000
  0
LINE
  8
0
 62
     7
  6
CONTINUOUS
 10
4.260467
 20
0.239706
 30
0.000000
 11
4.442771
 21
0.239706
 31
0.000000
  0
ARC
  8
0
 62
     7
  6
CONTINUOUS
 10
4.524724
 20
0.298049
 30
0.000000
 40
0.100598
 50
215.447276
 51
219.715089
  0
ARC
  8
0
 62
     7
  6
CONTINUOUS
 10
4.618312
 20
0.377253
 30
0.000000
 40
0.223202
 50
220.004313
 51
270.795647
  0
ARC
  8
0
 62
     7
  6
CONTINUOUS
 10
4.618991
 20
0.423262
 30
0.000000
 40
0.269200
 50
270.515266
 51
303.440943
  0
ARC
  8
0
 62
     7
  6
CONTINUOUS
 10
4.685351
 20
0.346758
 30
0.000000
 40
0.169308
 50
298.964311
 51
357.440819
  0
ARC
  8
0
 62
     7
  6
CONTINUOUS
 10
4.714204
 20
0.339243
 30
0.000000
 40
0.140285
 50
359.981714
 51
395.335198
  0
ARC
  8
0
 62
     7
  6
CONTINUOUS
 10
4.875926
 20
-0.656403
 30
0.000000
 40
1.077818
 50
89.473729
 51
92.514123
  0
ARC
  8
0
 62
     7
  6
CONTINUOUS
 10
4.877397
 20
-2.303251
 30
0.000000
 40
2.724634
 50
86.540173
 51
89.822767
  0
ARC
  8
0
 62
     7
  6
CONTINUOUS
 10
5.332862
 20
0.724383
 30
0.000000
 40
0.423728
 50
226.618822
 51
244.251446
  0
ARC
  8
0
 62
     7
  6
CONTINUOUS
 10
5.274140
 20
0.601256
 30
0.000000
 40
0.287317
 50
244.132357
 51
269.378087
  0
ARC
  8
0
 62
     7
  6
CONTINUOUS
 10
5.268219
 20
0.564920
 30
0.000000
 40
0.250979
 50
270.639844
 51
281.419765
  0
ARC
  8
0
 62
     7
  6
CONTINUOUS
 10
5.244999
 20
0.645794
 30
0.000000
 40
0.334918
 50
282.574087
 51
333.358005
  0
ARC
  8
0
 62
     7
  6
CONTINUOUS
 10
5.393126
 20
0.795357
 30
0.000000
 40
0.335735
 50
296.772611
 51
347.348407
  0
ARC
  8
0
 62
     7
  6
CONTINUOUS
 10
5.471487
 20
0.770998
 30
0.000000
 40
0.254026
 50
348.838184
 51
359.960639
  0
ARC
  8
0
 62
     7
  6
CONTINUOUS
 10
5.392156
 20
0.758748
 30
0.000000
 40
0.333576
 50
2.074515
 51
46.198324
  0
ARC
  8
0
 62
     7
  6
CONTINUOUS
 10
8.695083
 20
1.168037
 30
0.000000
 40
3.076657
 50
180.290156
 51
183.140130
  0
ARC
  8
0
 62
     7
  6
CONTINUOUS
 10
7.233287
 20
1.156341
 30
0.000000
 40
1.614826
 50
178.065148
 51
180.137823
  0
ARC
  8
0
 62
     7
  6
CONTINUOUS
 10
5.700572
 20
1.326024
 30
0.000000
 40
0.140904
 50
234.815764
 51
269.817394
  0
ARC
  8
0
 62
     7
  6
CONTINUOUS
 10
5.692107
 20
1.355516
 30
0.000000
 40
0.170585
 50
272.693201
 51
330.967310
  0
ARC
  8
0
 62
     7
  6
CONTINUOUS
 10
5.613215
 20
1.421355
 30
0.000000
 40
0.272199
 50
326.905848
 51
359.348510
  0
ARC
  8
0
 62
     7
  6
CONTINUOUS
 10
5.661777
 20
1.421203
 30
0.000000
 40
0.223639
 50
359.246122
 51
409.986852
  0
ARC
  8
0
 62
     7
  6
CONTINUOUS
 10
4.616503
 20
7.920491
 30
0.000000
 40
0.139948
 50
95.152304
 51
140.016183
  0
ARC
  8
0
 62
     7
  6
CONTINUOUS
 10
4.620309
 20
7.872717
 30
0.000000
 40
0.187871
 50
56.447077
 51
94.999831
  0
ARC
  8
0
 62
     7
  6
CONTINUOUS
 10
4.675776
 20
7.940643
 30
0.000000
 40
0.100980
 50
15.617015
 51
61.379439
  0
ARC
  8
0
 62
     7
  6
CONTINUOUS
 10
4.714183
 20
7.955743
 30
0.000000
 40
0.060073
 50
315.381885
 51
371.604289
  0
ARC
  8
0
 62
     7
  6
CONTINUOUS
 10
4.700490
 20
7.959559
 30
0.000000
 40
0.072828
 50
246.614931
 51
320.819882
  0
ARC
  8
0
 62
     7
  6
CONTINUOUS
 10
4.687595
 20
7.933299
 30
0.000000
 40
0.043630
 50
150.250635
 51
248.470055
  0
ARC
  8
0
 62
     7
  6
CONTINUOUS
 10
4.664755
 20
7.947918
 30
0.000000
 40
0.016602
 50
89.646828
 51
154.945737
  0
ARC
  8
0
 62
     7
  6
CONTINUOUS
 10
4.659138
 20
7.957778
 30
0.000000
 40
0.008840
 50
317.858063
 51
409.690264
  0
ARC
  8
0
 62
     7
  6
CONTINUOUS
 10
4.680547
 20
7.947020
 30
0.000000
 40
0.015617
 50
162.000897
 51
276.459419
  0
ARC
  8
0
 62
     7
  6
CONTINUOUS
 10
4.686502
 20
7.978129
 30
0.000000
 40
0.046815
 50
264.854623
 51
314.131134
  0
ARC
  8
0
 62
     7
  6
CONTINUOUS
 10
4.693839
 20
7.975322
 30
0.000000
 40
0.039830
 50
309.361283
 51
432.131195
  0
ARC
  8
0
 62
     7
  6
CONTINUOUS
 10
4.657567
 20
7.878726
 30
0.000000
 40
0.142979
 50
70.174011
 51
132.946542
  0
ARC
  8
0
 62
     7
  6
CONTINUOUS
 10
4.611590
 20
7.929106
 30
0.000000
 40
0.074780
 50
133.459489
 51
214.913552
  0
ARC
  8
0
 62
     7
  6
CONTINUOUS
 10
4.684972
 20
7.978049
 30
0.000000
 40
0.162977
 50
214.257930
 51
253.537597
  0
ARC
  8
0
 62
     7
  6
CONTINUOUS
 10
4.842016
 20
8.555434
 30
0.000000
 40
0.761308
 50
254.517260
 51
269.962321
  0
ARC
  8
0
 62
     7
  6
CONTINUOUS
 10
4.881073
 20
10.813586
 30
0.000000
 40
3.019719
 50
269.249423
 51
273.415284
  0
ARC
  8
0
 62
     7
  6
CONTINUOUS
 10
5.071895
 20
7.708957
 30
0.000000
 40
0.090932
 50
87.349967
 51
96.903428
  0
ARC
  8
0
 62
     7
  6
CONTINUOUS
 10
5.311614
 20
7.602218
 30
0.000000
 40
0.307413
 50
114.072580
 51
140.006603
  0
ARC
  8
0
 62
     7
  6
CONTINUOUS
 10
5.268475
 20
7.701644
 30
0.000000
 40
0.199041
 50
80.205777
 51
114.408630
  0
ARC
  8
0
 62
     7
  6
CONTINUOUS
 10
5.255774
 20
7.673472
 30
0.000000
 40
0.229093
 50
48.011461
 51
78.273984
  0
ARC
  8
0
 62
     7
  6
CONTINUOUS
 10
5.196214
 20
7.608604
 30
0.000000
 40
0.317154
 50
24.494119
 51
47.853511
  0
ARC
  8
0
 62
     7
  6
CONTINUOUS
 10
5.353966
 20
7.452650
 30
0.000000
 40
0.315832
 50
42.123856
 51
65.522712
  0
ARC
  8
0
 62
     7
  6
CONTINUOUS
 10
5.418130
 20
7.511727
 30
0.000000
 40
0.228618
 50
11.582473
 51
41.928320
  0
ARC
  8
0
 62
     7
  6
CONTINUOUS
 10
5.448351
 20
7.523346
 30
0.000000
 40
0.196751
 50
335.454779
 51
370.034502
  0
ARC
  8
0
 62
     7
  6
CONTINUOUS
 10
5.344829
 20
7.568609
 30
0.000000
 40
0.309726
 50
310.047620
 51
335.793602
  0
ARC
  8
0
 62
     7
  6
CONTINUOUS
 10
5.456034
 20
7.326487
 30
0.000000
 40
0.088223
 50
353.557635
 51
363.263921
  0
ARC
  8
0
 62
     7
  6
CONTINUOUS
 10
8.555787
 20
7.137471
 30
0.000000
 40
3.017408
 50
176.596844
 51
180.769349
  0
ARC
  8
0
 62
     7
  6
CONTINUOUS
 10
6.298360
 20
7.097677
 30
0.000000
 40
0.759709
 50
180.054451
 51
195.534418
  0
ARC
  8
0
 62
     7
  6
CONTINUOUS
 10
5.721656
 20
6.939405
 30
0.000000
 40
0.161696
 50
196.229079
 51
235.787945
  0
ARC
  8
0
 62
     7
  6
CONTINUOUS
 10
5.673666
 20
6.867155
 30
0.000000
 40
0.074972
 50
235.071886
 51
316.312156
  0
ARC
  8
0
 62
     7
  6
CONTINUOUS
 10
5.622960
 20
6.912922
 30
0.000000
 40
0.143264
 50
317.084103
 51
379.825195
  0
ARC
  8
0
 62
     7
  6
CONTINUOUS
 10
5.719711
 20
6.949135
 30
0.000000
 40
0.039985
 50
18.028867
 51
140.695205
  0
ARC
  8
0
 62
     7
  6
CONTINUOUS
 10
5.722825
 20
6.941830
 30
0.000000
 40
0.047165
 50
136.220197
 51
185.001881
  0
ARC
  8
0
 62
     7
  6
CONTINUOUS
 10
5.691368
 20
6.936051
 30
0.000000
 40
0.015618
 50
173.871513
 51
288.563216
  0
ARC
  8
0
 62
     7
  6
CONTINUOUS
 10
5.702220
 20
6.914471
 30
0.000000
 40
0.008970
 50
41.387035
 51
130.954659
  0
ARC
  8
0
 62
     7
  6
CONTINUOUS
 10
5.693322
 20
6.919654
 30
0.000000
 40
0.015647
 50
292.409525
 51
362.735870
  0
ARC
  8
0
 62
     7
  6
CONTINUOUS
 10
5.677606
 20
6.943110
 30
0.000000
 40
0.043681
 50
201.814582
 51
299.757786
  0
ARC
  8
0
 62
     7
  6
CONTINUOUS
 10
5.704754
 20
6.955634
 30
0.000000
 40
0.073555
 50
129.390433
 51
203.013188
  0
ARC
  8
0
 62
     7
  6
CONTINUOUS
 10
5.700141
 20
6.969956
 30
0.000000
 40
0.059815
 50
78.305315
 51
134.689224
  0
ARC
  8
0
 62
     7
  6
CONTINUOUS
 10
5.684967
 20
6.931271
 30
0.000000
 40
0.101016
 50
28.540152
 51
74.321731
  0
ARC
  8
0
 62
     7
  6
CONTINUOUS
 10
5.616148
 20
6.875670
 30
0.000000
 40
0.188714
 50
355.000307
 51
393.393102
  0
ARC
  8
0
 62
     7
  6
CONTINUOUS
 10
5.665178
 20
6.871621
 30
0.000000
 40
0.139518
 50
309.961268
 51
354.901880
  0
ARC
  8
0
 62
     7
  6
CONTINUOUS
 10
5.691190
 20
6.832934
 30
0.000000
 40
0.093288
 50
228.239890
 51
312.978638
  0
ARC
  8
0
 62
     7
  6
CONTINUOUS
 10
5.824208
 20
6.993403
 30
0.000000
 40
0.301677
 50
201.592365
 51
229.693156
  0
ARC
  8
0
 62
     7
  6
CONTINUOUS
 10
6.161145
 20
7.120179
 30
0.000000
 40
0.661652
 50
183.614030
 51
201.063012
  0
ARC
  8
0
 62
     7
  6
CONTINUOUS
 10
7.336766
 20
7.219343
 30
0.000000
 40
1.841354
 50
177.604208
 51
184.387651
  0
ARC
  8
0
 62
     7
  6
CONTINUOUS
 10
5.256359
 20
7.669864
 30
0.000000
 40
0.444361
 50
276.068065
 51
302.792105
  0
ARC
  8
0
 62
     7
  6
CONTINUOUS
 10
5.267204
 20
7.489069
 30
0.000000
 40
0.263563
 50
237.857923
 51
277.878820
  0
ARC
  8
0
 62
     7
  6
CONTINUOUS
 10
5.385570
 20
7.653741
 30
0.000000
 40
0.466140
 50
230.443836
 51
236.307123
  0
ARC
  8
0
 62
     7
  6
CONTINUOUS
 10
5.257654
 20
7.510248
 30
0.000000
 40
0.274142
 50
224.530599
 51
231.957656
  0
ARC
  8
0
 62
     7
  6
CONTINUOUS
 10
5.237903
 20
7.496430
 30
0.000000
 40
0.250404
 50
217.445473
 51
225.445984
  0
ARC
  8
0
 62
     7
  6
CONTINUOUS
 10
5.352994
 20
7.608363
 30
0.000000
 40
0.410269
 50
213.406291
 51
220.084629
  0
ARC
  8
0
 62
     7
  6
CONTINUOUS
 10
5.233904
 20
7.522919
 30
0.000000
 40
0.263874
 50
172.148476
 51
212.155593
  0
ARC
  8
0
 62
     7
  6
CONTINUOUS
 10
5.415570
 20
7.511806
 30
0.000000
 40
0.445569
 50
147.261953
 51
173.924270
  0
ARC
  8
0
 62
     7
  6
CONTINUOUS
 10
4.962001
 20
9.582794
 30
0.000000
 40
1.831720
 50
265.648265
 51
272.464910
  0
ARC
  8
0
 62
     7
  6
CONTINUOUS
 10
4.864049
 20
8.413384
 30
0.000000
 40
0.658309
 50
248.895628
 51
266.425953
  0
ARC
  8
0
 62
     7
  6
CONTINUOUS
 10
4.736392
 20
8.077735
 30
0.000000
 40
0.299213
 50
220.214817
 51
248.558263
  0
ARC
  8
0
 62
     7
  6
CONTINUOUS
 10
4.577756
 20
7.946731
 30
0.000000
 40
0.093521
 50
137.078952
 51
221.676595
  0
ARC
  8
0
 62
     7
  6
CONTINUOUS
 10
0.311771
 20
6.931271
 30
0.000000
 40
0.101017
 50
105.678379
 51
151.459738
  0
ARC
  8
0
 62
     7
  6
CONTINUOUS
 10
0.296597
 20
6.969959
 30
0.000000
 40
0.059812
 50
45.309626
 51
101.695260
  0
ARC
  8
0
 62
     7
  6
CONTINUOUS
 10
0.291984
 20
6.955633
 30
0.000000
 40
0.073555
 50
336.987444
 51
410.610198
  0
ARC
  8
0
 62
     7
  6
CONTINUOUS
 10
0.319132
 20
6.943110
 30
0.000000
 40
0.043682
 50
240.241454
 51
338.185606
  0
ARC
  8
0
 62
     7
  6
CONTINUOUS
 10
0.303415
 20
6.919654
 30
0.000000
 40
0.015647
 50
177.264130
 51
247.590475
  0
ARC
  8
0
 62
     7
  6
CONTINUOUS
 10
0.294517
 20
6.914470
 30
0.000000
 40
0.008971
 50
49.047007
 51
138.611300
  0
ARC
  8
0
 62
     7
  6
CONTINUOUS
 10
0.305369
 20
6.936051
 30
0.000000
 40
0.015619
 50
251.435948
 51
366.126594
  0
ARC
  8
0
 62
     7
  6
CONTINUOUS
 10
0.273913
 20
6.941831
 30
0.000000
 40
0.047166
 50
354.997388
 51
403.777758
  0
ARC
  8
0
 62
     7
  6
CONTINUOUS
 10
0.277028
 20
6.949135
 30
0.000000
 40
0.039985
 50
39.304711
 51
161.971218
  0
ARC
  8
0
 62
     7
  6
CONTINUOUS
 10
0.373774
 20
6.912920
 30
0.000000
 40
0.143260
 50
160.173203
 51
222.915994
  0
ARC
  8
0
 62
     7
  6
CONTINUOUS
 10
0.323071
 20
6.867155
 30
0.000000
 40
0.074972
 50
223.687844
 51
304.928114
  0
ARC
  8
0
 62
     7
  6
CONTINUOUS
 10
0.275081
 20
6.939405
 30
0.000000
 40
0.161696
 50
304.212055
 51
343.770921
  0
ARC
  8
0
 62
     7
  6
CONTINUOUS
 10
-0.301623
 20
7.097677
 30
0.000000
 40
0.759709
 50
344.465582
 51
359.945549
  0
ARC
  8
0
 62
     7
  6
CONTINUOUS
 10
-2.559051
 20
7.137471
 30
0.000000
 40
3.017408
 50
359.230651
 51
363.403156
  0
ARC
  8
0
 62
     7
  6
CONTINUOUS
 10
0.540703
 20
7.326487
 30
0.000000
 40
0.088223
 50
176.736079
 51
186.442365
  0
ARC
  8
0
 62
     7
  6
CONTINUOUS
 10
0.651906
 20
7.568605
 30
0.000000
 40
0.309722
 50
204.205954
 51
229.952162
  0
ARC
  8
0
 62
     7
  6
CONTINUOUS
 10
0.548383
 20
7.523344
 30
0.000000
 40
0.196746
 50
169.964564
 51
204.545183
  0
ARC
  8
0
 62
     7
  6
CONTINUOUS
 10
0.578604
 20
7.511731
 30
0.000000
 40
0.228612
 50
138.071770
 51
168.418292
  0
ARC
  8
0
 62
     7
  6
CONTINUOUS
 10
0.642771
 20
7.452652
 30
0.000000
 40
0.315830
 50
114.477552
 51
137.876408
  0
ARC
  8
0
 62
     7
  6
CONTINUOUS
 10
0.800520
 20
7.608606
 30
0.000000
 40
0.317151
 50
132.146376
 51
155.505994
  0
ARC
  8
0
 62
     7
  6
CONTINUOUS
 10
0.740963
 20
7.673471
 30
0.000000
 40
0.229095
 50
101.725800
 51
131.988323
  0
ARC
  8
0
 62
     7
  6
CONTINUOUS
 10
0.728264
 20
7.701645
 30
0.000000
 40
0.199040
 50
65.591258
 51
99.794335
  0
ARC
  8
0
 62
     7
  6
CONTINUOUS
 10
0.685124
 20
7.602218
 30
0.000000
 40
0.307413
 50
39.993397
 51
65.927420
  0
ARC
  8
0
 62
     7
  6
CONTINUOUS
 10
0.924842
 20
7.708963
 30
0.000000
 40
0.090926
 50
83.096431
 51
92.649893
  0
ARC
  8
0
 62
     7
  6
CONTINUOUS
 10
1.115665
 20
10.813600
 30
0.000000
 40
3.019733
 50
266.584722
 51
270.750583
  0
ARC
  8
0
 62
     7
  6
CONTINUOUS
 10
1.154723
 20
8.555419
 30
0.000000
 40
0.761293
 50
270.037603
 51
285.482892
  0
ARC
  8
0
 62
     7
  6
CONTINUOUS
 10
1.311766
 20
7.978051
 30
0.000000
 40
0.162978
 50
286.462095
 51
325.741762
  0
ARC
  8
0
 62
     7
  6
CONTINUOUS
 10
1.385147
 20
7.929105
 30
0.000000
 40
0.074780
 50
325.087032
 51
406.541095
  0
ARC
  8
0
 62
     7
  6
CONTINUOUS
 10
1.339171
 20
7.878729
 30
0.000000
 40
0.142977
 50
47.053063
 51
109.826230
  0
ARC
  8
0
 62
     7
  6
CONTINUOUS
 10
1.302899
 20
7.975322
 30
0.000000
 40
0.039830
 50
107.868805
 51
230.638717
  0
ARC
  8
0
 62
     7
  6
CONTINUOUS
 10
1.310236
 20
7.978130
 30
0.000000
 40
0.046816
 50
225.869632
 51
275.144612
  0
ARC
  8
0
 62
     7
  6
CONTINUOUS
 10
1.316191
 20
7.947021
 30
0.000000
 40
0.015618
 50
263.541099
 51
377.995206
  0
ARC
  8
0
 62
     7
  6
CONTINUOUS
 10
1.337601
 20
7.957778
 30
0.000000
 40
0.008840
 50
130.309736
 51
222.141937
  0
ARC
  8
0
 62
     7
  6
CONTINUOUS
 10
1.331983
 20
7.947920
 30
0.000000
 40
0.016599
 50
25.049262
 51
90.351337
  0
ARC
  8
0
 62
     7
  6
CONTINUOUS
 10
1.309142
 20
7.933299
 30
0.000000
 40
0.043630
 50
291.529945
 51
389.749365
  0
ARC
  8
0
 62
     7
  6
CONTINUOUS
 10
1.296248
 20
7.959556
 30
0.000000
 40
0.072825
 50
219.178985
 51
293.385584
  0
ARC
  8
0
 62
     7
  6
CONTINUOUS
 10
1.282553
 20
7.955745
 30
0.000000
 40
0.060072
 50
168.396897
 51
224.620811
  0
ARC
  8
0
 62
     7
  6
CONTINUOUS
 10
1.320961
 20
7.940641
 30
0.000000
 40
0.100981
 50
118.619199
 51
164.382064
  0
ARC
  8
0
 62
     7
  6
CONTINUOUS
 10
1.376429
 20
7.872721
 30
0.000000
 40
0.187867
 50
85.000060
 51
123.553260
  0
ARC
  8
0
 62
     7
  6
CONTINUOUS
 10
1.380234
 20
7.920492
 30
0.000000
 40
0.139947
 50
39.983569
 51
84.847448
  0
ARC
  8
0
 62
     7
  6
CONTINUOUS
 10
1.418981
 20
7.946731
 30
0.000000
 40
0.093521
 50
318.323405
 51
402.921048
  0
ARC
  8
0
 62
     7
  6
CONTINUOUS
 10
1.260345
 20
8.077733
 30
0.000000
 40
0.299211
 50
291.441965
 51
319.785411
  0
ARC
  8
0
 62
     7
  6
CONTINUOUS
 10
1.132688
 20
8.413387
 30
0.000000
 40
0.658312
 50
273.573986
 51
291.104311
  0
ARC
  8
0
 62
     7
  6
CONTINUOUS
 10
1.034736
 20
9.582794
 30
0.000000
 40
1.831720
 50
267.535090
 51
274.351735
  0
ARC
  8
0
 62
     7
  6
CONTINUOUS
 10
0.581175
 20
7.511806
 30
0.000000
 40
0.445562
 50
6.075767
 51
32.738536
  0
ARC
  8
0
 62
     7
  6
CONTINUOUS
 10
0.762830
 20
7.522919
 30
0.000000
 40
0.263878
 50
327.845050
 51
367.851501
  0
ARC
  8
0
 62
     7
  6
CONTINUOUS
 10
0.620392
 20
7.622913
 30
0.000000
 40
0.437775
 50
315.851773
 51
326.686805
  0
ARC
  8
0
 62
     7
  6
CONTINUOUS
 10
0.608741
 20
7.656660
 30
0.000000
 40
0.469917
 50
303.741745
 51
313.888381
  0
ARC
  8
0
 62
     7
  6
CONTINUOUS
 10
0.729534
 20
7.489072
 30
0.000000
 40
0.263566
 50
262.121224
 51
302.141900
  0
ARC
  8
0
 62
     7
  6
CONTINUOUS
 10
0.740378
 20
7.669858
 30
0.000000
 40
0.444355
 50
237.207690
 51
263.931955
  0
ARC
  8
0
 62
     7
  6
CONTINUOUS
 10
-1.340152
 20
7.219354
 30
0.000000
 40
1.841479
 50
355.612315
 51
362.395300
  0
ARC
  8
0
 62
     7
  6
CONTINUOUS
 10
-0.164416
 20
7.120185
 30
0.000000
 40
0.661662
 50
338.936823
 51
356.385578
  0
ARC
  8
0
 62
     7
  6
CONTINUOUS
 10
0.172530
 20
6.993401
 30
0.000000
 40
0.301676
 50
310.307162
 51
338.407953
  0
ARC
  8
0
 62
     7
  6
CONTINUOUS
 10
0.305548
 20
6.832935
 30
0.000000
 40
0.093289
 50
227.021566
 51
311.759916
  0
ARC
  8
0
 62
     7
  6
CONTINUOUS
 10
0.331558
 20
6.871619
 30
0.000000
 40
0.139516
 50
185.097423
 51
230.038476
  0
ARC
  8
0
 62
     7
  6
CONTINUOUS
 10
0.380592
 20
6.875669
 30
0.000000
 40
0.188716
 50
146.607121
 51
184.999470
  0
ARC
  8
0
 62
     7
  6
CONTINUOUS
 10
1.380234
 20
0.374600
 30
0.000000
 40
0.139947
 50
275.152552
 51
320.016431
  0
ARC
  8
0
 62
     7
  6
CONTINUOUS
 10
1.376429
 20
0.422371
 30
0.000000
 40
0.187867
 50
236.446740
 51
274.999940
  0
ARC
  8
0
 62
     7
  6
CONTINUOUS
 10
1.320961
 20
0.354450
 30
0.000000
 40
0.100981
 50
195.617936
 51
241.380801
  0
ARC
  8
0
 62
     7
  6
CONTINUOUS
 10
1.282553
 20
0.339347
 30
0.000000
 40
0.060072
 50
135.379189
 51
191.603103
  0
ARC
  8
0
 62
     7
  6
CONTINUOUS
 10
1.296248
 20
0.335535
 30
0.000000
 40
0.072825
 50
66.614416
 51
140.821015
  0
ARC
  8
0
 62
     7
  6
CONTINUOUS
 10
1.309142
 20
0.361793
 30
0.000000
 40
0.043629
 50
330.250923
 51
428.470343
  0
ARC
  8
0
 62
     7
  6
CONTINUOUS
 10
1.331985
 20
0.347170
 30
0.000000
 40
0.016597
 50
269.643070
 51
334.956332
  0
ARC
  8
0
 62
     7
  6
CONTINUOUS
 10
1.337600
 20
0.337314
 30
0.000000
 40
0.008840
 50
137.858360
 51
229.690561
  0
ARC
  8
0
 62
     7
  6
CONTINUOUS
 10
1.316191
 20
0.348071
 30
0.000000
 40
0.015619
 50
342.003415
 51
456.457521
  0
ARC
  8
0
 62
     7
  6
CONTINUOUS
 10
1.310238
 20
0.316962
 30
0.000000
 40
0.046817
 50
84.856772
 51
134.131752
  0
ARC
  8
0
 62
     7
  6
CONTINUOUS
 10
1.302898
 20
0.319770
 30
0.000000
 40
0.039829
 50
129.361436
 51
252.131348
  0
ARC
  8
0
 62
     7
  6
CONTINUOUS
 10
1.339171
 20
0.416363
 30
0.000000
 40
0.142976
 50
250.173393
 51
312.946561
  0
ARC
  8
0
 62
     7
  6
CONTINUOUS
 10
1.385147
 20
0.365986
 30
0.000000
 40
0.074780
 50
313.458905
 51
394.912968
  0
ARC
  8
0
 62
     7
  6
CONTINUOUS
 10
1.311762
 20
0.317038
 30
0.000000
 40
0.162983
 50
34.258260
 51
73.537037
  0
ARC
  8
0
 62
     7
  6
CONTINUOUS
 10
1.154720
 20
-0.260349
 30
0.000000
 40
0.761315
 50
74.517336
 51
89.962169
  0
ARC
  8
0
 62
     7
  6
CONTINUOUS
 10
1.115669
 20
-2.518673
 30
0.000000
 40
3.019899
 50
89.249531
 51
93.415163
  0
ARC
  8
0
 62
     7
  6
CONTINUOUS
 10
0.924836
 20
0.586129
 30
0.000000
 40
0.090926
 50
267.353888
 51
276.907349
  0
ARC
  8
0
 62
     7
  6
CONTINUOUS
 10
0.685124
 20
0.692873
 30
0.000000
 40
0.307413
 50
294.072580
 51
320.006603
  0
ARC
  8
0
 62
     7
  6
CONTINUOUS
 10
0.728264
 20
0.593446
 30
0.000000
 40
0.199040
 50
260.205665
 51
294.408742
  0
ARC
  8
0
 62
     7
  6
CONTINUOUS
 10
0.740963
 20
0.621621
 30
0.000000
 40
0.229095
 50
228.011677
 51
258.274200
  0
ARC
  8
0
 62
     7
  6
CONTINUOUS
 10
0.800520
 20
0.686485
 30
0.000000
 40
0.317151
 50
204.494006
 51
227.853624
  0
ARC
  8
0
 62
     7
  6
CONTINUOUS
 10
0.642771
 20
0.842439
 30
0.000000
 40
0.315830
 50
222.123592
 51
245.522448
  0
ARC
  8
0
 62
     7
  6
CONTINUOUS
 10
0.578604
 20
0.783361
 30
0.000000
 40
0.228612
 50
191.581708
 51
221.928230
  0
ARC
  8
0
 62
     7
  6
CONTINUOUS
 10
0.548383
 20
0.771748
 30
0.000000
 40
0.196746
 50
155.454817
 51
190.035436
  0
ARC
  8
0
 62
     7
  6
CONTINUOUS
 10
0.651906
 20
0.726487
 30
0.000000
 40
0.309722
 50
130.047838
 51
155.794046
  0
ARC
  8
0
 62
     7
  6
CONTINUOUS
 10
0.540703
 20
0.968604
 30
0.000000
 40
0.088223
 50
173.557635
 51
183.263921
  0
ARC
  8
0
 62
     7
  6
CONTINUOUS
 10
-2.559051
 20
1.157621
 30
0.000000
 40
3.017408
 50
356.596844
 51
360.769349
  0
ARC
  8
0
 62
     7
  6
CONTINUOUS
 10
-0.301623
 20
1.197414
 30
0.000000
 40
0.759709
 50
0.054451
 51
15.534418
  0
ARC
  8
0
 62
     7
  6
CONTINUOUS
 10
0.275079
 20
1.355687
 30
0.000000
 40
0.161697
 50
16.228771
 51
55.787638
  0
ARC
  8
0
 62
     7
  6
CONTINUOUS
 10
0.323071
 20
1.427937
 30
0.000000
 40
0.074972
 50
55.072470
 51
136.312740
  0
ARC
  8
0
 62
     7
  6
CONTINUOUS
 10
0.373775
 20
1.382172
 30
0.000000
 40
0.143260
 50
137.084112
 51
199.826691
  0
ARC
  8
0
 62
     7
  6
CONTINUOUS
 10
0.277028
 20
1.345956
 30
0.000000
 40
0.039985
 50
198.028782
 51
320.695289
  0
ARC
  8
0
 62
     7
  6
CONTINUOUS
 10
0.273911
 20
1.353261
 30
0.000000
 40
0.047167
 50
316.222730
 51
365.003100
  0
ARC
  8
0
 62
     7
  6
CONTINUOUS
 10
0.305369
 20
1.359041
 30
0.000000
 40
0.015618
 50
353.875105
 51
468.565750
  0
ARC
  8
0
 62
     7
  6
CONTINUOUS
 10
0.294517
 20
1.380622
 30
0.000000
 40
0.008971
 50
221.384177
 51
310.948470
  0
ARC
  8
0
 62
     7
  6
CONTINUOUS
 10
0.303415
 20
1.375438
 30
0.000000
 40
0.015646
 50
112.407820
 51
182.734165
  0
ARC
  8
0
 62
     7
  6
CONTINUOUS
 10
0.319132
 20
1.351981
 30
0.000000
 40
0.043682
 50
21.816353
 51
119.758228
  0
ARC
  8
0
 62
     7
  6
CONTINUOUS
 10
0.291983
 20
1.339459
 30
0.000000
 40
0.073556
 50
309.390008
 51
383.012350
  0
ARC
  8
0
 62
     7
  6
CONTINUOUS
 10
0.296596
 20
1.325134
 30
0.000000
 40
0.059813
 50
258.305712
 51
314.691346
  0
ARC
  8
0
 62
     7
  6
CONTINUOUS
 10
0.311772
 20
1.363821
 30
0.000000
 40
0.101018
 50
208.539692
 51
254.321051
  0
ARC
  8
0
 62
     7
  6
CONTINUOUS
 10
0.380590
 20
1.419423
 30
0.000000
 40
0.188715
 50
175.000643
 51
213.392992
  0
ARC
  8
0
 62
     7
  6
CONTINUOUS
 10
0.331559
 20
1.423473
 30
0.000000
 40
0.139518
 50
129.961772
 51
174.902825
  0
ARC
  8
0
 62
     7
  6
CONTINUOUS
 10
0.305547
 20
1.462157
 30
0.000000
 40
0.093289
 50
48.239074
 51
132.977623
  0
ARC
  8
0
 62
     7
  6
CONTINUOUS
 10
0.172528
 20
1.301687
 30
0.000000
 40
0.301679
 50
21.592500
 51
49.692840
  0
ARC
  8
0
 62
     7
  6
CONTINUOUS
 10
-0.164416
 20
1.174907
 30
0.000000
 40
0.661662
 50
3.614422
 51
21.063177
  0
ARC
  8
0
 62
     7
  6
CONTINUOUS
 10
-1.340144
 20
1.075738
 30
0.000000
 40
1.841470
 50
357.604704
 51
364.387690
  0
ARC
  8
0
 62
     7
  6
CONTINUOUS
 10
0.740380
 20
0.625223
 30
0.000000
 40
0.444365
 50
96.068121
 51
122.791708
  0
ARC
  8
0
 62
     7
  6
CONTINUOUS
 10
0.729536
 20
0.806021
 30
0.000000
 40
0.263566
 50
57.858411
 51
97.879086
  0
ARC
  8
0
 62
     7
  6
CONTINUOUS
 10
0.611028
 20
0.641195
 30
0.000000
 40
0.466349
 50
50.442812
 51
56.303351
  0
ARC
  8
0
 62
     7
  6
CONTINUOUS
 10
0.739084
 20
0.784835
 30
0.000000
 40
0.274148
 50
44.531673
 51
51.958731
  0
ARC
  8
0
 62
     7
  6
CONTINUOUS
 10
0.758960
 20
0.798766
 30
0.000000
 40
0.250241
 50
37.444041
 51
45.449587
  0
ARC
  8
0
 62
     7
  6
CONTINUOUS
 10
0.643541
 20
0.686569
 30
0.000000
 40
0.410528
 50
33.409312
 51
40.083529
  0
ARC
  8
0
 62
     7
  6
CONTINUOUS
 10
0.762827
 20
0.772173
 30
0.000000
 40
0.263881
 50
352.148544
 51
392.154772
  0
ARC
  8
0
 62
     7
  6
CONTINUOUS
 10
0.581177
 20
0.783286
 30
0.000000
 40
0.445560
 50
327.261371
 51
353.924141
  0
ARC
  8
0
 62
     7
  6
CONTINUOUS
 10
1.034728
 20
-1.287702
 30
0.000000
 40
1.831720
 50
85.648002
 51
92.464647
  0
ARC
  8
0
 62
     7
  6
CONTINUOUS
 10
1.132691
 20
-0.118295
 30
0.000000
 40
0.658311
 50
68.895968
 51
86.426293
  0
ARC
  8
0
 62
     7
  6
CONTINUOUS
 10
1.260343
 20
0.217361
 30
0.000000
 40
0.299211
 50
40.213840
 51
68.557512
  0
ARC
  8
0
 62
     7
  6
CONTINUOUS
 10
1.418982
 20
0.348360
 30
0.000000
 40
0.093520
 50
317.078748
 51
401.676790
  0
LINE
  8
0
 62
     7
  6
CONTINUOUS
 10
4.404982
 20
0.366698
 30
0.000000
 11
4.259965
 21
0.366698
 31
0.000000
  0
LINE
  8
0
 62
     7
  6
CONTINUOUS
 10
4.259965
 20
0.366698
 30
0.000000
 11
1.736333
 21
0.366698
 31
0.000000
  0
LINE
  8
0
 62
     7
  6
CONTINUOUS
 10
1.736333
 20
0.366698
 30
0.000000
 11
1.591318
 21
0.366698
 31
0.000000
  0
ARC
  8
0
 62
     7
  6
CONTINUOUS
 10
1.381628
 20
0.333716
 30
0.000000
 40
0.212268
 50
8.938954
 51
51.517196
  0
ARC
  8
0
 62
     7
  6
CONTINUOUS
 10
1.229244
 20
0.165383
 30
0.000000
 40
0.439104
 50
49.620212
 51
67.005166
  0
ARC
  8
0
 62
     7
  6
CONTINUOUS
 10
1.157618
 20
-0.037375
 30
0.000000
 40
0.653867
 50
68.168233
 51
82.172430
  0
ARC
  8
0
 62
     7
  6
CONTINUOUS
 10
1.061469
 20
-0.682001
 30
0.000000
 40
1.305602
 50
81.845039
 51
89.102446
  0
ARC
  8
0
 62
     7
  6
CONTINUOUS
 10
0.626045
 20
0.773412
 30
0.000000
 40
0.479910
 50
341.790208
 51
359.602350
  0
ARC
  8
0
 62
     7
  6
CONTINUOUS
 10
0.778251
 20
0.777720
 30
0.000000
 40
0.327781
 50
358.664680
 51
393.381034
  0
ARC
  8
0
 62
     7
  6
CONTINUOUS
 10
0.464957
 20
0.554236
 30
0.000000
 40
0.712496
 50
34.526185
 51
38.867082
  0
LINE
  8
0
 62
     7
  6
CONTINUOUS
 10
1.019708
 20
1.001338
 30
0.000000
 11
1.016797
 21
1.004790
 31
0.000000
  0
ARC
  8
0
 62
     7
  6
CONTINUOUS
 10
0.692400
 20
0.738591
 30
0.000000
 40
0.419638
 50
39.372206
 51
44.659210
  0
ARC
  8
0
 62
     7
  6
CONTINUOUS
 10
0.752229
 20
0.798682
 30
0.000000
 40
0.334844
 50
44.541128
 51
52.093185
  0
ARC
  8
0
 62
     7
  6
CONTINUOUS
 10
0.501106
 20
0.494759
 30
0.000000
 40
0.729017
 50
51.196054
 51
55.368559
  0
ARC
  8
0
 62
     7
  6
CONTINUOUS
 10
0.736026
 20
0.823365
 30
0.000000
 40
0.325195
 50
56.523115
 51
91.442353
  0
ARC
  8
0
 62
     7
  6
CONTINUOUS
 10
0.732309
 20
0.659168
 30
0.000000
 40
0.489309
 50
90.523277
 51
108.041982
  0
ARC
  8
0
 62
     7
  6
CONTINUOUS
 10
-0.715866
 20
1.105695
 30
0.000000
 40
1.296765
 50
0.827246
 51
8.138227
  0
ARC
  8
0
 62
     7
  6
CONTINUOUS
 10
-0.074088
 20
1.201205
 30
0.000000
 40
0.647940
 50
7.811330
 51
21.974436
  0
ARC
  8
0
 62
     7
  6
CONTINUOUS
 10
0.124141
 20
1.273145
 30
0.000000
 40
0.437256
 50
22.952308
 51
40.531619
  0
ARC
  8
0
 62
     7
  6
CONTINUOUS
 10
0.291709
 20
1.425748
 30
0.000000
 40
0.210844
 50
38.605076
 51
81.974398
  0
LINE
  8
0
 62
     7
  6
CONTINUOUS
 10
0.321146
 20
1.634526
 30
0.000000
 11
0.321146
 21
6.660644
 31
0.000000
  0
ARC
  8
0
 62
     7
  6
CONTINUOUS
 10
0.292803
 20
6.868109
 30
0.000000
 40
0.209392
 50
277.779391
 51
321.412837
  0
ARC
  8
0
 62
     7
  6
CONTINUOUS
 10
0.126180
 20
7.019866
 30
0.000000
 40
0.434534
 50
319.474314
 51
337.206041
  0
ARC
  8
0
 62
     7
  6
CONTINUOUS
 10
-0.068162
 20
7.092603
 30
0.000000
 40
0.641932
 50
337.941141
 51
352.205842
  0
ARC
  8
0
 62
     7
  6
CONTINUOUS
 10
-0.718058
 20
7.189250
 30
0.000000
 40
1.298953
 50
351.869750
 51
359.184395
  0
ARC
  8
0
 62
     7
  6
CONTINUOUS
 10
0.729902
 20
7.621281
 30
0.000000
 40
0.474565
 50
251.683627
 51
269.751113
  0
ARC
  8
0
 62
     7
  6
CONTINUOUS
 10
0.735838
 20
7.474900
 30
0.000000
 40
0.328276
 50
268.604009
 51
303.161107
  0
ARC
  8
0
 62
     7
  6
CONTINUOUS
 10
0.623137
 20
7.635648
 30
0.000000
 40
0.524530
 50
303.862185
 51
314.515874
  0
ARC
  8
0
 62
     7
  6
CONTINUOUS
 10
0.577552
 20
7.658482
 30
0.000000
 40
0.573010
 50
316.165441
 51
325.885681
  0
ARC
  8
0
 62
     7
  6
CONTINUOUS
 10
0.778749
 20
7.517296
 30
0.000000
 40
0.327276
 50
326.594773
 51
361.280891
  0
ARC
  8
0
 62
     7
  6
CONTINUOUS
 10
0.620603
 20
7.520888
 30
0.000000
 40
0.485354
 50
0.439616
 51
18.107553
  0
ARC
  8
0
 62
     7
  6
CONTINUOUS
 10
1.061578
 20
8.976192
 30
0.000000
 40
1.304613
 50
270.893425
 51
278.156326
  0
ARC
  8
0
 62
     7
  6
CONTINUOUS
 10
1.157592
 20
8.332603
 30
0.000000
 40
0.653923
 50
277.829183
 51
291.832238
  0
ARC
  8
0
 62
     7
  6
CONTINUOUS
 10
1.235004
 20
8.122172
 30
0.000000
 40
0.429844
 50
292.685039
 51
310.421777
  0
ARC
  8
0
 62
     7
  6
CONTINUOUS
 10
1.381369
 20
7.961161
 30
0.000000
 40
0.212479
 50
308.526935
 51
351.149892
  0
LINE
  8
0
 62
     7
  6
CONTINUOUS
 10
1.591318
 20
7.928471
 30
0.000000
 11
1.736333
 21
7.928471
 31
0.000000
  0
LINE
  8
0
 62
     7
  6
CONTINUOUS
 10
1.736333
 20
7.928471
 30
0.000000
 11
4.259965
 21
7.928471
 31
0.000000
  0
LINE
  8
0
 62
     7
  6
CONTINUOUS
 10
4.259965
 20
7.928471
 30
0.000000
 11
4.404982
 21
7.928471
 31
0.000000
  0
ARC
  8
0
 62
     7
  6
CONTINUOUS
 10
4.614933
 20
7.961163
 30
0.000000
 40
0.212480
 50
188.850429
 51
231.473386
  0
ARC
  8
0
 62
     7
  6
CONTINUOUS
 10
4.761298
 20
8.122169
 30
0.000000
 40
0.429841
 50
229.577997
 51
247.314735
  0
ARC
  8
0
 62
     7
  6
CONTINUOUS
 10
4.838706
 20
8.332588
 30
0.000000
 40
0.653908
 50
248.167556
 51
262.170839
  0
ARC
  8
0
 62
     7
  6
CONTINUOUS
 10
4.934723
 20
8.976208
 30
0.000000
 40
1.304629
 50
261.843728
 51
269.106630
  0
ARC
  8
0
 62
     7
  6
CONTINUOUS
 10
5.375661
 20
7.520891
 30
0.000000
 40
0.485318
 50
161.891384
 51
179.560688
  0
ARC
  8
0
 62
     7
  6
CONTINUOUS
 10
5.217541
 20
7.517293
 30
0.000000
 40
0.327266
 50
178.718549
 51
213.405787
  0
ARC
  8
0
 62
     7
  6
CONTINUOUS
 10
5.530887
 20
7.740556
 30
0.000000
 40
0.711900
 50
214.521381
 51
218.865943
  0
ARC
  8
0
 62
     7
  6
CONTINUOUS
 10
5.273315
 20
7.530344
 30
0.000000
 40
0.379448
 50
218.556702
 51
225.086653
  0
ARC
  8
0
 62
     7
  6
CONTINUOUS
 10
5.301436
 20
7.555570
 30
0.000000
 40
0.417172
 50
224.797678
 51
230.902359
  0
ARC
  8
0
 62
     7
  6
CONTINUOUS
 10
5.679897
 20
8.047786
 30
0.000000
 40
1.037976
 50
231.824256
 51
234.754203
  0
ARC
  8
0
 62
     7
  6
CONTINUOUS
 10
5.260461
 20
7.474898
 30
0.000000
 40
0.328275
 50
236.838813
 51
271.395911
  0
ARC
  8
0
 62
     7
  6
CONTINUOUS
 10
5.266398
 20
7.621279
 30
0.000000
 40
0.474562
 50
270.248711
 51
288.316425
  0
ARC
  8
0
 62
     7
  6
CONTINUOUS
 10
6.714317
 20
7.189247
 30
0.000000
 40
1.298912
 50
180.815490
 51
188.130364
  0
ARC
  8
0
 62
     7
  6
CONTINUOUS
 10
6.064443
 20
7.092601
 30
0.000000
 40
0.641913
 50
187.794277
 51
202.059435
  0
ARC
  8
0
 62
     7
  6
CONTINUOUS
 10
5.870101
 20
7.019851
 30
0.000000
 40
0.434511
 50
202.793140
 51
220.525777
  0
ARC
  8
0
 62
     7
  6
CONTINUOUS
 10
5.703496
 20
6.868109
 30
0.000000
 40
0.209392
 50
218.587234
 51
262.220901
  0
LINE
  8
0
 62
     7
  6
CONTINUOUS
 10
5.675154
 20
6.660644
 30
0.000000
 11
5.675154
 21
1.634526
 31
0.000000
  0
ARC
  8
0
 62
     7
  6
CONTINUOUS
 10
5.704590
 20
1.425747
 30
0.000000
 40
0.210844
 50
98.025309
 51
141.394852
  0
ARC
  8
0
 62
     7
  6
CONTINUOUS
 10
5.872140
 20
1.273160
 30
0.000000
 40
0.437232
 50
139.468290
 51
157.048512
  0
ARC
  8
0
 62
     7
  6
CONTINUOUS
 10
6.070358
 20
1.201209
 30
0.000000
 40
0.647910
 50
158.024875
 51
172.188666
  0
ARC
  8
0
 62
     7
  6
CONTINUOUS
 10
6.712166
 20
1.105695
 30
0.000000
 40
1.296765
 50
171.861773
 51
179.172754
  0
ARC
  8
0
 62
     7
  6
CONTINUOUS
 10
5.263992
 20
0.659177
 30
0.000000
 40
0.489300
 50
71.957852
 51
89.477013
  0
ARC
  8
0
 62
     7
  6
CONTINUOUS
 10
5.260273
 20
0.823366
 30
0.000000
 40
0.325193
 50
88.557728
 51
123.476966
  0
ARC
  8
0
 62
     7
  6
CONTINUOUS
 10
5.495481
 20
0.494374
 30
0.000000
 40
0.729498
 50
124.632816
 51
128.802572
  0
ARC
  8
0
 62
     7
  6
CONTINUOUS
 10
5.244172
 20
0.798569
 30
0.000000
 40
0.334996
 50
127.908532
 51
135.457155
  0
ARC
  8
0
 62
     7
  6
CONTINUOUS
 10
5.303900
 20
0.738591
 30
0.000000
 40
0.419638
 50
135.340790
 51
140.627794
  0
LINE
  8
0
 62
     7
  6
CONTINUOUS
 10
4.979502
 20
1.004790
 30
0.000000
 11
4.976590
 21
1.001338
 31
0.000000
  0
ARC
  8
0
 62
     7
  6
CONTINUOUS
 10
5.530861
 20
0.554622
 30
0.000000
 40
0.711879
 50
141.132788
 51
145.477350
  0
ARC
  8
0
 62
     7
  6
CONTINUOUS
 10
5.218039
 20
0.777723
 30
0.000000
 40
0.327771
 50
146.618406
 51
181.335879
  0
ARC
  8
0
 62
     7
  6
CONTINUOUS
 10
5.370214
 20
0.773408
 30
0.000000
 40
0.479868
 50
180.397233
 51
198.210970
  0
ARC
  8
0
 62
     7
  6
CONTINUOUS
 10
4.934832
 20
-0.682017
 30
0.000000
 40
1.305618
 50
90.897500
 51
98.154907
  0
ARC
  8
0
 62
     7
  6
CONTINUOUS
 10
4.838680
 20
-0.037360
 30
0.000000
 40
0.653852
 50
97.827548
 51
111.831973
  0
ARC
  8
0
 62
     7
  6
CONTINUOUS
 10
4.767057
 20
0.165386
 30
0.000000
 40
0.439102
 50
112.995061
 51
130.380014
  0
ARC
  8
0
 62
     7
  6
CONTINUOUS
 10
4.614673
 20
0.333714
 30
0.000000
 40
0.212269
 50
128.482482
 51
171.060725
  0
ARC
  8
0
 62
     7
  6
CONTINUOUS
 10
5.684966
 20
1.363821
 30
0.000000
 40
0.101017
 50
285.678839
 51
331.460418
  0
ARC
  8
0
 62
     7
  6
CONTINUOUS
 10
5.700142
 20
1.325136
 30
0.000000
 40
0.059815
 50
225.309804
 51
281.693713
  0
ARC
  8
0
 62
     7
  6
CONTINUOUS
 10
5.704754
 20
1.339459
 30
0.000000
 40
0.073555
 50
156.987019
 51
230.609361
  0
ARC
  8
0
 62
     7
  6
CONTINUOUS
 10
5.677606
 20
1.351981
 30
0.000000
 40
0.043682
 50
60.242532
 51
158.183458
  0
ARC
  8
0
 62
     7
  6
CONTINUOUS
 10
5.693322
 20
1.375438
 30
0.000000
 40
0.015646
 50
357.265835
 51
427.592180
  0
ARC
  8
0
 62
     7
  6
CONTINUOUS
 10
5.702220
 20
1.380622
 30
0.000000
 40
0.008971
 50
229.049865
 51
318.617488
  0
ARC
  8
0
 62
     7
  6
CONTINUOUS
 10
5.691368
 20
1.359041
 30
0.000000
 40
0.015618
 50
71.435085
 51
186.126789
  0
ARC
  8
0
 62
     7
  6
CONTINUOUS
 10
5.722826
 20
1.353262
 30
0.000000
 40
0.047166
 50
174.997630
 51
223.779314
  0
ARC
  8
0
 62
     7
  6
CONTINUOUS
 10
5.719711
 20
1.345956
 30
0.000000
 40
0.039985
 50
219.304795
 51
341.971133
  0
ARC
  8
0
 62
     7
  6
CONTINUOUS
 10
5.622959
 20
1.382169
 30
0.000000
 40
0.143264
 50
340.174911
 51
402.915791
  0
ARC
  8
0
 62
     7
  6
CONTINUOUS
 10
5.673666
 20
1.427937
 30
0.000000
 40
0.074972
 50
43.687260
 51
124.927530
  0
ARC
  8
0
 62
     7
  6
CONTINUOUS
 10
5.721658
 20
1.355687
 30
0.000000
 40
0.161697
 50
124.212362
 51
163.771229
  0
ARC
  8
0
 62
     7
  6
CONTINUOUS
 10
6.298360
 20
1.197414
 30
0.000000
 40
0.759709
 50
164.465582
 51
179.945549
  0
ARC
  8
0
 62
     7
  6
CONTINUOUS
 10
8.555787
 20
1.157621
 30
0.000000
 40
3.017408
 50
179.230651
 51
183.403156
  0
ARC
  8
0
 62
     7
  6
CONTINUOUS
 10
5.456034
 20
0.968604
 30
0.000000
 40
0.088223
 50
356.736079
 51
366.442365
  0
ARC
  8
0
 62
     7
  6
CONTINUOUS
 10
5.344829
 20
0.726483
 30
0.000000
 40
0.309726
 50
24.206398
 51
49.952380
  0
ARC
  8
0
 62
     7
  6
CONTINUOUS
 10
5.448351
 20
0.771745
 30
0.000000
 40
0.196751
 50
349.965498
 51
384.545221
  0
ARC
  8
0
 62
     7
  6
CONTINUOUS
 10
5.418130
 20
0.783365
 30
0.000000
 40
0.228618
 50
318.071680
 51
348.417527
  0
ARC
  8
0
 62
     7
  6
CONTINUOUS
 10
5.353966
 20
0.842442
 30
0.000000
 40
0.315832
 50
294.477288
 51
317.876144
  0
ARC
  8
0
 62
     7
  6
CONTINUOUS
 10
5.196214
 20
0.686487
 30
0.000000
 40
0.317154
 50
312.146489
 51
335.505881
  0
ARC
  8
0
 62
     7
  6
CONTINUOUS
 10
5.255774
 20
0.621619
 30
0.000000
 40
0.229093
 50
281.726016
 51
311.988539
  0
ARC
  8
0
 62
     7
  6
CONTINUOUS
 10
5.268475
 20
0.593447
 30
0.000000
 40
0.199041
 50
245.591370
 51
279.794223
  0
ARC
  8
0
 62
     7
  6
CONTINUOUS
 10
5.311614
 20
0.692873
 30
0.000000
 40
0.307413
 50
219.993397
 51
245.927420
  0
ARC
  8
0
 62
     7
  6
CONTINUOUS
 10
5.071901
 20
0.586135
 30
0.000000
 40
0.090932
 50
263.092791
 51
272.646253
  0
ARC
  8
0
 62
     7
  6
CONTINUOUS
 10
4.881069
 20
-2.518660
 30
0.000000
 40
3.019885
 50
86.584831
 51
90.750463
  0
ARC
  8
0
 62
     7
  6
CONTINUOUS
 10
4.842019
 20
-0.260364
 30
0.000000
 40
0.761330
 50
90.037907
 51
105.482512
  0
ARC
  8
0
 62
     7
  6
CONTINUOUS
 10
4.684975
 20
0.317040
 30
0.000000
 40
0.162981
 50
106.463271
 51
145.742048
  0
ARC
  8
0
 62
     7
  6
CONTINUOUS
 10
4.611590
 20
0.365986
 30
0.000000
 40
0.074780
 50
145.086448
 51
226.540511
  0
ARC
  8
0
 62
     7
  6
CONTINUOUS
 10
4.657566
 20
0.416366
 30
0.000000
 40
0.142979
 50
227.053835
 51
289.826366
  0
ARC
  8
0
 62
     7
  6
CONTINUOUS
 10
4.693839
 20
0.319770
 30
0.000000
 40
0.039829
 50
287.868652
 51
410.638564
  0
ARC
  8
0
 62
     7
  6
CONTINUOUS
 10
4.686501
 20
0.316963
 30
0.000000
 40
0.046815
 50
45.867482
 51
95.143994
  0
ARC
  8
0
 62
     7
  6
CONTINUOUS
 10
4.680547
 20
0.348072
 30
0.000000
 40
0.015618
 50
83.541961
 51
198.000483
  0
ARC
  8
0
 62
     7
  6
CONTINUOUS
 10
4.659139
 20
0.337314
 30
0.000000
 40
0.008840
 50
310.309439
 51
402.141640
  0
ARC
  8
0
 62
     7
  6
CONTINUOUS
 10
4.664754
 20
0.347172
 30
0.000000
 40
0.016599
 50
205.048669
 51
270.358766
  0
ARC
  8
0
 62
     7
  6
CONTINUOUS
 10
4.687595
 20
0.361793
 30
0.000000
 40
0.043629
 50
111.529657
 51
209.749077
  0
ARC
  8
0
 62
     7
  6
CONTINUOUS
 10
4.700490
 20
0.335532
 30
0.000000
 40
0.072828
 50
39.180118
 51
113.385069
  0
ARC
  8
0
 62
     7
  6
CONTINUOUS
 10
4.714183
 20
0.339348
 30
0.000000
 40
0.060073
 50
348.395711
 51
404.618115
  0
ARC
  8
0
 62
     7
  6
CONTINUOUS
 10
4.675776
 20
0.354449
 30
0.000000
 40
0.100980
 50
298.620561
 51
344.382985
  0
ARC
  8
0
 62
     7
  6
CONTINUOUS
 10
4.620309
 20
0.422374
 30
0.000000
 40
0.187871
 50
265.000169
 51
303.552923
  0
ARC
  8
0
 62
     7
  6
CONTINUOUS
 10
4.616503
 20
0.374601
 30
0.000000
 40
0.139948
 50
219.983817
 51
264.847696
  0
ARC
  8
0
 62
     7
  6
CONTINUOUS
 10
4.577755
 20
0.348360
 30
0.000000
 40
0.093520
 50
138.323210
 51
222.921252
  0
ARC
  8
0
 62
     7
  6
CONTINUOUS
 10
4.736395
 20
0.217359
 30
0.000000
 40
0.299213
 50
111.442260
 51
139.785932
  0
ARC
  8
0
 62
     7
  6
CONTINUOUS
 10
4.864046
 20
-0.118292
 30
0.000000
 40
0.658308
 50
93.573768
 51
111.104093
  0
ARC
  8
0
 62
     7
  6
CONTINUOUS
 10
4.962009
 20
-1.287702
 30
0.000000
 40
1.831720
 50
87.535353
 51
94.351998
  0
ARC
  8
0
 62
     7
  6
CONTINUOUS
 10
5.415568
 20
0.783286
 30
0.000000
 40
0.445567
 50
186.075822
 51
212.738140
  0
ARC
  8
0
 62
     7
  6
CONTINUOUS
 10
5.233908
 20
0.772172
 30
0.000000
 40
0.263878
 50
147.844696
 51
187.851368
  0
ARC
  8
0
 62
     7
  6
CONTINUOUS
 10
5.352994
 20
0.686729
 30
0.000000
 40
0.410269
 50
139.915371
 51
146.593709
  0
ARC
  8
0
 62
     7
  6
CONTINUOUS
 10
5.237896
 20
0.798662
 30
0.000000
 40
0.250398
 50
134.552931
 51
142.553441
  0
ARC
  8
0
 62
     7
  6
CONTINUOUS
 10
5.257654
 20
0.784843
 30
0.000000
 40
0.274142
 50
128.042344
 51
135.469401
  0
ARC
  8
0
 62
     7
  6
CONTINUOUS
 10
5.385579
 20
0.641351
 30
0.000000
 40
0.466146
 50
123.693841
 51
129.557129
  0
ARC
  8
0
 62
     7
  6
CONTINUOUS
 10
5.267202
 20
0.806025
 30
0.000000
 40
0.263562
 50
82.120758
 51
122.141878
  0
ARC
  8
0
 62
     7
  6
CONTINUOUS
 10
5.256357
 20
0.625217
 30
0.000000
 40
0.444371
 50
57.208498
 51
83.931859
  0
ARC
  8
0
 62
     7
  6
CONTINUOUS
 10
7.336758
 20
1.075749
 30
0.000000
 40
1.841346
 50
175.612344
 51
182.395787
  0
ARC
  8
0
 62
     7
  6
CONTINUOUS
 10
6.161145
 20
1.174912
 30
0.000000
 40
0.661652
 50
158.936988
 51
176.385970
  0
ARC
  8
0
 62
     7
  6
CONTINUOUS
 10
5.824210
 20
1.301685
 30
0.000000
 40
0.301680
 50
130.306842
 51
158.407182
  0
ARC
  8
0
 62
     7
  6
CONTINUOUS
 10
5.691191
 20
1.462158
 30
0.000000
 40
0.093288
 50
47.022173
 51
131.761121
  0
ARC
  8
0
 62
     7
  6
CONTINUOUS
 10
5.665177
 20
1.423471
 30
0.000000
 40
0.139519
 50
5.097871
 51
50.038484
  0
ARC
  8
0
 62
     7
  6
CONTINUOUS
 10
5.616150
 20
1.419422
 30
0.000000
 40
0.188713
 50
326.606785
 51
364.999580
  0
ARC
  8
0
 62
     7
  6
CONTINUOUS
 10
5.192266
 20
0.790080
 30
0.000000
 40
0.585576
 50
145.582493
 51
168.303460
  0
ARC
  8
0
 62
     7
  6
CONTINUOUS
 10
5.491885
 20
0.582579
 30
0.000000
 40
0.950029
 50
140.781008
 51
145.472419
  0
LINE
  8
0
 62
     7
  6
CONTINUOUS
 10
4.755864
 20
1.183269
 30
0.000000
 11
4.759274
 21
1.187308
 31
0.000000
  0
ARC
  8
0
 62
     7
  6
CONTINUOUS
 10
5.378405
 20
0.673981
 30
0.000000
 40
0.804256
 50
135.634946
 51
140.337582
  0
ARC
  8
0
 62
     7
  6
CONTINUOUS
 10
5.286656
 20
0.747938
 30
0.000000
 40
0.687045
 50
128.177156
 51
134.694055
  0
LINE
  8
0
 62
     7
  6
CONTINUOUS
 10
4.861997
 20
1.288026
 30
0.000000
 11
4.871303
 21
1.295073
 31
0.000000
  0
ARC
  8
0
 62
     7
  6
CONTINUOUS
 10
5.633031
 20
0.305712
 30
0.000000
 40
1.248625
 50
124.946162
 51
127.593339
  0
ARC
  8
0
 62
     7
  6
CONTINUOUS
 10
5.251310
 20
0.844593
 30
0.000000
 40
0.588272
 50
101.893052
 51
124.535269
  0
ARC
  8
0
 62
     7
  6
CONTINUOUS
 10
5.118791
 20
1.475692
 30
0.000000
 40
0.056591
 50
281.502081
 51
344.423063
  0
ARC
  8
0
 62
     7
  6
CONTINUOUS
 10
5.919659
 20
1.253954
 30
0.000000
 40
0.774407
 50
157.109002
 51
164.531480
  0
ARC
  8
0
 62
     7
  6
CONTINUOUS
 10
5.537349
 20
1.408573
 30
0.000000
 40
0.362116
 50
123.447006
 51
156.117177
  0
ARC
  8
0
 62
     7
  6
CONTINUOUS
 10
5.316343
 20
1.787731
 30
0.000000
 40
0.079933
 50
285.544046
 51
301.900520
  0
ARC
  8
0
 62
     7
  6
CONTINUOUS
 10
5.324174
 20
1.775085
 30
0.000000
 40
0.065059
 50
301.930642
 51
359.721881
  0
LINE
  8
0
 62
     7
  6
CONTINUOUS
 10
5.389232
 20
1.774769
 30
0.000000
 11
5.389232
 21
6.520471
 31
0.000000
  0
ARC
  8
0
 62
     7
  6
CONTINUOUS
 10
5.326103
 20
6.520776
 30
0.000000
 40
0.063130
 50
359.723650
 51
419.036021
  0
ARC
  8
0
 62
     7
  6
CONTINUOUS
 10
5.311770
 20
6.500767
 30
0.000000
 40
0.087684
 50
57.731379
 51
72.755691
  0
ARC
  8
0
 62
     7
  6
CONTINUOUS
 10
5.532802
 20
6.882813
 30
0.000000
 40
0.356405
 50
203.613557
 51
236.822259
  0
ARC
  8
0
 62
     7
  6
CONTINUOUS
 10
5.945800
 20
7.050350
 30
0.000000
 40
0.802020
 50
195.594470
 51
202.761668
  0
ARC
  8
0
 62
     7
  6
CONTINUOUS
 10
5.119103
 20
6.819822
 30
0.000000
 40
0.056217
 50
15.394587
 51
78.979644
  0
ARC
  8
0
 62
     7
  6
CONTINUOUS
 10
5.245564
 20
7.441781
 30
0.000000
 40
0.578470
 50
235.487421
 51
258.460943
  0
ARC
  8
0
 62
     7
  6
CONTINUOUS
 10
5.507417
 20
7.817289
 30
0.000000
 40
1.036256
 50
231.298361
 51
235.321029
  0
ARC
  8
0
 62
     7
  6
CONTINUOUS
 10
5.307213
 20
7.563561
 30
0.000000
 40
0.713068
 50
225.050608
 51
231.105134
  0
ARC
  8
0
 62
     7
  6
CONTINUOUS
 10
5.304506
 20
7.555882
 30
0.000000
 40
0.705729
 50
218.739325
 51
224.765680
  0
ARC
  8
0
 62
     7
  6
CONTINUOUS
 10
5.580912
 20
7.776306
 30
0.000000
 40
1.059263
 50
214.641262
 51
218.683174
  0
ARC
  8
0
 62
     7
  6
CONTINUOUS
 10
5.188998
 20
7.504287
 30
0.000000
 40
0.582200
 50
191.678163
 51
214.540958
  0
ARC
  8
0
 62
     7
  6
CONTINUOUS
 10
4.562435
 20
7.373978
 30
0.000000
 40
0.057775
 50
12.457757
 51
73.761789
  0
ARC
  8
0
 62
     7
  6
CONTINUOUS
 10
4.811788
 20
8.254488
 30
0.000000
 40
0.857364
 50
247.581050
 51
254.217026
  0
ARC
  8
0
 62
     7
  6
CONTINUOUS
 10
4.756508
 20
8.111026
 30
0.000000
 40
0.703671
 50
223.761843
 51
247.287021
  0
ARC
  8
0
 62
     7
  6
CONTINUOUS
 10
4.206181
 20
7.584989
 30
0.000000
 40
0.057632
 50
43.040140
 51
89.738592
  0
LINE
  8
0
 62
     7
  6
CONTINUOUS
 10
4.206443
 20
7.642620
 30
0.000000
 11
1.789857
 21
7.642620
 31
0.000000
  0
ARC
  8
0
 62
     7
  6
CONTINUOUS
 10
1.790120
 20
7.584988
 30
0.000000
 40
0.057633
 50
90.260576
 51
136.959688
  0
ARC
  8
0
 62
     7
  6
CONTINUOUS
 10
1.239792
 20
8.111026
 30
0.000000
 40
0.703671
 50
292.712979
 51
316.238157
  0
ARC
  8
0
 62
     7
  6
CONTINUOUS
 10
1.184550
 20
8.254376
 30
0.000000
 40
0.857245
 50
285.782516
 51
292.419408
  0
ARC
  8
0
 62
     7
  6
CONTINUOUS
 10
1.433865
 20
7.373978
 30
0.000000
 40
0.057775
 50
106.238211
 51
167.542243
  0
ARC
  8
0
 62
     7
  6
CONTINUOUS
 10
0.807329
 20
7.504275
 30
0.000000
 40
0.582171
 50
325.458475
 51
348.322404
  0
ARC
  8
0
 62
     7
  6
CONTINUOUS
 10
0.577300
 20
7.656883
 30
0.000000
 40
0.858192
 50
315.829773
 51
325.773743
  0
ARC
  8
0
 62
     7
  6
CONTINUOUS
 10
0.646832
 20
7.608164
 30
0.000000
 40
0.774489
 50
303.872384
 51
314.830666
  0
ARC
  8
0
 62
     7
  6
CONTINUOUS
 10
0.750736
 20
7.441781
 30
0.000000
 40
0.578470
 50
281.539057
 51
304.512579
  0
ARC
  8
0
 62
     7
  6
CONTINUOUS
 10
0.877197
 20
6.819823
 30
0.000000
 40
0.056216
 50
101.020484
 51
164.606600
  0
ARC
  8
0
 62
     7
  6
CONTINUOUS
 10
0.050258
 20
7.050442
 30
0.000000
 40
0.802278
 50
337.238937
 51
344.403845
  0
ARC
  8
0
 62
     7
  6
CONTINUOUS
 10
0.463506
 20
6.882807
 30
0.000000
 40
0.356395
 50
303.177292
 51
336.386892
  0
ARC
  8
0
 62
     7
  6
CONTINUOUS
 10
0.684530
 20
6.500764
 30
0.000000
 40
0.087688
 50
107.243262
 51
122.267574
  0
ARC
  8
0
 62
     7
  6
CONTINUOUS
 10
0.670197
 20
6.520778
 30
0.000000
 40
0.063129
 50
120.965578
 51
180.277948
  0
LINE
  8
0
 62
     7
  6
CONTINUOUS
 10
0.607068
 20
6.520471
 30
0.000000
 11
0.607068
 21
1.774769
 31
0.000000
  0
ARC
  8
0
 62
     7
  6
CONTINUOUS
 10
0.672126
 20
1.775083
 30
0.000000
 40
0.065058
 50
180.276527
 51
238.067767
  0
ARC
  8
0
 62
     7
  6
CONTINUOUS
 10
0.679956
 20
1.787735
 30
0.000000
 40
0.079937
 50
238.100494
 51
254.456968
  0
ARC
  8
0
 62
     7
  6
CONTINUOUS
 10
0.458959
 20
1.408580
 30
0.000000
 40
0.362106
 50
23.882373
 51
56.553443
  0
ARC
  8
0
 62
     7
  6
CONTINUOUS
 10
0.076415
 20
1.253868
 30
0.000000
 40
0.774648
 50
15.470204
 51
22.890393
  0
ARC
  8
0
 62
     7
  6
CONTINUOUS
 10
0.877509
 20
1.475690
 30
0.000000
 40
0.056589
 50
195.575745
 51
258.497789
  0
ARC
  8
0
 62
     7
  6
CONTINUOUS
 10
0.744990
 20
0.844593
 30
0.000000
 40
0.588272
 50
55.464731
 51
78.106948
  0
ARC
  8
0
 62
     7
  6
CONTINUOUS
 10
0.363269
 20
0.305712
 30
0.000000
 40
1.248625
 50
52.406661
 51
55.053838
  0
LINE
  8
0
 62
     7
  6
CONTINUOUS
 10
1.124996
 20
1.295073
 30
0.000000
 11
1.134302
 21
1.288026
 31
0.000000
  0
ARC
  8
0
 62
     7
  6
CONTINUOUS
 10
0.709500
 20
0.747766
 30
0.000000
 40
0.687268
 50
45.307461
 51
51.822299
  0
ARC
  8
0
 62
     7
  6
CONTINUOUS
 10
0.617685
 20
0.673809
 30
0.000000
 40
0.804527
 50
39.662562
 51
44.363365
  0
LINE
  8
0
 62
     7
  6
CONTINUOUS
 10
1.237023
 20
1.187310
 30
0.000000
 11
1.240435
 21
1.183269
 31
0.000000
  0
ARC
  8
0
 62
     7
  6
CONTINUOUS
 10
0.504415
 20
0.582579
 30
0.000000
 40
0.950029
 50
34.527581
 51
39.218992
  0
ARC
  8
0
 62
     7
  6
CONTINUOUS
 10
0.804056
 20
0.790089
 30
0.000000
 40
0.585553
 50
11.696086
 51
34.417961
  0
ARC
  8
0
 62
     7
  6
CONTINUOUS
 10
1.433466
 20
0.920973
 30
0.000000
 40
0.057325
 50
192.268257
 51
254.280697
  0
ARC
  8
0
 62
     7
  6
CONTINUOUS
 10
1.180235
 20
0.036737
 30
0.000000
 40
0.862458
 50
67.380651
 51
74.001742
  0
ARC
  8
0
 62
     7
  6
CONTINUOUS
 10
1.240591
 20
0.185002
 30
0.000000
 40
0.702386
 50
43.773338
 51
67.273797
  0
ARC
  8
0
 62
     7
  6
CONTINUOUS
 10
1.789147
 20
0.708520
 30
0.000000
 40
0.055910
 50
222.265185
 51
270.494156
  0
LINE
  8
0
 62
     7
  6
CONTINUOUS
 10
1.789629
 20
0.652612
 30
0.000000
 11
4.206670
 21
0.652612
 31
0.000000
  0
ARC
  8
0
 62
     7
  6
CONTINUOUS
 10
4.207154
 20
0.708518
 30
0.000000
 40
0.055908
 50
269.504857
 51
317.735802
  0
ARC
  8
0
 62
     7
  6
CONTINUOUS
 10
4.755709
 20
0.185002
 30
0.000000
 40
0.702386
 50
112.726203
 51
136.226662
  0
ARC
  8
0
 62
     7
  6
CONTINUOUS
 10
4.816094
 20
0.036653
 30
0.000000
 40
0.862547
 50
105.998602
 51
112.619006
  0
ARC
  8
0
 62
     7
  6
CONTINUOUS
 10
4.562834
 20
0.920973
 30
0.000000
 40
0.057325
 50
285.719303
 51
347.731743
  0
ARC
  8
0
 62
     7
  6
CONTINUOUS
 10
4.788386
 20
0.112768
 30
0.000000
 40
0.838823
 50
105.599980
 51
112.902720
  0
ARC
  8
0
 62
     7
  6
CONTINUOUS
 10
4.756813
 20
0.183655
 30
0.000000
 40
0.761239
 50
112.789982
 51
136.277288
  0
LINE
  8
0
 62
     7
  6
CONTINUOUS
 10
4.206670
 20
0.709799
 30
0.000000
 11
1.789629
 21
0.709799
 31
0.000000
  0
ARC
  8
0
 62
     7
  6
CONTINUOUS
 10
1.239479
 20
0.183645
 30
0.000000
 40
0.761251
 50
43.722834
 51
67.209687
  0
ARC
  8
0
 62
     7
  6
CONTINUOUS
 10
1.207914
 20
0.112760
 30
0.000000
 40
0.838831
 50
67.097457
 51
74.400196
  0
ARC
  8
0
 62
     7
  6
CONTINUOUS
 10
0.807946
 20
0.791061
 30
0.000000
 40
0.638833
 50
11.707589
 51
34.569022
  0
ARC
  8
0
 62
     7
  6
CONTINUOUS
 10
0.422411
 20
0.521318
 30
0.000000
 40
1.109357
 50
34.742840
 51
38.996677
  0
LINE
  8
0
 62
     7
  6
CONTINUOUS
 10
1.284583
 20
1.219409
 30
0.000000
 11
1.283515
 21
1.220692
 31
0.000000
  0
ARC
  8
0
 62
     7
  6
CONTINUOUS
 10
0.623063
 20
0.678327
 30
0.000000
 40
0.854609
 50
39.392915
 51
44.430236
  0
ARC
  8
0
 62
     7
  6
CONTINUOUS
 10
0.744772
 20
0.786875
 30
0.000000
 40
0.691751
 50
45.066945
 51
52.118516
  0
ARC
  8
0
 62
     7
  6
CONTINUOUS
 10
0.521757
 20
0.521171
 30
0.000000
 40
1.038485
 50
51.408304
 51
55.432117
  0
ARC
  8
0
 62
     7
  6
CONTINUOUS
 10
0.747321
 20
0.848922
 30
0.000000
 40
0.640616
 50
55.412568
 51
78.218407
  0
ARC
  8
0
 62
     7
  6
CONTINUOUS
 10
0.045734
 20
1.242454
 30
0.000000
 40
0.864542
 50
15.675378
 51
22.809148
  0
ARC
  8
0
 62
     7
  6
CONTINUOUS
 10
0.459217
 20
1.408688
 30
0.000000
 40
0.419010
 50
23.774234
 51
57.123176
  0
ARC
  8
0
 62
     7
  6
CONTINUOUS
 10
0.429543
 20
1.378837
 30
0.000000
 40
0.460271
 50
56.037937
 51
59.297618
  0
LINE
  8
0
 62
     7
  6
CONTINUOUS
 10
0.664547
 20
1.774592
 30
0.000000
 11
0.664256
 21
1.774769
 31
0.000000
  0
LINE
  8
0
 62
     7
  6
CONTINUOUS
 10
0.664256
 20
1.774769
 30
0.000000
 11
0.664256
 21
6.520471
 31
0.000000
  0
ARC
  8
0
 62
     7
  6
CONTINUOUS
 10
0.534934
 20
6.749693
 30
0.000000
 40
0.263186
 50
299.430853
 51
305.207336
  0
ARC
  8
0
 62
     7
  6
CONTINUOUS
 10
0.462709
 20
6.883576
 30
0.000000
 40
0.414617
 50
302.694906
 51
336.407683
  0
ARC
  8
0
 62
     7
  6
CONTINUOUS
 10
0.072662
 20
7.043402
 30
0.000000
 40
0.836084
 50
337.068278
 51
344.444739
  0
ARC
  8
0
 62
     7
  6
CONTINUOUS
 10
0.751415
 20
7.441544
 30
0.000000
 40
0.635121
 50
281.507781
 51
304.480622
  0
ARC
  8
0
 62
     7
  6
CONTINUOUS
 10
0.618130
 20
7.641959
 30
0.000000
 40
0.875790
 50
304.245693
 51
314.625169
  0
ARC
  8
0
 62
     7
  6
CONTINUOUS
 10
0.593237
 20
7.644879
 30
0.000000
 40
0.895491
 50
315.627533
 51
325.812368
  0
ARC
  8
0
 62
     7
  6
CONTINUOUS
 10
0.807909
 20
7.504183
 30
0.000000
 40
0.638871
 50
325.432029
 51
348.292782
  0
ARC
  8
0
 62
     7
  6
CONTINUOUS
 10
1.185680
 20
8.248060
 30
0.000000
 40
0.907982
 50
285.838321
 51
292.520095
  0
ARC
  8
0
 62
     7
  6
CONTINUOUS
 10
1.241403
 20
8.109202
 30
0.000000
 40
0.758371
 50
292.649256
 51
316.319335
  0
LINE
  8
0
 62
     7
  6
CONTINUOUS
 10
1.789857
 20
7.585441
 30
0.000000
 11
4.206443
 21
7.585441
 31
0.000000
  0
ARC
  8
0
 62
     7
  6
CONTINUOUS
 10
4.754885
 20
8.109184
 30
0.000000
 40
0.758350
 50
223.680325
 51
247.351084
  0
ARC
  8
0
 62
     7
  6
CONTINUOUS
 10
4.810590
 20
8.247964
 30
0.000000
 40
0.907881
 50
247.479384
 51
254.161844
  0
ARC
  8
0
 62
     7
  6
CONTINUOUS
 10
5.188391
 20
7.504183
 30
0.000000
 40
0.638871
 50
191.707218
 51
214.567971
  0
ARC
  8
0
 62
     7
  6
CONTINUOUS
 10
5.545968
 20
7.752121
 30
0.000000
 40
1.073996
 50
214.636349
 51
218.839554
  0
ARC
  8
0
 62
     7
  6
CONTINUOUS
 10
5.338874
 20
7.586948
 30
0.000000
 40
0.809103
 50
218.926187
 51
224.618841
  0
ARC
  8
0
 62
     7
  6
CONTINUOUS
 10
5.350080
 20
7.611363
 30
0.000000
 40
0.834282
 50
225.271771
 51
230.868914
  0
ARC
  8
0
 62
     7
  6
CONTINUOUS
 10
5.555619
 20
7.878339
 30
0.000000
 40
1.171127
 50
231.311705
 51
235.085781
  0
ARC
  8
0
 62
     7
  6
CONTINUOUS
 10
5.244909
 20
7.441603
 30
0.000000
 40
0.635182
 50
235.520513
 51
258.491084
  0
ARC
  8
0
 62
     7
  6
CONTINUOUS
 10
5.923418
 20
7.043341
 30
0.000000
 40
0.835856
 50
195.555237
 51
202.933758
  0
ARC
  8
0
 62
     7
  6
CONTINUOUS
 10
5.533592
 20
6.883573
 30
0.000000
 40
0.414615
 50
203.591954
 51
237.304731
  0
ARC
  8
0
 62
     7
  6
CONTINUOUS
 10
5.461255
 20
6.749536
 30
0.000000
 40
0.262994
 50
234.792683
 51
240.573747
  0
LINE
  8
0
 62
     7
  6
CONTINUOUS
 10
5.332045
 20
6.520471
 30
0.000000
 11
5.332045
 21
1.774769
 31
0.000000
  0
LINE
  8
0
 62
     7
  6
CONTINUOUS
 10
5.332045
 20
1.774769
 30
0.000000
 11
5.331784
 21
1.774611
 31
0.000000
  0
ARC
  8
0
 62
     7
  6
CONTINUOUS
 10
5.566761
 20
1.378831
 30
0.000000
 40
0.460278
 50
120.697773
 51
123.962037
  0
ARC
  8
0
 62
     7
  6
CONTINUOUS
 10
5.537079
 20
1.408695
 30
0.000000
 40
0.419002
 50
122.876962
 51
156.226353
  0
ARC
  8
0
 62
     7
  6
CONTINUOUS
 10
5.950357
 20
1.242512
 30
0.000000
 40
0.864326
 50
157.188931
 51
164.324533
  0
ARC
  8
0
 62
     7
  6
CONTINUOUS
 10
5.248979
 20
0.848922
 30
0.000000
 40
0.640616
 50
101.781593
 51
124.587432
  0
ARC
  8
0
 62
     7
  6
CONTINUOUS
 10
5.474543
 20
0.521171
 30
0.000000
 40
1.038485
 50
124.567883
 51
128.591696
  0
ARC
  8
0
 62
     7
  6
CONTINUOUS
 10
5.251513
 20
0.786900
 30
0.000000
 40
0.691722
 50
127.881814
 51
134.933615
  0
ARC
  8
0
 62
     7
  6
CONTINUOUS
 10
5.373194
 20
0.678367
 30
0.000000
 40
0.854550
 50
135.569648
 51
140.610176
  0
LINE
  8
0
 62
     7
  6
CONTINUOUS
 10
4.712758
 20
1.220659
 30
0.000000
 11
4.711717
 21
1.219409
 31
0.000000
  0
ARC
  8
0
 62
     7
  6
CONTINUOUS
 10
5.574464
 20
0.520874
 30
0.000000
 40
1.110082
 50
141.004141
 51
145.255229
  0
ARC
  8
0
 62
     7
  6
CONTINUOUS
 10
5.188353
 20
0.791061
 30
0.000000
 40
0.638833
 50
145.430978
 51
168.292411
  0
ARC
  8
0
 62
     7
  6
CONTINUOUS
 10
0.622962
 20
7.506722
 30
0.000000
 40
0.187060
 50
227.566936
 51
235.472221
  0
ARC
  8
0
 62
     7
  6
CONTINUOUS
 10
0.822118
 20
7.759992
 30
0.000000
 40
0.509014
 50
233.161827
 51
251.091511
  0
ARC
  8
0
 62
     7
  6
CONTINUOUS
 10
0.744057
 20
7.514616
 30
0.000000
 40
0.251646
 50
249.801095
 51
283.123562
  0
ARC
  8
0
 62
     7
  6
CONTINUOUS
 10
0.852423
 20
7.423073
 30
0.000000
 40
0.161852
 50
223.577646
 51
251.547490
  0
ARC
  8
0
 62
     7
  6
CONTINUOUS
 10
0.869178
 20
7.452311
 30
0.000000
 40
0.194384
 50
206.782339
 51
226.417775
  0
ARC
  8
0
 62
     7
  6
CONTINUOUS
 10
0.713116
 20
7.491563
 30
0.000000
 40
0.128039
 50
221.359999
 51
262.158135
  0
ARC
  8
0
 62
     7
  6
CONTINUOUS
 10
0.675366
 20
7.463741
 30
0.000000
 40
0.081422
 50
168.535095
 51
224.220178
  0
ARC
  8
0
 62
     7
  6
CONTINUOUS
 10
0.711637
 20
7.444016
 30
0.000000
 40
0.121497
 50
115.201660
 51
162.809109
  0
ARC
  8
0
 62
     7
  6
CONTINUOUS
 10
0.754229
 20
7.388565
 30
0.000000
 40
0.190392
 50
110.738613
 51
119.698086
  0
ARC
  8
0
 62
     7
  6
CONTINUOUS
 10
0.833422
 20
7.513820
 30
0.000000
 40
0.155829
 50
149.302929
 51
160.193984
  0
ARC
  8
0
 62
     7
  6
CONTINUOUS
 10
0.808793
 20
7.542263
 30
0.000000
 40
0.120718
 50
107.109189
 51
154.952918
  0
ARC
  8
0
 62
     7
  6
CONTINUOUS
 10
0.789333
 20
7.577636
 30
0.000000
 40
0.081598
 50
45.833681
 51
101.347078
  0
ARC
  8
0
 62
     7
  6
CONTINUOUS
 10
0.763986
 20
7.541641
 30
0.000000
 40
0.125268
 50
7.321936
 51
48.990144
  0
ARC
  8
0
 62
     7
  6
CONTINUOUS
 10
0.798488
 20
7.380143
 30
0.000000
 40
0.198864
 50
43.958581
 51
63.173750
  0
ARC
  8
0
 62
     7
  6
CONTINUOUS
 10
0.827631
 20
7.399295
 30
0.000000
 40
0.164718
 50
18.665021
 51
46.200351
  0
ARC
  8
0
 62
     7
  6
CONTINUOUS
 10
0.738781
 20
7.509093
 30
0.000000
 40
0.251469
 50
346.879767
 51
380.220632
  0
ARC
  8
0
 62
     7
  6
CONTINUOUS
 10
0.486297
 20
7.428552
 30
0.000000
 40
0.516362
 50
18.923248
 51
36.598475
  0
ARC
  8
0
 62
     7
  6
CONTINUOUS
 10
0.679340
 20
7.572973
 30
0.000000
 40
0.275278
 50
36.421036
 51
41.049906
  0
LINE
  8
0
 62
     7
  6
CONTINUOUS
 10
0.886937
 20
7.753752
 30
0.000000
 11
0.884450
 21
7.756691
 31
0.000000
  0
ARC
  8
0
 62
     7
  6
CONTINUOUS
 10
0.777806
 20
5.931330
 30
0.000000
 40
1.828474
 50
86.656355
 51
92.319921
  0
ARC
  8
0
 62
     7
  6
CONTINUOUS
 10
0.720406
 20
7.244041
 30
0.000000
 40
0.514533
 50
91.850599
 51
110.318661
  0
ARC
  8
0
 62
     7
  6
CONTINUOUS
 10
0.576265
 20
7.631589
 30
0.000000
 40
0.101049
 50
109.978515
 51
116.464728
  0
ARC
  8
0
 62
     7
  6
CONTINUOUS
 10
0.595938
 20
7.687718
 30
0.000000
 40
0.073249
 50
152.050561
 51
161.173873
  0
ARC
  8
0
 62
     7
  6
CONTINUOUS
 10
1.007785
 20
7.533274
 30
0.000000
 40
0.513073
 50
159.690724
 51
178.210018
  0
ARC
  8
0
 62
     7
  6
CONTINUOUS
 10
2.318066
 20
7.476996
 30
0.000000
 40
1.824538
 50
177.728842
 51
183.404089
  0
ARC
  8
0
 62
     7
  6
CONTINUOUS
 10
0.709220
 20
7.270421
 30
0.000000
 40
0.406104
 50
97.242735
 51
106.620713
  0
ARC
  8
0
 62
     7
  6
CONTINUOUS
 10
0.865816
 20
7.497547
 30
0.000000
 40
0.272144
 50
139.777962
 51
150.199064
  0
LINE
  8
0
 62
     7
  6
CONTINUOUS
 10
0.629661
 20
7.632799
 30
0.000000
 11
0.626232
 21
7.626620
 31
0.000000
  0
ARC
  8
0
 62
     7
  6
CONTINUOUS
 10
0.651620
 20
7.574701
 30
0.000000
 40
0.057794
 50
116.057676
 51
123.376213
  0
ARC
  8
0
 62
     7
  6
CONTINUOUS
 10
0.744575
 20
7.400252
 30
0.000000
 40
0.255270
 50
119.254971
 51
130.339928
  0
ARC
  8
0
 62
     7
  6
CONTINUOUS
 10
0.979829
 20
7.543720
 30
0.000000
 40
0.403743
 50
163.326983
 51
172.728298
  0
ARC
  8
0
 62
     7
  6
CONTINUOUS
 10
5.373768
 20
0.788377
 30
0.000000
 40
0.187059
 50
47.563814
 51
55.469100
  0
ARC
  8
0
 62
     7
  6
CONTINUOUS
 10
5.174619
 20
0.535091
 30
0.000000
 40
0.509022
 50
53.162429
 51
71.091885
  0
ARC
  8
0
 62
     7
  6
CONTINUOUS
 10
5.252681
 20
0.780481
 30
0.000000
 40
0.251641
 50
69.800934
 51
103.123625
  0
ARC
  8
0
 62
     7
  6
CONTINUOUS
 10
5.144307
 20
0.872004
 30
0.000000
 40
0.161869
 50
43.579114
 51
71.546023
  0
ARC
  8
0
 62
     7
  6
CONTINUOUS
 10
5.127538
 20
0.842763
 30
0.000000
 40
0.194413
 50
26.783818
 51
46.416297
  0
ARC
  8
0
 62
     7
  6
CONTINUOUS
 10
5.283618
 20
0.803522
 30
0.000000
 40
0.128046
 50
41.361139
 51
82.156388
  0
ARC
  8
0
 62
     7
  6
CONTINUOUS
 10
5.321375
 20
0.831351
 30
0.000000
 40
0.081419
 50
348.534551
 51
404.221146
  0
ARC
  8
0
 62
     7
  6
CONTINUOUS
 10
5.285099
 20
0.851078
 30
0.000000
 40
0.121499
 50
295.201438
 51
342.808449
  0
ARC
  8
0
 62
     7
  6
CONTINUOUS
 10
5.242502
 20
0.906521
 30
0.000000
 40
0.190389
 50
290.741177
 51
299.700649
  0
ARC
  8
0
 62
     7
  6
CONTINUOUS
 10
5.163411
 20
0.781227
 30
0.000000
 40
0.155725
 50
329.299270
 51
340.197643
  0
ARC
  8
0
 62
     7
  6
CONTINUOUS
 10
5.187945
 20
0.752829
 30
0.000000
 40
0.120718
 50
287.109189
 51
334.952918
  0
ARC
  8
0
 62
     7
  6
CONTINUOUS
 10
5.207405
 20
0.717456
 30
0.000000
 40
0.081598
 50
225.833681
 51
281.347078
  0
ARC
  8
0
 62
     7
  6
CONTINUOUS
 10
5.232752
 20
0.753449
 30
0.000000
 40
0.125266
 50
187.320733
 51
228.989606
  0
ARC
  8
0
 62
     7
  6
CONTINUOUS
 10
5.198218
 20
0.914912
 30
0.000000
 40
0.198816
 50
223.957399
 51
243.177347
  0
ARC
  8
0
 62
     7
  6
CONTINUOUS
 10
5.169127
 20
0.895809
 30
0.000000
 40
0.164740
 50
198.666941
 51
226.198431
  0
ARC
  8
0
 62
     7
  6
CONTINUOUS
 10
5.257955
 20
0.785998
 30
0.000000
 40
0.251467
 50
166.879396
 51
200.220261
  0
ARC
  8
0
 62
     7
  6
CONTINUOUS
 10
5.510444
 20
0.866543
 30
0.000000
 40
0.516366
 50
198.923399
 51
216.598627
  0
ARC
  8
0
 62
     7
  6
CONTINUOUS
 10
5.317398
 20
0.722119
 30
0.000000
 40
0.275278
 50
216.421036
 51
221.049906
  0
LINE
  8
0
 62
     7
  6
CONTINUOUS
 10
5.109800
 20
0.541339
 30
0.000000
 11
5.112286
 21
0.538401
 31
0.000000
  0
ARC
  8
0
 62
     7
  6
CONTINUOUS
 10
5.218941
 20
2.363762
 30
0.000000
 40
1.828474
 50
266.656038
 51
272.319604
  0
ARC
  8
0
 62
     7
  6
CONTINUOUS
 10
5.276330
 20
1.051051
 30
0.000000
 40
0.514533
 50
271.850599
 51
290.318661
  0
ARC
  8
0
 62
     7
  6
CONTINUOUS
 10
5.420468
 20
0.663533
 30
0.000000
 40
0.101080
 50
289.975022
 51
296.460318
  0
ARC
  8
0
 62
     7
  6
CONTINUOUS
 10
5.400792
 20
0.607362
 30
0.000000
 40
0.073252
 50
332.061654
 51
341.184738
  0
ARC
  8
0
 62
     7
  6
CONTINUOUS
 10
4.988972
 20
0.761821
 30
0.000000
 40
0.513056
 50
339.689701
 51
358.209678
  0
ARC
  8
0
 62
     7
  6
CONTINUOUS
 10
3.678903
 20
0.818078
 30
0.000000
 40
1.824308
 50
357.729136
 51
363.405070
  0
ARC
  8
0
 62
     7
  6
CONTINUOUS
 10
5.287331
 20
1.024928
 30
0.000000
 40
0.406668
 50
277.249256
 51
286.614192
  0
ARC
  8
0
 62
     7
  6
CONTINUOUS
 10
5.131115
 20
0.797077
 30
0.000000
 40
0.271833
 50
319.769547
 51
330.204829
  0
LINE
  8
0
 62
     7
  6
CONTINUOUS
 10
5.367013
 20
0.662003
 30
0.000000
 11
5.370442
 21
0.668174
 31
0.000000
  0
ARC
  8
0
 62
     7
  6
CONTINUOUS
 10
5.344561
 20
0.720865
 30
0.000000
 40
0.058704
 50
296.159934
 51
303.368344
  0
ARC
  8
0
 62
     7
  6
CONTINUOUS
 10
5.252324
 20
0.894228
 30
0.000000
 40
0.254880
 50
299.246280
 51
310.345870
  0
ARC
  8
0
 62
     7
  6
CONTINUOUS
 10
5.017578
 20
0.750912
 30
0.000000
 40
0.402988
 50
343.319021
 51
352.737954
  0
ARC
  8
0
 62
     7
  6
CONTINUOUS
 10
0.827638
 20
0.895792
 30
0.000000
 40
0.164710
 50
313.798971
 51
341.335657
  0
ARC
  8
0
 62
     7
  6
CONTINUOUS
 10
0.798509
 20
0.914924
 30
0.000000
 40
0.198832
 50
296.824076
 51
316.042204
  0
ARC
  8
0
 62
     7
  6
CONTINUOUS
 10
0.763985
 20
0.753451
 30
0.000000
 40
0.125269
 50
311.010160
 51
352.678368
  0
ARC
  8
0
 62
     7
  6
CONTINUOUS
 10
0.789333
 20
0.717456
 30
0.000000
 40
0.081598
 50
258.652922
 51
314.166319
  0
ARC
  8
0
 62
     7
  6
CONTINUOUS
 10
0.808793
 20
0.752829
 30
0.000000
 40
0.120718
 50
205.047082
 51
252.890811
  0
ARC
  8
0
 62
     7
  6
CONTINUOUS
 10
0.833422
 20
0.781272
 30
0.000000
 40
0.155829
 50
199.806016
 51
210.697071
  0
ARC
  8
0
 62
     7
  6
CONTINUOUS
 10
0.754236
 20
0.906527
 30
0.000000
 40
0.190394
 50
240.300172
 51
249.259644
  0
ARC
  8
0
 62
     7
  6
CONTINUOUS
 10
0.711637
 20
0.851076
 30
0.000000
 40
0.121497
 50
197.190891
 51
244.798340
  0
ARC
  8
0
 62
     7
  6
CONTINUOUS
 10
0.675365
 20
0.831351
 30
0.000000
 40
0.081421
 50
135.779609
 51
191.464693
  0
ARC
  8
0
 62
     7
  6
CONTINUOUS
 10
0.713119
 20
0.803522
 30
0.000000
 40
0.128046
 50
97.842975
 51
138.638891
  0
ARC
  8
0
 62
     7
  6
CONTINUOUS
 10
0.869178
 20
0.842781
 30
0.000000
 40
0.194384
 50
133.582225
 51
153.217661
  0
ARC
  8
0
 62
     7
  6
CONTINUOUS
 10
0.852423
 20
0.872019
 30
0.000000
 40
0.161852
 50
108.452510
 51
136.422354
  0
ARC
  8
0
 62
     7
  6
CONTINUOUS
 10
0.744057
 20
0.780476
 30
0.000000
 40
0.251646
 50
76.876438
 51
110.198905
  0
ARC
  8
0
 62
     7
  6
CONTINUOUS
 10
0.822115
 20
0.535100
 30
0.000000
 40
0.509012
 50
108.908170
 51
126.837853
  0
ARC
  8
0
 62
     7
  6
CONTINUOUS
 10
0.622969
 20
0.788370
 30
0.000000
 40
0.187064
 50
124.529518
 51
132.434803
  0
ARC
  8
0
 62
     7
  6
CONTINUOUS
 10
2.318056
 20
0.818096
 30
0.000000
 40
1.824528
 50
176.595908
 51
182.271155
  0
ARC
  8
0
 62
     7
  6
CONTINUOUS
 10
1.007785
 20
0.761819
 30
0.000000
 40
0.513073
 50
181.789982
 51
200.309276
  0
ARC
  8
0
 62
     7
  6
CONTINUOUS
 10
0.595944
 20
0.607374
 30
0.000000
 40
0.073255
 50
198.824175
 51
207.947487
  0
ARC
  8
0
 62
     7
  6
CONTINUOUS
 10
0.576265
 20
0.663502
 30
0.000000
 40
0.101049
 50
243.535272
 51
250.021485
  0
ARC
  8
0
 62
     7
  6
CONTINUOUS
 10
0.720406
 20
1.051051
 30
0.000000
 40
0.514533
 50
249.681339
 51
268.149401
  0
ARC
  8
0
 62
     7
  6
CONTINUOUS
 10
0.777796
 20
2.363762
 30
0.000000
 40
1.828474
 50
267.680396
 51
273.343962
  0
LINE
  8
0
 62
     7
  6
CONTINUOUS
 10
0.884450
 20
0.538401
 30
0.000000
 11
0.886937
 21
0.541339
 31
0.000000
  0
ARC
  8
0
 62
     7
  6
CONTINUOUS
 10
0.679340
 20
0.722119
 30
0.000000
 40
0.275278
 50
318.950094
 51
323.578964
  0
ARC
  8
0
 62
     7
  6
CONTINUOUS
 10
0.486294
 20
0.866540
 30
0.000000
 40
0.516365
 50
323.401693
 51
341.076920
  0
ARC
  8
0
 62
     7
  6
CONTINUOUS
 10
0.738783
 20
0.786000
 30
0.000000
 40
0.251467
 50
339.779343
 51
373.120208
  0
ARC
  8
0
 62
     7
  6
CONTINUOUS
 10
0.979829
 20
0.751075
 30
0.000000
 40
0.403743
 50
187.271702
 51
196.673017
  0
ARC
  8
0
 62
     7
  6
CONTINUOUS
 10
0.744584
 20
0.894611
 30
0.000000
 40
0.255328
 50
229.668467
 51
240.749994
  0
ARC
  8
0
 62
     7
  6
CONTINUOUS
 10
0.651792
 20
0.720303
 30
0.000000
 40
0.058057
 50
236.591475
 51
243.880248
  0
LINE
  8
0
 62
     7
  6
CONTINUOUS
 10
0.626232
 20
0.668174
 30
0.000000
 11
0.629661
 21
0.662003
 31
0.000000
  0
ARC
  8
0
 62
     7
  6
CONTINUOUS
 10
0.865542
 20
0.797029
 30
0.000000
 40
0.271793
 50
209.788183
 51
220.224151
  0
ARC
  8
0
 62
     7
  6
CONTINUOUS
 10
0.709378
 20
1.025122
 30
0.000000
 40
0.406866
 50
253.388096
 51
262.748456
  0
ARC
  8
0
 62
     7
  6
CONTINUOUS
 10
5.169135
 20
7.399277
 30
0.000000
 40
0.164749
 50
133.802360
 51
161.332269
  0
ARC
  8
0
 62
     7
  6
CONTINUOUS
 10
5.198239
 20
7.380155
 30
0.000000
 40
0.198848
 50
116.824827
 51
136.041817
  0
ARC
  8
0
 62
     7
  6
CONTINUOUS
 10
5.232750
 20
7.541643
 30
0.000000
 40
0.125265
 50
131.010091
 51
172.678964
  0
ARC
  8
0
 62
     7
  6
CONTINUOUS
 10
5.207405
 20
7.577636
 30
0.000000
 40
0.081598
 50
78.652922
 51
134.166319
  0
ARC
  8
0
 62
     7
  6
CONTINUOUS
 10
5.187945
 20
7.542263
 30
0.000000
 40
0.120718
 50
25.047082
 51
72.890811
  0
ARC
  8
0
 62
     7
  6
CONTINUOUS
 10
5.163411
 20
7.513864
 30
0.000000
 40
0.155725
 50
19.802357
 51
30.700730
  0
ARC
  8
0
 62
     7
  6
CONTINUOUS
 10
5.242508
 20
7.388571
 30
0.000000
 40
0.190386
 50
60.301094
 51
69.260566
  0
ARC
  8
0
 62
     7
  6
CONTINUOUS
 10
5.285099
 20
7.444014
 30
0.000000
 40
0.121499
 50
17.191551
 51
64.798562
  0
ARC
  8
0
 62
     7
  6
CONTINUOUS
 10
5.321375
 20
7.463741
 30
0.000000
 40
0.081420
 50
315.779066
 51
371.465661
  0
ARC
  8
0
 62
     7
  6
CONTINUOUS
 10
5.283621
 20
7.491563
 30
0.000000
 40
0.128040
 50
277.842502
 51
318.639971
  0
ARC
  8
0
 62
     7
  6
CONTINUOUS
 10
5.127538
 20
7.452329
 30
0.000000
 40
0.194413
 50
313.583703
 51
333.216182
  0
ARC
  8
0
 62
     7
  6
CONTINUOUS
 10
5.144307
 20
7.423087
 30
0.000000
 40
0.161869
 50
288.453977
 51
316.420886
  0
ARC
  8
0
 62
     7
  6
CONTINUOUS
 10
5.252681
 20
7.514611
 30
0.000000
 40
0.251641
 50
256.876375
 51
290.199066
  0
ARC
  8
0
 62
     7
  6
CONTINUOUS
 10
5.174616
 20
7.760001
 30
0.000000
 40
0.509023
 50
288.908434
 51
306.837890
  0
ARC
  8
0
 62
     7
  6
CONTINUOUS
 10
5.373775
 20
7.506715
 30
0.000000
 40
0.187054
 50
304.529161
 51
312.434446
  0
ARC
  8
0
 62
     7
  6
CONTINUOUS
 10
3.678892
 20
7.477014
 30
0.000000
 40
1.824318
 50
356.594933
 51
362.270867
  0
ARC
  8
0
 62
     7
  6
CONTINUOUS
 10
4.988972
 20
7.533271
 30
0.000000
 40
0.513056
 50
1.790322
 51
20.310299
  0
ARC
  8
0
 62
     7
  6
CONTINUOUS
 10
5.400798
 20
7.687730
 30
0.000000
 40
0.073246
 50
18.817213
 51
27.940297
  0
ARC
  8
0
 62
     7
  6
CONTINUOUS
 10
5.420468
 20
7.631558
 30
0.000000
 40
0.101080
 50
63.539682
 51
70.024978
  0
ARC
  8
0
 62
     7
  6
CONTINUOUS
 10
5.276330
 20
7.244041
 30
0.000000
 40
0.514533
 50
69.681339
 51
88.149401
  0
ARC
  8
0
 62
     7
  6
CONTINUOUS
 10
5.218931
 20
5.931330
 30
0.000000
 40
1.828474
 50
87.680079
 51
93.343645
  0
LINE
  8
0
 62
     7
  6
CONTINUOUS
 10
5.112286
 20
7.756691
 30
0.000000
 11
5.109800
 21
7.753752
 31
0.000000
  0
ARC
  8
0
 62
     7
  6
CONTINUOUS
 10
5.317398
 20
7.572973
 30
0.000000
 40
0.275278
 50
138.950094
 51
143.578964
  0
ARC
  8
0
 62
     7
  6
CONTINUOUS
 10
5.510441
 20
7.428549
 30
0.000000
 40
0.516364
 50
143.401205
 51
161.076433
  0
ARC
  8
0
 62
     7
  6
CONTINUOUS
 10
5.257957
 20
7.509094
 30
0.000000
 40
0.251469
 50
159.779764
 51
193.120629
  0
ARC
  8
0
 62
     7
  6
CONTINUOUS
 10
5.017578
 20
7.543883
 30
0.000000
 40
0.402988
 50
7.262046
 51
16.680979
  0
ARC
  8
0
 62
     7
  6
CONTINUOUS
 10
5.252330
 20
7.400630
 30
0.000000
 40
0.254827
 50
49.645849
 51
60.748641
  0
ARC
  8
0
 62
     7
  6
CONTINUOUS
 10
5.344736
 20
7.574143
 30
0.000000
 40
0.058435
 50
56.663968
 51
63.902143
  0
LINE
  8
0
 62
     7
  6
CONTINUOUS
 10
5.370442
 20
7.626620
 30
0.000000
 11
5.368727
 21
7.629710
 31
0.000000
  0
LINE
  8
0
 62
     7
  6
CONTINUOUS
 10
5.368727
 20
7.629710
 30
0.000000
 11
5.367013
 21
7.632799
 31
0.000000
  0
ARC
  8
0
 62
     7
  6
CONTINUOUS
 10
5.130841
 20
7.497498
 30
0.000000
 40
0.272184
 50
29.807924
 51
40.228340
  0
ARC
  8
0
 62
     7
  6
CONTINUOUS
 10
5.287489
 20
7.270615
 30
0.000000
 40
0.405906
 50
73.376999
 51
82.759553
  0
ARC
  8
0
 62
     7
  6
CONTINUOUS
 10
0.713687
 20
7.667315
 30
0.000000
 40
0.187263
 50
94.007509
 51
151.981175
  0
ARC
  8
0
 62
     7
  6
CONTINUOUS
 10
0.835282
 20
6.875872
 30
0.000000
 40
0.925032
 50
89.877833
 51
108.068988
  0
ARC
  8
0
 62
     7
  6
CONTINUOUS
 10
0.693357
 20
7.633463
 30
0.000000
 40
0.220777
 50
49.324062
 51
88.120025
  0
ARC
  8
0
 62
     7
  6
CONTINUOUS
 10
5.303381
 20
7.633461
 30
0.000000
 40
0.220778
 50
91.879833
 51
130.675796
  0
ARC
  8
0
 62
     7
  6
CONTINUOUS
 10
5.161457
 20
6.875883
 30
0.000000
 40
0.925020
 50
71.930898
 51
90.122281
  0
ARC
  8
0
 62
     7
  6
CONTINUOUS
 10
5.283052
 20
7.667318
 30
0.000000
 40
0.187260
 50
28.018330
 51
85.992641
  0
ARC
  8
0
 62
     7
  6
CONTINUOUS
 10
0.693355
 20
0.661630
 30
0.000000
 40
0.220777
 50
271.880339
 51
310.676302
  0
ARC
  8
0
 62
     7
  6
CONTINUOUS
 10
0.835279
 20
1.419220
 30
0.000000
 40
0.925031
 50
251.931205
 51
270.122360
  0
ARC
  8
0
 62
     7
  6
CONTINUOUS
 10
0.713687
 20
0.627776
 30
0.000000
 40
0.187263
 50
208.018825
 51
265.992491
  0
ARC
  8
0
 62
     7
  6
CONTINUOUS
 10
5.283052
 20
0.627773
 30
0.000000
 40
0.187260
 50
274.007359
 51
331.981670
  0
ARC
  8
0
 62
     7
  6
CONTINUOUS
 10
5.161460
 20
1.419209
 30
0.000000
 40
0.925020
 50
269.877526
 51
288.068909
  0
ARC
  8
0
 62
     7
  6
CONTINUOUS
 10
5.303382
 20
0.661631
 30
0.000000
 40
0.220779
 50
229.323840
 51
268.119803
  0
ARC
  8
0
 62
     7
  6
CONTINUOUS
 10
5.261038
 20
0.823492
 30
0.000000
 40
0.084600
 50
96.629490
 51
117.930785
  0
ARC
  8
0
 62
     7
  6
CONTINUOUS
 10
5.242824
 20
0.866132
 30
0.000000
 40
0.038591
 50
123.700389
 51
219.403047
  0
ARC
  8
0
 62
     7
  6
CONTINUOUS
 10
5.254179
 20
0.880463
 30
0.000000
 40
0.056594
 50
223.319318
 51
271.738726
  0
ARC
  8
0
 62
     7
  6
CONTINUOUS
 10
5.264335
 20
0.805775
 30
0.000000
 40
0.019987
 50
65.035035
 51
114.971756
  0
ARC
  8
0
 62
     7
  6
CONTINUOUS
 10
5.270642
 20
0.821532
 30
0.000000
 40
0.003180
 50
317.459637
 51
407.995397
  0
ARC
  8
0
 62
     7
  6
CONTINUOUS
 10
5.255173
 20
0.833633
 30
0.000000
 40
0.022811
 50
294.753534
 51
321.339429
  0
ARC
  8
0
 62
     7
  6
CONTINUOUS
 10
5.242781
 20
0.858270
 30
0.000000
 40
0.050382
 50
254.104405
 51
295.819166
  0
ARC
  8
0
 62
     7
  6
CONTINUOUS
 10
5.181209
 20
0.795739
 30
0.000000
 40
0.049803
 50
334.192525
 51
376.416262
  0
ARC
  8
0
 62
     7
  6
CONTINUOUS
 10
5.205396
 20
0.783622
 30
0.000000
 40
0.022757
 50
308.445597
 51
335.147481
  0
ARC
  8
0
 62
     7
  6
CONTINUOUS
 10
5.217433
 20
0.768133
 30
0.000000
 40
0.003149
 50
221.001402
 51
312.139986
  0
ARC
  8
0
 62
     7
  6
CONTINUOUS
 10
5.233127
 20
0.774371
 30
0.000000
 40
0.019887
 50
154.971676
 51
204.678730
  0
ARC
  8
0
 62
     7
  6
CONTINUOUS
 10
5.158687
 20
0.784555
 30
0.000000
 40
0.056448
 50
358.202209
 51
406.629943
  0
ARC
  8
0
 62
     7
  6
CONTINUOUS
 10
5.172699
 20
0.796249
 30
0.000000
 40
0.038386
 50
49.849330
 51
146.532647
  0
ARC
  8
0
 62
     7
  6
CONTINUOUS
 10
5.209651
 20
0.779684
 30
0.000000
 40
0.078620
 50
151.318088
 51
174.240785
  0
ARC
  8
0
 62
     7
  6
CONTINUOUS
 10
5.247965
 20
0.928012
 30
0.000000
 40
0.182494
 50
230.313587
 51
282.895245
  0
ARC
  8
0
 62
     7
  6
CONTINUOUS
 10
5.110433
 20
0.790893
 30
0.000000
 40
0.182863
 50
347.116613
 51
399.629372
  0
ARC
  8
0
 62
     7
  6
CONTINUOUS
 10
0.748926
 20
7.525520
 30
0.000000
 40
0.138205
 50
331.716766
 51
345.660912
  0
ARC
  8
0
 62
     7
  6
CONTINUOUS
 10
0.824383
 20
7.479059
 30
0.000000
 40
0.050009
 50
268.546488
 51
337.640069
  0
ARC
  8
0
 62
     7
  6
CONTINUOUS
 10
0.772940
 20
7.427900
 30
0.000000
 40
0.050188
 50
292.316149
 51
361.331564
  0
ARC
  8
0
 62
     7
  6
CONTINUOUS
 10
0.724395
 20
7.509154
 30
0.000000
 40
0.144475
 50
284.628273
 51
297.899394
  0
ARC
  8
0
 62
     7
  6
CONTINUOUS
 10
0.717685
 20
7.307181
 30
0.000000
 40
0.075713
 50
44.160792
 51
55.212823
  0
ARC
  8
0
 62
     7
  6
CONTINUOUS
 10
0.828645
 20
7.415716
 30
0.000000
 40
0.079504
 50
224.563449
 51
231.710498
  0
ARC
  8
0
 62
     7
  6
CONTINUOUS
 10
0.847905
 20
7.433532
 30
0.000000
 40
0.105500
 50
229.495200
 51
303.655037
  0
ARC
  8
0
 62
     7
  6
CONTINUOUS
 10
0.819695
 20
7.403890
 30
0.000000
 40
0.104390
 50
326.131152
 51
397.053703
  0
ARC
  8
0
 62
     7
  6
CONTINUOUS
 10
0.658401
 20
7.285281
 30
0.000000
 40
0.304595
 50
36.577639
 51
42.153022
  0
ARC
  8
0
 62
     7
  6
CONTINUOUS
 10
0.949516
 20
7.548004
 30
0.000000
 40
0.087544
 50
220.376762
 51
221.760552
  0
ARC
  8
0
 62
     7
  6
CONTINUOUS
 10
5.247808
 20
0.769565
 30
0.000000
 40
0.138204
 50
151.713356
 51
165.657958
  0
ARC
  8
0
 62
     7
  6
CONTINUOUS
 10
5.172355
 20
0.816035
 30
0.000000
 40
0.050007
 50
88.547915
 51
157.642541
  0
ARC
  8
0
 62
     7
  6
CONTINUOUS
 10
5.223798
 20
0.867191
 30
0.000000
 40
0.050189
 50
112.317269
 51
181.329340
  0
ARC
  8
0
 62
     7
  6
CONTINUOUS
 10
5.272350
 20
0.785923
 30
0.000000
 40
0.144492
 50
104.628970
 51
117.899406
  0
ARC
  8
0
 62
     7
  6
CONTINUOUS
 10
5.238519
 20
0.929784
 30
0.000000
 40
0.004849
 50
223.644831
 51
236.717449
  0
ARC
  8
0
 62
     7
  6
CONTINUOUS
 10
5.231468
 20
0.923061
 30
0.000000
 40
0.004893
 50
43.633927
 51
56.376653
  0
ARC
  8
0
 62
     7
  6
CONTINUOUS
 10
5.140254
 20
0.839405
 30
0.000000
 40
0.128523
 50
43.047081
 51
80.991208
  0
ARC
  8
0
 62
     7
  6
CONTINUOUS
 10
5.148756
 20
0.861359
 30
0.000000
 40
0.105626
 50
83.682643
 51
123.560385
  0
ARC
  8
0
 62
     7
  6
CONTINUOUS
 10
5.179051
 20
0.890847
 30
0.000000
 40
0.106260
 50
146.576162
 51
186.332510
  0
ARC
  8
0
 62
     7
  6
CONTINUOUS
 10
5.200049
 20
0.899288
 30
0.000000
 40
0.128204
 50
189.048204
 51
227.025105
  0
ARC
  8
0
 62
     7
  6
CONTINUOUS
 10
5.117063
 20
0.807705
 30
0.000000
 40
0.004935
 50
206.707043
 51
223.739446
  0
ARC
  8
0
 62
     7
  6
CONTINUOUS
 10
5.108065
 20
0.799320
 30
0.000000
 40
0.007365
 50
37.457021
 51
42.472809
  0
ARC
  8
0
 62
     7
  6
CONTINUOUS
 10
5.272346
 20
7.509169
 30
0.000000
 40
0.144490
 50
242.102193
 51
255.372629
  0
ARC
  8
0
 62
     7
  6
CONTINUOUS
 10
5.223799
 20
7.427901
 30
0.000000
 40
0.050190
 50
178.670109
 51
247.682179
  0
ARC
  8
0
 62
     7
  6
CONTINUOUS
 10
5.172355
 20
7.479057
 30
0.000000
 40
0.050006
 50
202.358306
 51
271.452931
  0
ARC
  8
0
 62
     7
  6
CONTINUOUS
 10
5.247808
 20
7.525527
 30
0.000000
 40
0.138204
 50
194.342042
 51
208.286644
  0
ARC
  8
0
 62
     7
  6
CONTINUOUS
 10
5.108065
 20
7.495771
 30
0.000000
 40
0.007365
 50
317.527191
 51
322.542979
  0
ARC
  8
0
 62
     7
  6
CONTINUOUS
 10
5.117060
 20
7.487387
 30
0.000000
 40
0.004932
 50
136.237932
 51
153.270334
  0
ARC
  8
0
 62
     7
  6
CONTINUOUS
 10
5.200049
 20
7.395804
 30
0.000000
 40
0.128204
 50
132.974895
 51
170.951796
  0
ARC
  8
0
 62
     7
  6
CONTINUOUS
 10
5.179052
 20
7.404246
 30
0.000000
 40
0.106261
 50
173.667304
 51
213.423652
  0
ARC
  8
0
 62
     7
  6
CONTINUOUS
 10
5.148755
 20
7.433728
 30
0.000000
 40
0.105621
 50
236.438725
 51
276.318247
  0
ARC
  8
0
 62
     7
  6
CONTINUOUS
 10
5.140252
 20
7.455688
 30
0.000000
 40
0.128526
 50
279.009127
 51
316.952585
  0
ARC
  8
0
 62
     7
  6
CONTINUOUS
 10
5.231468
 20
7.372031
 30
0.000000
 40
0.004893
 50
303.623347
 51
316.366073
  0
ARC
  8
0
 62
     7
  6
CONTINUOUS
 10
5.238523
 20
7.365308
 30
0.000000
 40
0.004852
 50
123.322387
 51
136.395006
  0
ARC
  8
0
 62
     7
  6
CONTINUOUS
 10
5.172698
 20
7.498842
 30
0.000000
 40
0.038385
 50
213.466434
 51
310.153566
  0
ARC
  8
0
 62
     7
  6
CONTINUOUS
 10
5.158692
 20
7.510535
 30
0.000000
 40
0.056443
 50
313.367942
 51
361.798962
  0
ARC
  8
0
 62
     7
  6
CONTINUOUS
 10
5.233128
 20
7.520721
 30
0.000000
 40
0.019888
 50
155.321259
 51
205.028313
  0
ARC
  8
0
 62
     7
  6
CONTINUOUS
 10
5.217432
 20
7.526959
 30
0.000000
 40
0.003149
 50
47.847296
 51
138.985880
  0
ARC
  8
0
 62
     7
  6
CONTINUOUS
 10
5.205396
 20
7.511470
 30
0.000000
 40
0.022757
 50
24.852519
 51
51.554403
  0
ARC
  8
0
 62
     7
  6
CONTINUOUS
 10
5.181207
 20
7.499352
 30
0.000000
 40
0.049806
 50
343.584161
 51
385.806790
  0
ARC
  8
0
 62
     7
  6
CONTINUOUS
 10
5.242783
 20
7.436829
 30
0.000000
 40
0.050375
 50
64.179211
 51
105.900400
  0
ARC
  8
0
 62
     7
  6
CONTINUOUS
 10
5.255174
 20
7.461460
 30
0.000000
 40
0.022810
 50
38.659667
 51
65.247370
  0
ARC
  8
0
 62
     7
  6
CONTINUOUS
 10
5.270642
 20
7.473559
 30
0.000000
 40
0.003180
 50
312.007531
 51
402.537434
  0
ARC
  8
0
 62
     7
  6
CONTINUOUS
 10
5.264336
 20
7.489314
 30
0.000000
 40
0.019985
 50
245.021135
 51
294.965283
  0
ARC
  8
0
 62
     7
  6
CONTINUOUS
 10
5.254180
 20
7.414629
 30
0.000000
 40
0.056595
 50
88.262415
 51
136.681823
  0
ARC
  8
0
 62
     7
  6
CONTINUOUS
 10
5.242823
 20
7.428960
 30
0.000000
 40
0.038590
 50
140.597101
 51
236.299758
  0
ARC
  8
0
 62
     7
  6
CONTINUOUS
 10
5.261038
 20
7.471600
 30
0.000000
 40
0.084600
 50
242.069215
 51
263.370510
  0
ARC
  8
0
 62
     7
  6
CONTINUOUS
 10
5.110434
 20
7.504199
 30
0.000000
 40
0.182862
 50
320.370546
 51
372.883306
  0
ARC
  8
0
 62
     7
  6
CONTINUOUS
 10
5.247964
 20
7.367080
 30
0.000000
 40
0.182494
 50
77.104411
 51
129.686069
  0
ARC
  8
0
 62
     7
  6
CONTINUOUS
 10
5.209653
 20
7.515408
 30
0.000000
 40
0.078622
 50
185.758672
 51
208.681369
  0
ARC
  8
0
 62
     7
  6
CONTINUOUS
 10
0.735698
 20
7.471600
 30
0.000000
 40
0.084600
 50
276.631260
 51
297.931192
  0
ARC
  8
0
 62
     7
  6
CONTINUOUS
 10
0.753917
 20
7.428959
 30
0.000000
 40
0.038588
 50
303.697594
 51
399.407528
  0
ARC
  8
0
 62
     7
  6
CONTINUOUS
 10
0.742558
 20
7.414636
 30
0.000000
 40
0.056588
 50
43.315186
 51
91.739633
  0
ARC
  8
0
 62
     7
  6
CONTINUOUS
 10
0.732402
 20
7.489312
 30
0.000000
 40
0.019983
 50
245.034717
 51
294.978866
  0
ARC
  8
0
 62
     7
  6
CONTINUOUS
 10
0.726096
 20
7.473559
 30
0.000000
 40
0.003180
 50
137.462566
 51
227.992469
  0
ARC
  8
0
 62
     7
  6
CONTINUOUS
 10
0.741564
 20
7.461460
 30
0.000000
 40
0.022810
 50
114.752630
 51
141.340333
  0
ARC
  8
0
 62
     7
  6
CONTINUOUS
 10
0.753954
 20
7.436829
 30
0.000000
 40
0.050374
 50
74.100070
 51
115.820595
  0
ARC
  8
0
 62
     7
  6
CONTINUOUS
 10
0.815524
 20
7.499350
 30
0.000000
 40
0.049799
 50
154.186815
 51
196.415868
  0
ARC
  8
0
 62
     7
  6
CONTINUOUS
 10
0.791342
 20
7.511472
 30
0.000000
 40
0.022755
 50
128.449542
 51
155.152104
  0
ARC
  8
0
 62
     7
  6
CONTINUOUS
 10
0.779306
 20
7.526959
 30
0.000000
 40
0.003149
 50
41.012074
 51
132.154749
  0
ARC
  8
0
 62
     7
  6
CONTINUOUS
 10
0.763609
 20
7.520720
 30
0.000000
 40
0.019890
 50
334.977191
 51
384.680091
  0
ARC
  8
0
 62
     7
  6
CONTINUOUS
 10
0.838041
 20
7.510531
 30
0.000000
 40
0.056437
 50
178.196230
 51
226.632290
  0
ARC
  8
0
 62
     7
  6
CONTINUOUS
 10
0.824039
 20
7.498842
 30
0.000000
 40
0.038385
 50
229.846101
 51
326.533614
  0
ARC
  8
0
 62
     7
  6
CONTINUOUS
 10
0.787133
 20
7.515393
 30
0.000000
 40
0.078573
 50
331.311370
 51
354.248589
  0
ARC
  8
0
 62
     7
  6
CONTINUOUS
 10
0.748774
 20
7.367083
 30
0.000000
 40
0.182492
 50
50.313605
 51
102.895915
  0
ARC
  8
0
 62
     7
  6
CONTINUOUS
 10
0.886301
 20
7.504199
 30
0.000000
 40
0.182859
 50
167.116496
 51
219.630342
  0
ARC
  8
0
 62
     7
  6
CONTINUOUS
 10
0.724391
 20
0.785938
 30
0.000000
 40
0.144476
 50
62.099007
 51
75.370128
  0
ARC
  8
0
 62
     7
  6
CONTINUOUS
 10
0.772941
 20
0.867192
 30
0.000000
 40
0.050187
 50
358.668988
 51
427.684403
  0
ARC
  8
0
 62
     7
  6
CONTINUOUS
 10
0.824382
 20
0.816033
 30
0.000000
 40
0.050009
 50
22.359085
 51
91.452665
  0
ARC
  8
0
 62
     7
  6
CONTINUOUS
 10
0.748926
 20
0.769571
 30
0.000000
 40
0.138205
 50
14.339088
 51
28.283234
  0
ARC
  8
0
 62
     7
  6
CONTINUOUS
 10
0.888671
 20
0.799320
 30
0.000000
 40
0.007365
 50
137.510683
 51
142.537467
  0
ARC
  8
0
 62
     7
  6
CONTINUOUS
 10
0.879661
 20
0.807722
 30
0.000000
 40
0.004956
 50
316.243406
 51
333.200821
  0
ARC
  8
0
 62
     7
  6
CONTINUOUS
 10
0.796688
 20
0.899286
 30
0.000000
 40
0.128204
 50
312.976330
 51
350.952785
  0
ARC
  8
0
 62
     7
  6
CONTINUOUS
 10
0.817685
 20
0.890846
 30
0.000000
 40
0.106261
 50
353.667712
 51
393.423615
  0
ARC
  8
0
 62
     7
  6
CONTINUOUS
 10
0.847982
 20
0.861361
 30
0.000000
 40
0.105624
 50
56.439316
 51
96.317281
  0
ARC
  8
0
 62
     7
  6
CONTINUOUS
 10
0.856486
 20
0.839403
 30
0.000000
 40
0.128526
 50
99.009238
 51
136.952473
  0
ARC
  8
0
 62
     7
  6
CONTINUOUS
 10
0.765267
 20
0.923064
 30
0.000000
 40
0.004889
 50
123.615454
 51
136.386968
  0
ARC
  8
0
 62
     7
  6
CONTINUOUS
 10
0.758217
 20
0.929782
 30
0.000000
 40
0.004849
 50
303.322115
 51
316.368919
  0
ARC
  8
0
 62
     7
  6
CONTINUOUS
 10
0.824038
 20
0.796249
 30
0.000000
 40
0.038387
 50
33.467209
 51
130.151098
  0
ARC
  8
0
 62
     7
  6
CONTINUOUS
 10
0.838045
 20
0.784560
 30
0.000000
 40
0.056442
 50
133.369825
 51
181.802598
  0
ARC
  8
0
 62
     7
  6
CONTINUOUS
 10
0.763610
 20
0.774372
 30
0.000000
 40
0.019889
 50
335.319919
 51
385.022820
  0
ARC
  8
0
 62
     7
  6
CONTINUOUS
 10
0.779305
 20
0.768133
 30
0.000000
 40
0.003149
 50
227.857969
 51
319.000644
  0
ARC
  8
0
 62
     7
  6
CONTINUOUS
 10
0.791342
 20
0.783619
 30
0.000000
 40
0.022755
 50
204.847896
 51
231.550458
  0
ARC
  8
0
 62
     7
  6
CONTINUOUS
 10
0.815521
 20
0.795741
 30
0.000000
 40
0.049796
 50
163.583709
 51
205.813870
  0
ARC
  8
0
 62
     7
  6
CONTINUOUS
 10
0.753956
 20
0.858269
 30
0.000000
 40
0.050382
 50
244.181028
 51
285.895124
  0
ARC
  8
0
 62
     7
  6
CONTINUOUS
 10
0.741565
 20
0.833633
 30
0.000000
 40
0.022811
 50
218.660571
 51
245.246466
  0
ARC
  8
0
 62
     7
  6
CONTINUOUS
 10
0.726095
 20
0.821532
 30
0.000000
 40
0.003180
 50
132.004603
 51
222.540363
  0
ARC
  8
0
 62
     7
  6
CONTINUOUS
 10
0.732403
 20
0.805777
 30
0.000000
 40
0.019986
 50
65.028244
 51
114.964964
  0
ARC
  8
0
 62
     7
  6
CONTINUOUS
 10
0.742559
 20
0.880456
 30
0.000000
 40
0.056588
 50
268.259226
 51
316.683674
  0
ARC
  8
0
 62
     7
  6
CONTINUOUS
 10
0.753916
 20
0.866133
 30
0.000000
 40
0.038589
 50
320.592325
 51
416.302259
  0
ARC
  8
0
 62
     7
  6
CONTINUOUS
 10
0.735698
 20
0.823492
 30
0.000000
 40
0.084600
 50
62.068808
 51
83.368740
  0
ARC
  8
0
 62
     7
  6
CONTINUOUS
 10
0.886302
 20
0.790893
 30
0.000000
 40
0.182860
 50
140.369740
 51
192.883586
  0
ARC
  8
0
 62
     7
  6
CONTINUOUS
 10
0.748773
 20
0.928009
 30
0.000000
 40
0.182492
 50
257.104429
 51
309.686739
  0
ARC
  8
0
 62
     7
  6
CONTINUOUS
 10
0.787135
 20
0.779699
 30
0.000000
 40
0.078571
 50
5.751954
 51
28.689173
  0
ARC
  8
0
 62
     7
  6
CONTINUOUS
 10
5.233213
 20
7.515898
 30
0.000000
 40
0.100420
 50
131.609744
 51
144.979082
  0
ARC
  8
0
 62
     7
  6
CONTINUOUS
 10
5.219460
 20
7.323606
 30
0.000000
 40
0.259134
 50
77.523359
 51
105.324525
  0
ARC
  8
0
 62
     7
  6
CONTINUOUS
 10
5.216083
 20
7.549313
 30
0.000000
 40
0.065341
 50
24.703376
 51
88.603114
  0
ARC
  8
0
 62
     7
  6
CONTINUOUS
 10
5.225141
 20
7.531366
 30
0.000000
 40
0.083602
 50
95.123488
 51
134.514849
  0
ARC
  8
0
 62
     7
  6
CONTINUOUS
 10
0.763525
 20
0.779199
 30
0.000000
 40
0.100423
 50
311.607915
 51
324.977252
  0
ARC
  8
0
 62
     7
  6
CONTINUOUS
 10
0.777277
 20
0.971482
 30
0.000000
 40
0.259130
 50
257.523717
 51
285.325110
  0
ARC
  8
0
 62
     7
  6
CONTINUOUS
 10
0.780654
 20
0.745775
 30
0.000000
 40
0.065337
 50
204.701650
 51
268.603930
  0
ARC
  8
0
 62
     7
  6
CONTINUOUS
 10
0.771595
 20
0.763723
 30
0.000000
 40
0.083600
 50
275.124504
 51
314.516533
  0
ARC
  8
0
 62
     7
  6
CONTINUOUS
 10
0.763525
 20
7.515893
 30
0.000000
 40
0.100423
 50
35.022748
 51
48.392085
  0
ARC
  8
0
 62
     7
  6
CONTINUOUS
 10
0.771597
 20
7.531370
 30
0.000000
 40
0.083598
 50
45.484057
 51
84.876753
  0
ARC
  8
0
 62
     7
  6
CONTINUOUS
 10
0.780655
 20
7.549315
 30
0.000000
 40
0.065339
 50
91.396706
 51
155.297715
  0
ARC
  8
0
 62
     7
  6
CONTINUOUS
 10
0.777279
 20
7.323610
 30
0.000000
 40
0.259129
 50
74.675350
 51
102.476743
  0
ARC
  8
0
 62
     7
  6
CONTINUOUS
 10
5.233213
 20
0.779195
 30
0.000000
 40
0.100420
 50
215.020918
 51
228.390256
  0
ARC
  8
0
 62
     7
  6
CONTINUOUS
 10
5.225143
 20
0.763727
 30
0.000000
 40
0.083604
 50
225.484562
 51
264.875255
  0
ARC
  8
0
 62
     7
  6
CONTINUOUS
 10
5.216083
 20
0.745777
 30
0.000000
 40
0.065339
 50
271.396144
 51
335.297365
  0
ARC
  8
0
 62
     7
  6
CONTINUOUS
 10
5.219462
 20
0.971486
 30
0.000000
 40
0.259134
 50
254.675015
 51
282.476181
  0
ARC
  8
0
 62
     7
  6
CONTINUOUS
 10
0.622432
 20
7.560325
 30
0.000000
 40
0.224362
 50
182.281240
 51
220.429566
  0
ARC
  8
0
 62
     7
  6
CONTINUOUS
 10
1.390375
 20
7.415292
 30
0.000000
 40
0.938728
 50
162.105083
 51
180.028616
  0
ARC
  8
0
 62
     7
  6
CONTINUOUS
 10
0.586500
 20
7.537507
 30
0.000000
 40
0.188764
 50
118.282356
 51
175.780997
  0
ARC
  8
0
 62
     7
  6
CONTINUOUS
 10
0.586500
 20
0.757585
 30
0.000000
 40
0.188764
 50
184.219003
 51
241.717644
  0
ARC
  8
0
 62
     7
  6
CONTINUOUS
 10
1.390358
 20
0.879798
 30
0.000000
 40
0.938712
 50
179.971771
 51
197.895077
  0
ARC
  8
0
 62
     7
  6
CONTINUOUS
 10
0.622395
 20
0.734772
 30
0.000000
 40
0.224325
 50
139.567035
 51
177.719597
  0
ARC
  8
0
 62
     7
  6
CONTINUOUS
 10
5.410237
 20
7.537508
 30
0.000000
 40
0.188764
 50
4.218738
 51
61.717380
  0
ARC
  8
0
 62
     7
  6
CONTINUOUS
 10
4.606608
 20
7.415357
 30
0.000000
 40
0.938476
 50
359.967444
 51
377.895760
  0
ARC
  8
0
 62
     7
  6
CONTINUOUS
 10
5.374344
 20
7.560319
 30
0.000000
 40
0.224323
 50
319.564097
 51
357.720002
  0
ARC
  8
0
 62
     7
  6
CONTINUOUS
 10
5.374382
 20
0.734779
 30
0.000000
 40
0.224285
 50
2.279050
 51
40.439413
  0
ARC
  8
0
 62
     7
  6
CONTINUOUS
 10
4.606612
 20
0.879735
 30
0.000000
 40
0.938471
 50
342.104194
 51
360.032055
  0
ARC
  8
0
 62
     7
  6
CONTINUOUS
 10
5.410237
 20
0.757585
 30
0.000000
 40
0.188764
 50
298.282620
 51
355.781262
  0
ARC
  8
0
 62
     7
  6
CONTINUOUS
 10
5.257141
 20
0.804234
 30
0.000000
 40
0.104716
 50
41.203127
 51
54.289224
  0
ARC
  8
0
 62
     7
  6
CONTINUOUS
 10
5.065978
 20
0.820037
 30
0.000000
 40
0.261611
 50
347.747868
 51
375.343510
  0
ARC
  8
0
 62
     7
  6
CONTINUOUS
 10
5.294122
 20
0.823701
 30
0.000000
 40
0.065262
 50
294.928385
 51
358.723256
  0
ARC
  8
0
 62
     7
  6
CONTINUOUS
 10
5.276525
 20
0.815018
 30
0.000000
 40
0.083158
 50
4.986946
 51
44.411679
  0
ARC
  8
0
 62
     7
  6
CONTINUOUS
 10
5.276520
 20
7.480074
 30
0.000000
 40
0.083164
 50
315.589842
 51
355.013240
  0
ARC
  8
0
 62
     7
  6
CONTINUOUS
 10
5.294123
 20
7.471391
 30
0.000000
 40
0.065262
 50
1.276638
 51
65.071721
  0
ARC
  8
0
 62
     7
  6
CONTINUOUS
 10
5.065976
 20
7.475055
 30
0.000000
 40
0.261613
 50
344.656503
 51
372.252144
  0
ARC
  8
0
 62
     7
  6
CONTINUOUS
 10
5.257109
 20
7.490898
 30
0.000000
 40
0.104768
 50
305.712426
 51
318.791669
  0
ARC
  8
0
 62
     7
  6
CONTINUOUS
 10
0.739665
 20
7.490937
 30
0.000000
 40
0.104820
 50
221.211643
 51
234.284262
  0
ARC
  8
0
 62
     7
  6
CONTINUOUS
 10
0.930762
 20
7.475057
 30
0.000000
 40
0.261613
 50
167.748315
 51
195.343956
  0
ARC
  8
0
 62
     7
  6
CONTINUOUS
 10
0.702616
 20
7.471391
 30
0.000000
 40
0.065263
 50
114.929716
 51
178.723316
  0
ARC
  8
0
 62
     7
  6
CONTINUOUS
 10
0.720217
 20
7.480074
 30
0.000000
 40
0.083163
 50
184.986538
 51
224.410380
  0
ARC
  8
0
 62
     7
  6
CONTINUOUS
 10
0.720212
 20
0.815019
 30
0.000000
 40
0.083157
 50
135.587988
 51
175.013387
  0
ARC
  8
0
 62
     7
  6
CONTINUOUS
 10
0.702616
 20
0.823701
 30
0.000000
 40
0.065263
 50
181.276684
 51
245.070284
  0
ARC
  8
0
 62
     7
  6
CONTINUOUS
 10
0.930760
 20
0.820035
 30
0.000000
 40
0.261611
 50
164.656031
 51
192.251673
  0
ARC
  8
0
 62
     7
  6
CONTINUOUS
 10
0.739632
 20
0.804194
 30
0.000000
 40
0.104769
 50
125.714089
 51
138.793560
  0
ENDSEC
  0
EOF
