  0
SECTION
  2
HEADER
  9
$ACADVER
  1
AC1006
  0
ENDSEC
  0
SECTION
  2
TABLES
  0
TABLE
  2
LTYPE
 70
    25
  0
LTYPE
  2
CONTINUOUS
 70
    64
  3
Solid line
 72
    64
 73
     0
 40
0.000000
  0
LTYPE
  2
DASHDOT
 70
    64
  3
__ . __ . __ . __ . __ . __ . __ . __ . __ . __
 72
    65
 73
     4
 40
1.000000
 49
0.500000
 49
-0.250000
 49
0.000000
 49
-0.250000
  0
LTYPE
  2
DASHED
 70
    64
  3
__ __ __ __ __ __ __ __ __ __ __ __ __ __ __ __
 72
    65
 73
     2
 40
0.750000
 49
0.500000
 49
-0.250000
  0
LTYPE
  2
DIVIDE
 70
    64
  3
____ . . ____ . . ____ . . ____ . . ____ . . __
 72
    65
 73
     6
 40
1.250000
 49
0.500000
 49
-0.250000
 49
0.000000
 49
-0.250000
 49
0.000000
 49
-0.250000
  0
LTYPE
  2
DOT
 70
    64
  3
. . . . . . . . . . . . . . . . . . . . . . . . 
 72
    65
 73
     2
 40
0.250000
 49
0.000000
 49
-0.250000
  0
ENDTAB
  0
ENDSEC
  0
SECTION
  2
BLOCKS
  0
BLOCK
  8
0
  2
Object_0
 70
    64
 10
0.000000
 20
0.000000
 30
0.000000
  0
ENDBLK
  0
ENDSEC
  0
SECTION
  2
ENTITIES
  0
ARC
  8
0
 62
     7
  6
CONTINUOUS
 10
5.285332
 20
5.504204
 30
-0.000000
 40
3.023795
 50
126.323863
 51
133.514550
  0
ARC
  8
0
 62
     7
  6
CONTINUOUS
 10
2.409227
 20
8.046590
 30
-0.000000
 40
1.090146
 50
348.822117
 51
354.411058
  0
ARC
  8
0
 62
     7
  6
CONTINUOUS
 10
4.952029
 20
7.201168
 30
-0.000000
 40
1.603993
 50
156.714004
 51
182.793211
  0
ARC
  8
0
 62
     7
  6
CONTINUOUS
 10
3.700902
 20
7.284395
 30
-0.000000
 40
0.386291
 50
204.695763
 51
235.747590
  0
ARC
  8
0
 62
     7
  6
CONTINUOUS
 10
3.709415
 20
6.674462
 30
-0.000000
 40
0.368125
 50
127.860226
 51
200.153485
  0
ARC
  8
0
 62
     7
  6
CONTINUOUS
 10
4.205832
 20
6.856650
 30
-0.000000
 40
0.896918
 50
200.153485
 51
216.354232
  0
ARC
  8
0
 62
     7
  6
CONTINUOUS
 10
3.514231
 20
6.107416
 30
-0.000000
 40
0.219725
 50
98.044382
 51
148.159612
  0
ARC
  8
0
 62
     7
  6
CONTINUOUS
 10
3.584405
 20
6.159362
 30
-0.000000
 40
0.264682
 50
166.013757
 51
227.055796
  0
ARC
  8
0
 62
     7
  6
CONTINUOUS
 10
3.713904
 20
5.997824
 30
-0.000000
 40
0.311493
 50
185.936010
 51
245.661678
  0
ARC
  8
0
 62
     7
  6
CONTINUOUS
 10
5.044890
 20
5.575611
 30
-0.000000
 40
1.465908
 50
174.582368
 51
186.984782
  0
ARC
  8
0
 62
     7
  6
CONTINUOUS
 10
4.190857
 20
5.675890
 30
-0.000000
 40
0.662406
 50
204.866204
 51
233.806793
  0
ARC
  8
0
 62
     7
  6
CONTINUOUS
 10
4.250641
 20
6.593987
 30
-0.000000
 40
1.521060
 50
133.514550
 51
252.754594
  0
ARC
  8
0
 62
     7
  6
CONTINUOUS
 10
2.389442
 20
8.098152
 30
-0.000000
 40
1.090146
 50
354.411058
 51
371.177883
  0
ARC
  8
0
 62
     7
  6
CONTINUOUS
 10
3.473781
 20
8.298225
 30
-0.000000
 40
0.018654
 50
37.122410
 51
142.877590
  0
ARC
  8
0
 62
     7
  6
CONTINUOUS
 10
2.377101
 20
7.468138
 30
-0.000000
 40
1.394064
 50
26.091814
 51
37.122410
  0
LINE
  8
0
 62
     7
  6
CONTINUOUS
 10
3.628997
 20
8.081214
 30
-0.000000
 11
3.635273
 21
8.127658
 31
-0.000000
  0
ARC
  8
0
 62
     7
  6
CONTINUOUS
 10
2.140614
 20
7.369226
 30
0.000000
 40
1.676074
 50
26.904530
 51
36.303877
  0
ARC
  8
0
 62
     7
  6
CONTINUOUS
 10
3.450811
 20
8.331798
 30
-0.000000
 40
0.050293
 50
36.303877
 51
157.045218
  0
ARC
  8
0
 62
     7
  6
CONTINUOUS
 10
2.494949
 20
8.138948
 30
-0.000000
 40
0.934037
 50
353.126577
 51
373.148115
  0
LINE
  8
0
 62
     7
  6
CONTINUOUS
 10
3.422273
 20
8.027166
 30
-0.000000
 11
3.474405
 21
7.991982
 31
-0.000000
  0
ARC
  8
0
 62
     7
  6
CONTINUOUS
 10
2.064442
 20
8.022557
 30
0.000000
 40
1.488348
 50
348.132586
 51
363.930542
  0
ARC
  8
0
 62
     7
  6
CONTINUOUS
 10
4.897350
 20
7.169289
 30
-0.000000
 40
1.481155
 50
158.319147
 51
180.863398
  0
ARC
  8
0
 62
     7
  6
CONTINUOUS
 10
3.588359
 20
7.183250
 30
-0.000000
 40
0.175780
 50
191.910942
 51
248.055916
  0
ARC
  8
0
 62
     7
  6
CONTINUOUS
 10
3.851553
 20
6.895987
 30
-0.000000
 40
0.351560
 50
103.163752
 51
159.308726
  0
ARC
  8
0
 62
     7
  6
CONTINUOUS
 10
4.508216
 20
7.414090
 30
-0.000000
 40
0.757405
 50
166.580326
 51
193.419674
  0
ARC
  8
0
 62
     7
  6
CONTINUOUS
 10
1.798457
 20
7.083486
 30
-0.000000
 40
2.036980
 50
14.394401
 51
30.736868
  0
ARC
  8
0
 62
     7
  6
CONTINUOUS
 10
4.102235
 20
6.550760
 30
-0.000000
 40
1.546849
 50
59.433837
 51
107.046391
  0
ARC
  8
0
 62
     7
  6
CONTINUOUS
 10
6.661029
 20
6.347730
 30
-0.000000
 40
2.344485
 50
139.103133
 51
156.894497
  0
ARC
  8
0
 62
     7
  6
CONTINUOUS
 10
4.133958
 20
6.453771
 30
-0.000000
 40
0.894410
 50
65.517844
 51
100.502493
  0
ARC
  8
0
 62
     7
  6
CONTINUOUS
 10
5.533922
 20
8.404332
 30
-0.000000
 40
1.894805
 50
197.477603
 51
214.423183
  0
ARC
  8
0
 62
     7
  6
CONTINUOUS
 10
2.396886
 20
7.416576
 30
-0.000000
 40
1.394064
 50
17.477603
 51
26.091814
  0
ARC
  8
0
 62
     7
  6
CONTINUOUS
 10
4.076709
 20
8.657873
 30
-0.000000
 40
0.513491
 50
2.371266
 51
182.371266
  0
ARC
  8
0
 62
     7
  6
CONTINUOUS
 10
4.162914
 20
6.747142
 30
-0.000000
 40
1.982237
 50
107.596554
 51
252.403446
  0
LINE
  8
0
 62
     7
  6
CONTINUOUS
 10
3.563659
 20
4.857657
 30
-0.000000
 11
2.924125
 21
4.857657
 31
-0.000000
  0
ARC
  8
0
 62
     7
  6
CONTINUOUS
 10
2.584138
 20
4.815632
 30
-0.000000
 40
0.342574
 50
7.046515
 51
64.855177
  0
ARC
  8
0
 62
     7
  6
CONTINUOUS
 10
2.555479
 20
4.800320
 30
-0.000000
 40
0.369125
 50
61.836717
 51
137.579572
  0
ARC
  8
0
 62
     7
  6
CONTINUOUS
 10
2.499790
 20
4.851207
 30
-0.000000
 40
0.293688
 50
137.579572
 51
228.475596
  0
ARC
  8
0
 62
     7
  6
CONTINUOUS
 10
2.548476
 20
4.354433
 30
-0.000000
 40
0.368656
 50
131.314351
 51
341.688054
  0
LINE
  8
0
 62
     7
  6
CONTINUOUS
 10
2.898464
 20
4.238604
 30
-0.000000
 11
5.422070
 21
4.238604
 31
-0.000000
  0
ARC
  8
0
 62
     7
  6
CONTINUOUS
 10
5.765934
 20
4.349365
 30
-0.000000
 40
0.361263
 50
197.854091
 51
411.306219
  0
ARC
  8
0
 62
     7
  6
CONTINUOUS
 10
5.774737
 20
4.844626
 30
-0.000000
 40
0.304307
 50
315.498950
 51
433.388311
  0
ARC
  8
0
 62
     7
  6
CONTINUOUS
 10
5.758752
 20
4.791045
 30
-0.000000
 40
0.360221
 50
73.388311
 51
169.872243
  0
LINE
  8
0
 62
     7
  6
CONTINUOUS
 10
4.584010
 20
4.854388
 30
-0.000000
 11
5.404144
 21
4.854388
 31
-0.000000
  0
ARC
  8
0
 62
     7
  6
CONTINUOUS
 10
4.169601
 20
6.767381
 30
-0.000000
 40
1.957365
 50
282.223044
 51
437.604676
  0
CIRCLE
  8
0
 62
     7
  6
CONTINUOUS
 10
4.067417
 20
8.882276
 30
-0.000000
 40
0.152404
  0
ARC
  8
0
 62
     7
  6
CONTINUOUS
 10
5.241753
 20
7.877254
 30
-0.000000
 40
0.312389
 50
81.546226
 51
136.434429
  0
ARC
  8
0
 62
     7
  6
CONTINUOUS
 10
6.013376
 20
7.806288
 30
-0.000000
 40
0.819151
 50
152.364375
 51
180.591593
  0
LINE
  8
0
 62
     7
  6
CONTINUOUS
 10
5.145569
 20
7.784390
 30
-0.000000
 11
5.194269
 21
7.797830
 31
-0.000000
  0
ARC
  8
0
 62
     7
  6
CONTINUOUS
 10
6.135260
 20
7.749316
 30
-0.000000
 40
0.990850
 50
157.287153
 51
177.970286
  0
ARC
  8
0
 62
     7
  6
CONTINUOUS
 10
5.222680
 20
7.863060
 30
-0.000000
 40
0.268840
 50
90.305131
 51
135.544861
  0
ARC
  8
0
 62
     7
  6
CONTINUOUS
 10
6.704274
 20
6.409381
 30
-0.000000
 40
2.344485
 50
135.544861
 51
139.103133
  0
LINE
  8
0
 62
     7
  6
CONTINUOUS
 10
4.915303
 20
7.984004
 30
-0.000000
 11
4.932103
 21
7.944313
 31
-0.000000
  0
ARC
  8
0
 62
     7
  6
CONTINUOUS
 10
8.482297
 20
4.795036
 30
-0.000000
 40
4.784659
 50
136.434429
 51
138.202613
  0
ARC
  8
0
 62
     7
  6
CONTINUOUS
 10
5.933670
 20
6.998162
 30
-0.000000
 40
1.290140
 50
129.272741
 51
170.530221
  0
ARC
  8
0
 62
     7
  6
CONTINUOUS
 10
3.960977
 20
6.297705
 30
-0.000000
 40
1.150325
 50
30.747403
 51
52.508731
  0
ARC
  8
0
 62
     7
  6
CONTINUOUS
 10
4.552333
 20
7.324677
 30
-0.000000
 40
0.591965
 50
312.151910
 51
342.530484
  0
ARC
  8
0
 62
     7
  6
CONTINUOUS
 10
6.167274
 20
7.571942
 30
-0.000000
 40
1.132999
 50
157.970404
 51
202.029596
  0
ARC
  8
0
 62
     7
  6
CONTINUOUS
 10
3.848337
 20
6.541810
 30
-0.000000
 40
1.722521
 50
340.418534
 51
403.281408
  0
ARC
  8
0
 62
     7
  6
CONTINUOUS
 10
4.274883
 20
6.390079
 30
-0.000000
 40
1.269793
 50
288.150315
 51
340.418534
  0
ARC
  8
0
 62
     7
  6
CONTINUOUS
 10
4.199928
 20
5.747170
 30
-0.000000
 40
0.734260
 50
309.850999
 51
343.496441
  0
LINE
  8
0
 62
     7
  6
CONTINUOUS
 10
4.903938
 20
5.538585
 30
-0.000000
 11
4.951211
 21
6.550801
 31
-0.000000
  0
ARC
  8
0
 62
     7
  6
CONTINUOUS
 10
6.306521
 20
5.909680
 30
-0.000000
 40
1.499300
 50
135.629231
 51
154.683797
  0
ARC
  8
0
 62
     7
  6
CONTINUOUS
 10
4.479335
 20
7.012641
 30
-0.000000
 40
0.757405
 50
355.873499
 51
382.712847
  0
ARC
  8
0
 62
     7
  6
CONTINUOUS
 10
6.092016
 20
7.687665
 30
-0.000000
 40
0.990850
 50
177.970286
 51
202.712847
  0
ARC
  8
0
 62
     7
  6
CONTINUOUS
 10
4.393830
 20
6.958543
 30
-0.000000
 40
0.189698
 50
202.366038
 51
261.122063
  0
ARC
  8
0
 62
     7
  6
CONTINUOUS
 10
4.187467
 20
6.725521
 30
-0.000000
 40
0.163786
 50
79.112865
 51
189.423746
  0
ARC
  8
0
 62
     7
  6
CONTINUOUS
 10
4.071651
 20
6.706298
 30
-0.000000
 40
0.046386
 50
189.423746
 51
274.050298
  0
ARC
  8
0
 62
     7
  6
CONTINUOUS
 10
4.316481
 20
6.463357
 30
-0.000000
 40
0.311492
 50
81.122063
 51
140.847732
  0
ARC
  8
0
 62
     7
  6
CONTINUOUS
 10
4.299258
 20
6.536219
 30
-0.000000
 40
0.103400
 50
53.130102
 51
126.869898
  0
ARC
  8
0
 62
     7
  6
CONTINUOUS
 10
4.299258
 20
6.701659
 30
-0.000000
 40
0.103400
 50
233.130102
 51
306.869898
  0
ARC
  8
0
 62
     7
  6
CONTINUOUS
 10
4.374697
 20
6.481631
 30
-0.000000
 40
0.035303
 50
284.077469
 51
405.624487
  0
ARC
  8
0
 62
     7
  6
CONTINUOUS
 10
4.332983
 20
6.647978
 30
-0.000000
 40
0.206800
 50
210.337674
 51
284.077469
  0
ARC
  8
0
 62
     7
  6
CONTINUOUS
 10
4.175182
 20
6.528396
 30
-0.000000
 40
0.025623
 50
36.186313
 51
143.813687
  0
ARC
  8
0
 62
     7
  6
CONTINUOUS
 10
4.316871
 20
6.632045
 30
-0.000000
 40
0.149930
 50
216.186313
 51
303.391951
  0
ARC
  8
0
 62
     7
  6
CONTINUOUS
 10
4.299175
 20
6.539260
 30
-0.000000
 40
0.252038
 50
204.989227
 51
323.968752
  0
ARC
  8
0
 62
     7
  6
CONTINUOUS
 10
4.033201
 20
6.415295
 30
-0.000000
 40
0.041407
 50
210.459544
 51
384.989227
  0
ARC
  8
0
 62
     7
  6
CONTINUOUS
 10
4.149399
 20
6.483631
 30
-0.000000
 40
0.176210
 50
176.336384
 51
210.459544
  0
ARC
  8
0
 62
     7
  6
CONTINUOUS
 10
3.936533
 20
6.375107
 30
-0.000000
 40
0.125373
 50
72.827425
 51
168.677381
  0
ARC
  8
0
 62
     7
  6
CONTINUOUS
 10
3.620500
 20
6.583700
 30
-0.000000
 40
0.266712
 50
289.484253
 51
316.385846
  0
ARC
  8
0
 62
     7
  6
CONTINUOUS
 10
3.800693
 20
6.304809
 30
-0.000000
 40
0.095272
 50
163.253351
 51
244.515380
  0
ARC
  8
0
 62
     7
  6
CONTINUOUS
 10
3.657803
 20
6.201242
 30
-0.000000
 40
0.103400
 50
296.040751
 51
369.780546
  0
ARC
  8
0
 62
     7
  6
CONTINUOUS
 10
3.653515
 20
6.094037
 30
-0.000000
 40
0.051700
 50
269.799444
 51
376.059649
  0
ARC
  8
0
 62
     7
  6
CONTINUOUS
 10
3.666259
 20
6.011317
 30
-0.000000
 40
0.033605
 50
112.619865
 51
247.380135
  0
ARC
  8
0
 62
     7
  6
CONTINUOUS
 10
3.601933
 20
5.974741
 30
-0.000000
 40
0.051700
 50
259.908950
 51
366.169154
  0
ARC
  8
0
 62
     7
  6
CONTINUOUS
 10
3.895053
 20
6.431367
 30
-0.000000
 40
0.590673
 50
239.230662
 51
282.367853
  0
ARC
  8
0
 62
     7
  6
CONTINUOUS
 10
4.101706
 20
5.488932
 30
-0.000000
 40
0.374153
 50
102.367853
 51
138.021496
  0
ARC
  8
0
 62
     7
  6
CONTINUOUS
 10
3.885301
 20
6.798754
 30
-0.000000
 40
1.061366
 50
266.665291
 51
298.760913
  0
ARC
  8
0
 62
     7
  6
CONTINUOUS
 10
3.902877
 20
6.440950
 30
-0.000000
 40
0.755682
 50
263.975274
 51
310.732751
  0
ARC
  8
0
 62
     7
  6
CONTINUOUS
 10
4.191294
 20
5.762015
 30
-0.000000
 40
0.374825
 50
191.164090
 51
278.369728
  0
ARC
  8
0
 62
     7
  6
CONTINUOUS
 10
4.097109
 20
5.736168
 30
-0.000000
 40
0.375687
 50
293.323866
 51
360.120843
  0
ARC
  8
0
 62
     7
  6
CONTINUOUS
 10
4.780934
 20
5.639698
 30
-0.000000
 40
0.323125
 50
121.262618
 51
162.482004
  0
ARC
  8
0
 62
     7
  6
CONTINUOUS
 10
3.095467
 20
6.802591
 30
-0.000000
 40
1.757800
 50
329.706520
 51
347.301341
  0
ARC
  8
0
 62
     7
  6
CONTINUOUS
 10
4.470605
 20
6.584756
 30
-0.000000
 40
0.379195
 50
333.605462
 51
368.514820
  0
ARC
  8
0
 62
     7
  6
CONTINUOUS
 10
4.808192
 20
6.575949
 30
-0.000000
 40
0.074965
 50
60.047600
 51
147.253238
  0
ARC
  8
0
 62
     7
  6
CONTINUOUS
 10
4.835470
 20
6.276742
 30
-0.000000
 40
0.351560
 50
104.888435
 51
161.033409
  0
ARC
  8
0
 62
     7
  6
CONTINUOUS
 10
3.542846
 20
6.863581
 30
-0.000000
 40
0.193860
 50
305.233902
 51
384.824773
  0
ARC
  8
0
 62
     7
  6
CONTINUOUS
 10
3.697315
 20
6.622562
 30
-0.000000
 40
0.323125
 50
86.188679
 51
127.408065
  0
ARC
  8
0
 62
     7
  6
CONTINUOUS
 10
3.341464
 20
6.583459
 30
-0.000000
 40
0.336063
 50
21.245257
 51
61.654926
  0
ARC
  8
0
 62
     7
  6
CONTINUOUS
 10
3.571615
 20
6.610573
 30
-0.000000
 40
0.021972
 50
61.927513
 51
118.072487
  0
ARC
  8
0
 62
     7
  6
CONTINUOUS
 10
3.478555
 20
6.785061
 30
-0.000000
 40
0.175780
 50
241.927513
 51
298.072487
  0
ARC
  8
0
 62
     7
  6
CONTINUOUS
 10
3.465421
 20
6.603931
 30
-0.000000
 40
0.074295
 50
159.490896
 51
209.705081
  0
ARC
  8
0
 62
     7
  6
CONTINUOUS
 10
3.447024
 20
6.937088
 30
-0.000000
 40
0.372839
 50
262.891925
 51
291.799425
  0
ARC
  8
0
 62
     7
  6
CONTINUOUS
 10
3.570925
 20
6.609281
 30
-0.000000
 40
0.023437
 50
308.393739
 51
421.927513
  0
ARC
  8
0
 62
     7
  6
CONTINUOUS
 10
3.469584
 20
7.252497
 30
-0.000000
 40
0.554718
 50
264.652243
 51
275.347757
  0
ARC
  8
0
 62
     7
  6
CONTINUOUS
 10
3.467108
 20
6.648379
 30
-0.000000
 40
0.074965
 50
43.723302
 51
130.928940
  0
ARC
  8
0
 62
     7
  6
CONTINUOUS
 10
3.513954
 20
6.052670
 30
-0.000000
 40
0.206800
 50
45.925254
 51
119.665050
  0
ARC
  8
0
 62
     7
  6
CONTINUOUS
 10
3.473138
 20
5.729793
 30
-0.000000
 40
0.506325
 50
68.609786
 51
96.980518
  0
ARC
  8
0
 62
     7
  6
CONTINUOUS
 10
3.412702
 20
6.129075
 30
-0.000000
 40
0.034066
 50
322.622728
 51
397.377272
  0
ARC
  8
0
 62
     7
  6
CONTINUOUS
 10
3.426238
 20
6.079986
 30
-0.000000
 40
0.031469
 50
64.525197
 51
115.474803
  0
ARC
  8
0
 62
     7
  6
CONTINUOUS
 10
3.396879
 20
6.129347
 30
-0.000000
 40
0.026256
 50
203.129354
 51
307.060683
  0
ARC
  8
0
 62
     7
  6
CONTINUOUS
 10
3.399465
 20
6.130452
 30
-0.000000
 40
0.029067
 50
138.386490
 51
203.129354
  0
ARC
  8
0
 62
     7
  6
CONTINUOUS
 10
3.408753
 20
6.059280
 30
-0.000000
 40
0.095645
 50
71.075356
 51
108.924644
  0
ARC
  8
0
 62
     7
  6
CONTINUOUS
 10
3.564426
 20
6.087692
 30
-0.000000
 40
0.027882
 50
132.123259
 51
227.876741
  0
ARC
  8
0
 62
     7
  6
CONTINUOUS
 10
3.578864
 20
6.103658
 30
-0.000000
 40
0.049408
 50
227.876741
 51
291.895497
  0
ARC
  8
0
 62
     7
  6
CONTINUOUS
 10
3.607345
 20
6.106723
 30
-0.000000
 40
0.049932
 50
258.382531
 51
307.315797
  0
ARC
  8
0
 62
     7
  6
CONTINUOUS
 10
3.577786
 20
6.087692
 30
-0.000000
 40
0.063301
 50
340.931726
 51
379.068274
  0
ARC
  8
0
 62
     7
  6
CONTINUOUS
 10
3.591669
 20
6.149068
 30
-0.000000
 40
0.061376
 50
221.533901
 51
318.466099
  0
ARC
  8
0
 62
     7
  6
CONTINUOUS
 10
3.602198
 20
5.820331
 30
-0.000000
 40
0.074965
 50
188.878067
 51
276.083705
  0
ARC
  8
0
 62
     7
  6
CONTINUOUS
 10
3.776718
 20
5.669239
 30
-0.000000
 40
0.183323
 50
130.440923
 51
155.319026
  0
ARC
  8
0
 62
     7
  6
CONTINUOUS
 10
3.592967
 20
5.906362
 30
-0.000000
 40
0.117173
 50
236.403763
 51
303.596237
  0
ARC
  8
0
 62
     7
  6
CONTINUOUS
 10
3.561426
 20
4.617321
 30
-0.000000
 40
0.119332
 50
76.246052
 51
103.753948
  0
ARC
  8
0
 62
     7
  6
CONTINUOUS
 10
3.570613
 20
4.669741
 30
-0.000000
 40
0.066325
 50
45.414270
 51
73.186341
  0
ARC
  8
0
 62
     7
  6
CONTINUOUS
 10
3.607814
 20
4.709137
 30
-0.000000
 40
0.012208
 50
320.036185
 51
399.963815
  0
LINE
  8
0
 62
     7
  6
CONTINUOUS
 10
3.570123
 20
4.674207
 30
-0.000000
 11
3.617171
 21
4.701295
 31
-0.000000
  0
ARC
  8
0
 62
     7
  6
CONTINUOUS
 10
3.520647
 20
4.649244
 30
-0.000000
 40
0.055417
 50
26.773224
 51
120.447695
  0
ARC
  8
0
 62
     7
  6
CONTINUOUS
 10
3.508525
 20
4.670357
 30
-0.000000
 40
0.031073
 50
120.906747
 51
239.093253
  0
ARC
  8
0
 62
     7
  6
CONTINUOUS
 10
3.625567
 20
4.884581
 30
-0.000000
 40
0.275163
 50
241.095133
 51
260.292714
  0
ARC
  8
0
 62
     7
  6
CONTINUOUS
 10
3.565487
 20
4.533369
 30
-0.000000
 40
0.081151
 50
29.681046
 51
80.292714
  0
ARC
  8
0
 62
     7
  6
CONTINUOUS
 10
3.574157
 20
4.560697
 30
-0.000000
 40
0.063156
 50
311.877463
 51
371.744330
  0
ARC
  8
0
 62
     7
  6
CONTINUOUS
 10
3.464412
 20
4.644677
 30
-0.000000
 40
0.200591
 50
283.710145
 51
319.224924
  0
ARC
  8
0
 62
     7
  6
CONTINUOUS
 10
3.485502
 20
4.536531
 30
-0.000000
 40
0.090674
 50
222.825670
 51
286.961866
  0
ARC
  8
0
 62
     7
  6
CONTINUOUS
 10
3.429088
 20
4.484303
 30
-0.000000
 40
0.013796
 50
136.994939
 51
223.005061
  0
ARC
  8
0
 62
     7
  6
CONTINUOUS
 10
3.535622
 20
4.384940
 30
-0.000000
 40
0.159476
 50
113.610450
 51
136.994939
  0
ARC
  8
0
 62
     7
  6
CONTINUOUS
 10
3.535620
 20
4.553416
 30
-0.000000
 40
0.067667
 50
199.286291
 51
264.924574
  0
ARC
  8
0
 62
     7
  6
CONTINUOUS
 10
3.533666
 20
4.531418
 30
-0.000000
 40
0.045583
 50
264.924574
 51
350.917765
  0
ARC
  8
0
 62
     7
  6
CONTINUOUS
 10
3.537662
 20
4.522793
 30
-0.000000
 40
0.041040
 50
1.997379
 51
52.387888
  0
ARC
  8
0
 62
     7
  6
CONTINUOUS
 10
3.352548
 20
4.118010
 30
-0.000000
 40
0.485174
 50
64.331227
 51
78.540653
  0
ARC
  8
0
 62
     7
  6
CONTINUOUS
 10
3.468933
 20
4.639393
 30
-0.000000
 40
0.050048
 50
135.467630
 51
246.453046
  0
ARC
  8
0
 62
     7
  6
CONTINUOUS
 10
3.566232
 20
4.562711
 30
-0.000000
 40
0.173718
 50
101.010288
 51
139.949427
  0
LINE
  8
0
 62
     7
  6
CONTINUOUS
 10
3.645115
 20
4.606058
 30
-0.000000
 11
3.641123
 21
4.612616
 31
-0.000000
  0
ARC
  8
0
 62
     7
  6
CONTINUOUS
 10
3.656236
 20
4.594786
 30
-0.000000
 40
0.015834
 50
45.387656
 51
134.612344
  0
ARC
  8
0
 62
     7
  6
CONTINUOUS
 10
3.603554
 20
4.567909
 30
-0.000000
 40
0.074338
 50
13.258124
 51
30.876277
  0
LINE
  8
0
 62
     7
  6
CONTINUOUS
 10
3.675910
 20
4.584958
 30
-0.000000
 11
3.700432
 21
4.480881
 31
-0.000000
  0
ARC
  8
0
 62
     7
  6
CONTINUOUS
 10
3.737383
 20
4.483462
 30
-0.000000
 40
0.037041
 50
183.994874
 51
235.494502
  0
ARC
  8
0
 62
     7
  6
CONTINUOUS
 10
3.721449
 20
4.486273
 30
-0.000000
 40
0.033715
 50
261.388351
 51
321.313391
  0
LINE
  8
0
 62
     7
  6
CONTINUOUS
 10
3.807360
 20
4.539620
 30
-0.000000
 11
3.747766
 21
4.465199
 31
-0.000000
  0
LINE
  8
0
 62
     7
  6
CONTINUOUS
 10
3.809926
 20
4.362833
 30
-0.000000
 11
3.807360
 21
4.539620
 31
-0.000000
  0
LINE
  8
0
 62
     7
  6
CONTINUOUS
 10
3.862962
 20
4.381938
 30
-0.000000
 11
3.809926
 21
4.362833
 31
-0.000000
  0
LINE
  8
0
 62
     7
  6
CONTINUOUS
 10
3.862962
 20
4.650540
 30
-0.000000
 11
3.862962
 21
4.381938
 31
-0.000000
  0
LINE
  8
0
 62
     7
  6
CONTINUOUS
 10
3.848991
 20
4.650540
 30
-0.000000
 11
3.862962
 21
4.650540
 31
-0.000000
  0
LINE
  8
0
 62
     7
  6
CONTINUOUS
 10
3.848991
 20
4.650540
 30
-0.000000
 11
3.809071
 21
4.575833
 31
-0.000000
  0
ARC
  8
0
 62
     7
  6
CONTINUOUS
 10
3.664546
 20
4.660276
 30
-0.000000
 40
0.167386
 50
306.947750
 51
329.703129
  0
ARC
  8
0
 62
     7
  6
CONTINUOUS
 10
3.759029
 20
4.538972
 30
-0.000000
 40
0.013894
 50
243.815732
 51
296.184268
  0
ARC
  8
0
 62
     7
  6
CONTINUOUS
 10
3.785383
 20
4.554737
 30
-0.000000
 40
0.043039
 50
191.469471
 51
220.994111
  0
LINE
  8
0
 62
     7
  6
CONTINUOUS
 10
3.723244
 20
4.644552
 30
-0.000000
 11
3.743203
 21
4.546179
 31
-0.000000
  0
ARC
  8
0
 62
     7
  6
CONTINUOUS
 10
3.707527
 20
4.633829
 30
-0.000000
 40
0.019026
 50
34.304864
 51
123.554945
  0
LINE
  8
0
 62
     7
  6
CONTINUOUS
 10
3.641123
 20
4.612616
 30
-0.000000
 11
3.697011
 21
4.649685
 31
-0.000000
  0
ARC
  8
0
 62
     7
  6
CONTINUOUS
 10
3.908148
 20
4.662564
 30
-0.000000
 40
0.018953
 50
121.236103
 51
244.301732
  0
LINE
  8
0
 62
     7
  6
CONTINUOUS
 10
3.949075
 20
4.716978
 30
-0.000000
 11
3.898320
 21
4.678769
 31
-0.000000
  0
LINE
  8
0
 62
     7
  6
CONTINUOUS
 10
3.955633
 20
4.712416
 30
-0.000000
 11
3.949075
 21
4.716978
 31
-0.000000
  0
ARC
  8
0
 62
     7
  6
CONTINUOUS
 10
3.968162
 20
4.697995
 30
-0.000000
 40
0.019104
 50
130.984382
 51
242.496438
  0
ARC
  8
0
 62
     7
  6
CONTINUOUS
 10
4.179668
 20
5.042128
 30
-0.000000
 40
0.422991
 50
238.608619
 51
252.192619
  0
ARC
  8
0
 62
     7
  6
CONTINUOUS
 10
4.020876
 20
4.547767
 30
-0.000000
 40
0.096246
 50
32.763083
 51
72.192619
  0
ARC
  8
0
 62
     7
  6
CONTINUOUS
 10
4.031546
 20
4.570340
 30
-0.000000
 40
0.076211
 50
323.832300
 51
382.783454
  0
ARC
  8
0
 62
     7
  6
CONTINUOUS
 10
3.904015
 20
4.663568
 30
-0.000000
 40
0.234185
 50
297.297597
 51
323.832300
  0
ARC
  8
0
 62
     7
  6
CONTINUOUS
 10
3.981596
 20
4.513242
 30
-0.000000
 40
0.065020
 50
220.631279
 51
297.297597
  0
ARC
  8
0
 62
     7
  6
CONTINUOUS
 10
3.977764
 20
4.522346
 30
-0.000000
 40
0.068687
 50
170.542515
 51
228.500963
  0
ARC
  8
0
 62
     7
  6
CONTINUOUS
 10
3.996498
 20
4.514987
 30
-0.000000
 40
0.088475
 50
110.628664
 51
167.834202
  0
LINE
  8
0
 62
     7
  6
CONTINUOUS
 10
3.969890
 20
4.594652
 30
-0.000000
 11
3.965328
 21
4.597789
 31
-0.000000
  0
ARC
  8
0
 62
     7
  6
CONTINUOUS
 10
4.033678
 20
4.557147
 30
-0.000000
 40
0.073997
 50
149.545430
 51
201.347093
  0
ARC
  8
0
 62
     7
  6
CONTINUOUS
 10
4.053693
 20
4.572471
 30
-0.000000
 40
0.098465
 50
205.415865
 51
223.158427
  0
ARC
  8
0
 62
     7
  6
CONTINUOUS
 10
4.021952
 20
4.543257
 30
-0.000000
 40
0.055330
 50
223.573913
 51
257.927863
  0
ARC
  8
0
 62
     7
  6
CONTINUOUS
 10
4.019502
 20
4.527824
 30
-0.000000
 40
0.039735
 50
256.727817
 51
299.211427
  0
ARC
  8
0
 62
     7
  6
CONTINUOUS
 10
4.015656
 20
4.528324
 30
-0.000000
 40
0.042163
 50
303.445845
 51
331.135094
  0
ARC
  8
0
 62
     7
  6
CONTINUOUS
 10
3.984967
 20
4.533254
 30
-0.000000
 40
0.072187
 50
339.496995
 51
360.979600
  0
ARC
  8
0
 62
     7
  6
CONTINUOUS
 10
3.986096
 20
4.533273
 30
-0.000000
 40
0.071058
 50
0.979600
 51
45.015422
  0
ARC
  8
0
 62
     7
  6
CONTINUOUS
 10
3.921264
 20
4.438220
 30
-0.000000
 40
0.185352
 50
51.626274
 51
70.729023
  0
ARC
  8
0
 62
     7
  6
CONTINUOUS
 10
4.154982
 20
5.175486
 30
-0.000000
 40
0.588177
 50
244.301732
 51
252.940989
  0
LINE
  8
0
 62
     7
  6
CONTINUOUS
 10
4.199313
 20
4.648829
 30
-0.000000
 11
4.136867
 21
4.602922
 31
-0.000000
  0
ARC
  8
0
 62
     7
  6
CONTINUOUS
 10
4.205901
 20
4.634829
 30
-0.000000
 40
0.015473
 50
12.884012
 51
115.199616
  0
ARC
  8
0
 62
     7
  6
CONTINUOUS
 10
3.859985
 20
4.549144
 30
-0.000000
 40
0.371840
 50
0.333955
 51
13.869672
  0
ARC
  8
0
 62
     7
  6
CONTINUOUS
 10
4.634320
 20
4.262069
 30
-0.000000
 40
0.495650
 50
128.816306
 51
144.298507
  0
ARC
  8
0
 62
     7
  6
CONTINUOUS
 10
4.332027
 20
4.633867
 30
-0.000000
 40
0.016660
 50
28.046574
 51
120.249272
  0
ARC
  8
0
 62
     7
  6
CONTINUOUS
 10
4.239531
 20
4.584590
 30
-0.000000
 40
0.121464
 50
11.138438
 51
28.046574
  0
ARC
  8
0
 62
     7
  6
CONTINUOUS
 10
2.950944
 20
4.330881
 30
-0.000000
 40
1.434789
 50
6.023856
 51
11.138438
  0
ARC
  8
0
 62
     7
  6
CONTINUOUS
 10
4.512189
 20
4.230883
 30
-0.000000
 40
0.284328
 50
118.204295
 51
130.098648
  0
ARC
  8
0
 62
     7
  6
CONTINUOUS
 10
3.068631
 20
4.280578
 30
-0.000000
 40
1.271541
 50
7.583111
 51
12.635525
  0
ARC
  8
0
 62
     7
  6
CONTINUOUS
 10
4.286015
 20
4.553090
 30
-0.000000
 40
0.024032
 50
13.560474
 51
79.104262
  0
ARC
  8
0
 62
     7
  6
CONTINUOUS
 10
4.296895
 20
4.535361
 30
-0.000000
 40
0.041810
 50
98.717074
 51
137.566474
  0
ARC
  8
0
 62
     7
  6
CONTINUOUS
 10
4.539490
 20
4.306992
 30
-0.000000
 40
0.374981
 50
136.823472
 51
157.849451
  0
LINE
  8
0
 62
     7
  6
CONTINUOUS
 10
4.181349
 20
4.448375
 30
-0.000000
 11
4.192184
 21
4.448375
 31
-0.000000
  0
ARC
  8
0
 62
     7
  6
CONTINUOUS
 10
2.219360
 20
4.382817
 30
-0.000000
 40
1.963084
 50
1.913782
 51
5.425214
  0
ARC
  8
0
 62
     7
  6
CONTINUOUS
 10
4.109698
 20
4.567880
 30
-0.000000
 40
0.063954
 50
0.483740
 51
25.594425
  0
ARC
  8
0
 62
     7
  6
CONTINUOUS
 10
4.154546
 20
4.582035
 30
-0.000000
 40
0.018605
 50
46.397181
 51
133.602819
  0
LINE
  8
0
 62
     7
  6
CONTINUOUS
 10
4.136867
 20
4.602922
 30
-0.000000
 11
4.141715
 21
4.595508
 31
-0.000000
  0
ARC
  8
0
 62
     7
  6
CONTINUOUS
 10
4.583921
 20
4.474408
 30
-0.000000
 40
0.201797
 50
129.675961
 51
149.427187
  0
ARC
  8
0
 62
     7
  6
CONTINUOUS
 10
4.513619
 20
4.559159
 30
-0.000000
 40
0.091684
 50
91.119942
 51
129.675961
  0
ARC
  8
0
 62
     7
  6
CONTINUOUS
 10
4.511129
 20
4.597631
 30
-0.000000
 40
0.053199
 50
35.203680
 51
89.247905
  0
ARC
  8
0
 62
     7
  6
CONTINUOUS
 10
4.525569
 20
4.614766
 30
-0.000000
 40
0.032029
 50
310.404078
 51
384.995142
  0
ARC
  8
0
 62
     7
  6
CONTINUOUS
 10
4.210979
 20
4.984354
 30
-0.000000
 40
0.517376
 50
300.543177
 51
310.404078
  0
LINE
  8
0
 62
     7
  6
CONTINUOUS
 10
4.473903
 20
4.538765
 30
-0.000000
 11
4.468771
 21
4.545323
 31
-0.000000
  0
ARC
  8
0
 62
     7
  6
CONTINUOUS
 10
4.394932
 20
4.647457
 30
-0.000000
 40
0.126030
 50
305.865352
 51
325.228254
  0
ARC
  8
0
 62
     7
  6
CONTINUOUS
 10
4.483424
 20
4.586019
 30
-0.000000
 40
0.018301
 50
325.228254
 51
419.462940
  0
ARC
  8
0
 62
     7
  6
CONTINUOUS
 10
4.458000
 20
4.542921
 30
-0.000000
 40
0.068339
 50
59.462940
 51
87.423337
  0
ARC
  8
0
 62
     7
  6
CONTINUOUS
 10
4.460431
 20
4.596934
 30
-0.000000
 40
0.014271
 50
87.423337
 51
162.561333
  0
ARC
  8
0
 62
     7
  6
CONTINUOUS
 10
4.533504
 20
4.573980
 30
-0.000000
 40
0.090865
 50
162.561333
 51
197.438667
  0
ARC
  8
0
 62
     7
  6
CONTINUOUS
 10
4.518423
 20
4.569243
 30
-0.000000
 40
0.075058
 50
197.438667
 51
246.222165
  0
ARC
  8
0
 62
     7
  6
CONTINUOUS
 10
4.520666
 20
4.574334
 30
-0.000000
 40
0.080622
 50
246.222165
 51
293.777835
  0
LINE
  8
0
 62
     7
  6
CONTINUOUS
 10
4.557450
 20
4.493713
 30
-0.000000
 11
4.553172
 21
4.500556
 31
-0.000000
  0
ARC
  8
0
 62
     7
  6
CONTINUOUS
 10
4.478921
 20
4.532022
 30
-0.000000
 40
0.087375
 50
263.329103
 51
333.994837
  0
ARC
  8
0
 62
     7
  6
CONTINUOUS
 10
4.491287
 20
4.533112
 30
-0.000000
 40
0.090712
 50
215.818227
 51
255.628261
  0
ARC
  8
0
 62
     7
  6
CONTINUOUS
 10
4.483171
 20
4.533927
 30
-0.000000
 40
0.084781
 50
149.427187
 51
219.476925
  0
LINE
  8
0
 62
     7
  6
CONTINUOUS
 10
4.588985
 20
4.612616
 30
-0.000000
 11
4.641165
 21
4.647974
 31
-0.000000
  0
ARC
  8
0
 62
     7
  6
CONTINUOUS
 10
4.655423
 20
4.626933
 30
-0.000000
 40
0.025416
 50
55.878559
 51
124.121441
  0
ARC
  8
0
 62
     7
  6
CONTINUOUS
 10
18.461187
 20
7.490796
 30
-0.000000
 40
14.081453
 50
191.647160
 51
192.065937
  0
ARC
  8
0
 62
     7
  6
CONTINUOUS
 10
4.748584
 20
4.559594
 30
-0.000000
 40
0.059062
 50
192.065937
 51
211.442238
  0
ARC
  8
0
 62
     7
  6
CONTINUOUS
 10
4.707033
 20
4.534190
 30
-0.000000
 40
0.010361
 50
211.442238
 51
328.557762
  0
ARC
  8
0
 62
     7
  6
CONTINUOUS
 10
4.499549
 20
4.760470
 30
-0.000000
 40
0.316976
 50
313.036167
 51
339.707766
  0
LINE
  8
0
 62
     7
  6
CONTINUOUS
 10
4.796852
 20
4.650540
 30
-0.000000
 11
4.810824
 21
4.650540
 31
-0.000000
  0
LINE
  8
0
 62
     7
  6
CONTINUOUS
 10
4.810824
 20
4.650540
 30
-0.000000
 11
4.813961
 21
4.381938
 31
-0.000000
  0
LINE
  8
0
 62
     7
  6
CONTINUOUS
 10
4.813961
 20
4.381938
 30
-0.000000
 11
4.757788
 21
4.362833
 31
-0.000000
  0
ARC
  8
0
 62
     7
  6
CONTINUOUS
 10
1.311624
 20
4.401221
 30
-0.000000
 40
3.446377
 50
359.361794
 51
362.301502
  0
ARC
  8
0
 62
     7
  6
CONTINUOUS
 10
4.101056
 20
5.006209
 30
-0.000000
 40
0.803515
 50
317.097245
 51
324.501361
  0
ARC
  8
0
 62
     7
  6
CONTINUOUS
 10
4.670706
 20
4.481338
 30
-0.000000
 40
0.029122
 50
257.216608
 51
310.552280
  0
ARC
  8
0
 62
     7
  6
CONTINUOUS
 10
4.679142
 20
4.477876
 30
-0.000000
 40
0.029040
 50
197.402703
 51
239.177290
  0
ARC
  8
0
 62
     7
  6
CONTINUOUS
 10
-5.961604
 20
2.013671
 30
-0.000000
 40
10.893397
 50
13.027201
 51
13.606690
  0
ARC
  8
0
 62
     7
  6
CONTINUOUS
 10
4.461761
 20
4.536637
 30
-0.000000
 40
0.169036
 50
13.606690
 51
23.613793
  0
ARC
  8
0
 62
     7
  6
CONTINUOUS
 10
4.604746
 20
4.599146
 30
-0.000000
 40
0.012985
 50
23.613793
 51
155.006453
  0
LINE
  8
0
 62
     7
  6
CONTINUOUS
 10
4.588985
 20
4.612616
 30
-0.000000
 11
4.592977
 21
4.604632
 31
-0.000000
  0
INSERT
  8
Default
 62
     7
  2
Object_0
 10
-10.160000
 20
-10.160000
 30
0.000000
  0
ENDSEC
  0
EOF
