  0
SECTION
  2
HEADER
  9
$ACADVER
  1
AC1015
  9
$ACADMAINTVER
 70
    20
  9
$DWGCODEPAGE
  3
ANSI_1252
  9
$INSBASE
 10
0.0
 20
0.0
 30
0.0
  9
$EXTMIN
 10
9.678819
 20
50.406053
 30
0.0
  9
$EXTMAX
 10
200.360356
 20
246.621056
 30
0.0
  9
$LIMMIN
 10
0.0
 20
0.0
  9
$LIMMAX
 10
12.0
 20
9.0
  9
$ORTHOMODE
 70
     0
  9
$REGENMODE
 70
     1
  9
$FILLMODE
 70
     1
  9
$QTEXTMODE
 70
     0
  9
$MIRRTEXT
 70
     0
  9
$LTSCALE
 40
1.0
  9
$ATTMODE
 70
     1
  9
$TEXTSIZE
 40
0.2
  9
$TRACEWID
 40
0.05
  9
$TEXTSTYLE
  7
Standard
  9
$CLAYER
  8
0
  9
$CELTYPE
  6
Continuous
  9
$CECOLOR
 62
   256
  9
$CELTSCALE
 40
1.0
  9
$DISPSILH
 70
     0
  9
$DIMSCALE
 40
1.0
  9
$DIMASZ
 40
0.18
  9
$DIMEXO
 40
0.0625
  9
$DIMDLI
 40
0.38
  9
$DIMRND
 40
0.0
  9
$DIMDLE
 40
0.0
  9
$DIMEXE
 40
0.18
  9
$DIMTP
 40
0.0
  9
$DIMTM
 40
0.0
  9
$DIMTXT
 40
0.18
  9
$DIMCEN
 40
0.09
  9
$DIMTSZ
 40
0.0
  9
$DIMTOL
 70
     0
  9
$DIMLIM
 70
     0
  9
$DIMTIH
 70
     1
  9
$DIMTOH
 70
     1
  9
$DIMSE1
 70
     0
  9
$DIMSE2
 70
     0
  9
$DIMTAD
 70
     0
  9
$DIMZIN
 70
     0
  9
$DIMBLK
  1

  9
$DIMASO
 70
     1
  9
$DIMSHO
 70
     1
  9
$DIMPOST
  1

  9
$DIMAPOST
  1

  9
$DIMALT
 70
     0
  9
$DIMALTD
 70
     2
  9
$DIMALTF
 40
25.4
  9
$DIMLFAC
 40
1.0
  9
$DIMTOFL
 70
     0
  9
$DIMTVP
 40
0.0
  9
$DIMTIX
 70
     0
  9
$DIMSOXD
 70
     0
  9
$DIMSAH
 70
     0
  9
$DIMBLK1
  1

  9
$DIMBLK2
  1

  9
$DIMSTYLE
  2
Standard
  9
$DIMCLRD
 70
     0
  9
$DIMCLRE
 70
     0
  9
$DIMCLRT
 70
     0
  9
$DIMTFAC
 40
1.0
  9
$DIMGAP
 40
0.09
  9
$DIMJUST
 70
     0
  9
$DIMSD1
 70
     0
  9
$DIMSD2
 70
     0
  9
$DIMTOLJ
 70
     1
  9
$DIMTZIN
 70
     0
  9
$DIMALTZ
 70
     0
  9
$DIMALTTZ
 70
     0
  9
$DIMUPT
 70
     0
  9
$DIMDEC
 70
     4
  9
$DIMTDEC
 70
     4
  9
$DIMALTU
 70
     2
  9
$DIMALTTD
 70
     2
  9
$DIMTXSTY
  7
Standard
  9
$DIMAUNIT
 70
     0
  9
$DIMADEC
 70
     0
  9
$DIMALTRND
 40
0.0
  9
$DIMAZIN
 70
     0
  9
$DIMDSEP
 70
    46
  9
$DIMATFIT
 70
     3
  9
$DIMFRAC
 70
     0
  9
$DIMLDRBLK
  1

  9
$DIMLUNIT
 70
     2
  9
$DIMLWD
 70
    -2
  9
$DIMLWE
 70
    -2
  9
$DIMTMOVE
 70
     0
  9
$LUNITS
 70
     2
  9
$LUPREC
 70
     4
  9
$SKETCHINC
 40
0.1
  9
$FILLETRAD
 40
0.0
  9
$AUNITS
 70
     0
  9
$AUPREC
 70
     0
  9
$MENU
  1
.
  9
$ELEVATION
 40
0.0
  9
$PELEVATION
 40
0.0
  9
$THICKNESS
 40
0.0
  9
$LIMCHECK
 70
     0
  9
$CHAMFERA
 40
0.0
  9
$CHAMFERB
 40
0.0
  9
$CHAMFERC
 40
0.0
  9
$CHAMFERD
 40
0.0
  9
$SKPOLY
 70
     0
  9
$TDCREATE
 40
2454940.561001563
  9
$TDUCREATE
 40
2454940.477668229
  9
$TDUPDATE
 40
2454951.910801528
  9
$TDUUPDATE
 40
2454951.827468195
  9
$TDINDWG
 40
0.0007869560
  9
$TDUSRTIMER
 40
0.0007869560
  9
$USRTIMER
 70
     1
  9
$ANGBASE
 50
0.0
  9
$ANGDIR
 70
     0
  9
$PDMODE
 70
     0
  9
$PDSIZE
 40
0.0
  9
$PLINEWID
 40
0.0
  9
$SPLFRAME
 70
     0
  9
$SPLINETYPE
 70
     6
  9
$SPLINESEGS
 70
     8
  9
$HANDSEED
  5
518
  9
$SURFTAB1
 70
     6
  9
$SURFTAB2
 70
     6
  9
$SURFTYPE
 70
     6
  9
$SURFU
 70
     6
  9
$SURFV
 70
     6
  9
$UCSBASE
  2

  9
$UCSNAME
  2

  9
$UCSORG
 10
0.0
 20
0.0
 30
0.0
  9
$UCSXDIR
 10
1.0
 20
0.0
 30
0.0
  9
$UCSYDIR
 10
0.0
 20
1.0
 30
0.0
  9
$UCSORTHOREF
  2

  9
$UCSORTHOVIEW
 70
     0
  9
$UCSORGTOP
 10
0.0
 20
0.0
 30
0.0
  9
$UCSORGBOTTOM
 10
0.0
 20
0.0
 30
0.0
  9
$UCSORGLEFT
 10
0.0
 20
0.0
 30
0.0
  9
$UCSORGRIGHT
 10
0.0
 20
0.0
 30
0.0
  9
$UCSORGFRONT
 10
0.0
 20
0.0
 30
0.0
  9
$UCSORGBACK
 10
0.0
 20
0.0
 30
0.0
  9
$PUCSBASE
  2

  9
$PUCSNAME
  2

  9
$PUCSORG
 10
0.0
 20
0.0
 30
0.0
  9
$PUCSXDIR
 10
1.0
 20
0.0
 30
0.0
  9
$PUCSYDIR
 10
0.0
 20
1.0
 30
0.0
  9
$PUCSORTHOREF
  2

  9
$PUCSORTHOVIEW
 70
     0
  9
$PUCSORGTOP
 10
0.0
 20
0.0
 30
0.0
  9
$PUCSORGBOTTOM
 10
0.0
 20
0.0
 30
0.0
  9
$PUCSORGLEFT
 10
0.0
 20
0.0
 30
0.0
  9
$PUCSORGRIGHT
 10
0.0
 20
0.0
 30
0.0
  9
$PUCSORGFRONT
 10
0.0
 20
0.0
 30
0.0
  9
$PUCSORGBACK
 10
0.0
 20
0.0
 30
0.0
  9
$USERI1
 70
     0
  9
$USERI2
 70
     0
  9
$USERI3
 70
     0
  9
$USERI4
 70
     0
  9
$USERI5
 70
     0
  9
$USERR1
 40
0.0
  9
$USERR2
 40
0.0
  9
$USERR3
 40
0.0
  9
$USERR4
 40
0.0
  9
$USERR5
 40
0.0
  9
$WORLDVIEW
 70
     1
  9
$SHADEDGE
 70
     3
  9
$SHADEDIF
 70
    70
  9
$TILEMODE
 70
     1
  9
$MAXACTVP
 70
    64
  9
$PINSBASE
 10
0.0
 20
0.0
 30
0.0
  9
$PLIMCHECK
 70
     0
  9
$PEXTMIN
 10
1.000000000000000E+20
 20
1.000000000000000E+20
 30
1.000000000000000E+20
  9
$PEXTMAX
 10
-1.000000000000000E+20
 20
-1.000000000000000E+20
 30
-1.000000000000000E+20
  9
$PLIMMIN
 10
0.0
 20
0.0
  9
$PLIMMAX
 10
12.0
 20
9.0
  9
$UNITMODE
 70
     0
  9
$VISRETAIN
 70
     1
  9
$PLINEGEN
 70
     0
  9
$PSLTSCALE
 70
     1
  9
$TREEDEPTH
 70
  3020
  9
$CMLSTYLE
  2
Standard
  9
$CMLJUST
 70
     0
  9
$CMLSCALE
 40
1.0
  9
$PROXYGRAPHICS
 70
     1
  9
$MEASUREMENT
 70
     0
  9
$CELWEIGHT
370
    -1
  9
$ENDCAPS
280
     0
  9
$JOINSTYLE
280
     0
  9
$LWDISPLAY
290
     0
  9
$INSUNITS
 70
     0
  9
$HYPERLINKBASE
  1

  9
$STYLESHEET
  1

  9
$XEDIT
290
     1
  9
$CEPSNTYPE
380
     0
  9
$PSTYLEMODE
290
     1
  9
$FINGERPRINTGUID
  2
{F3496096-B5A6-48A4-B77C-E0BC08CE4A08}
  9
$VERSIONGUID
  2
{5AA07571-CFF4-48B9-A083-B6A34D7708B7}
  9
$EXTNAMES
290
     1
  9
$PSVPSCALE
 40
0.0
  9
$OLESTARTUP
290
     0
  0
ENDSEC
  0
SECTION
  2
CLASSES
  0
CLASS
  1
ACDBDICTIONARYWDFLT
  2
AcDbDictionaryWithDefault
  3
ObjectDBX Classes
 90
        0
280
     0
281
     0
  0
CLASS
  1
MATERIAL
  2
AcDbMaterial
  3
ObjectDBX Classes
 90
     1153
280
     0
281
     0
  0
CLASS
  1
VISUALSTYLE
  2
AcDbVisualStyle
  3
ObjectDBX Classes
 90
     4095
280
     0
281
     0
  0
CLASS
  1
SCALE
  2
AcDbScale
  3
ObjectDBX Classes
 90
     1153
280
     0
281
     0
  0
CLASS
  1
TABLESTYLE
  2
AcDbTableStyle
  3
ObjectDBX Classes
 90
     4095
280
     0
281
     0
  0
CLASS
  1
MLEADERSTYLE
  2
AcDbMLeaderStyle
  3
ACDB_MLEADERSTYLE_CLASS
 90
     4095
280
     0
281
     0
  0
CLASS
  1
CELLSTYLEMAP
  2
AcDbCellStyleMap
  3
ObjectDBX Classes
 90
     1152
280
     0
281
     0
  0
CLASS
  1
DICTIONARYVAR
  2
AcDbDictionaryVar
  3
ObjectDBX Classes
 90
        0
280
     0
281
     0
  0
CLASS
  1
ACDBPLACEHOLDER
  2
AcDbPlaceHolder
  3
ObjectDBX Classes
 90
        0
280
     0
281
     0
  0
CLASS
  1
LAYOUT
  2
AcDbLayout
  3
ObjectDBX Classes
 90
        0
280
     0
281
     0
  0
ENDSEC
  0
SECTION
  2
TABLES
  0
TABLE
  2
VPORT
  5
8
330
0
100
AcDbSymbolTable
 70
     1
  0
VPORT
  5
4F7
330
8
100
AcDbSymbolTableRecord
100
AcDbViewportTableRecord
  2
*Active
 70
     0
 10
0.0
 20
0.0
 11
1.0
 21
1.0
 12
105.6779616860556
 22
140.9324032652977
 13
0.0
 23
0.0
 14
1.0
 24
1.0
 15
0.0
 25
0.0
 16
0.0
 26
0.0
 36
1.0
 17
0.0
 27
0.0
 37
0.0
 40
269.0116954380629
 41
1.986951364175563
 42
50.0
 43
0.0
 44
0.0
 50
0.0
 51
0.0
 71
     0
 72
  1000
 73
     1
 74
     3
 75
     0
 76
     0
 77
     0
 78
     0
281
     0
 65
     1
110
0.0
120
0.0
130
0.0
111
1.0
121
0.0
131
0.0
112
0.0
122
1.0
132
0.0
 79
     0
146
0.0
  0
ENDTAB
  0
TABLE
  2
LTYPE
  5
5
330
0
100
AcDbSymbolTable
 70
     1
  0
LTYPE
  5
62
330
5
100
AcDbSymbolTableRecord
100
AcDbLinetypeTableRecord
  2
ByBlock
 70
     0
  3

 72
    65
 73
     0
 40
0.0
  0
LTYPE
  5
63
330
5
100
AcDbSymbolTableRecord
100
AcDbLinetypeTableRecord
  2
ByLayer
 70
     0
  3

 72
    65
 73
     0
 40
0.0
  0
LTYPE
  5
64
330
5
100
AcDbSymbolTableRecord
100
AcDbLinetypeTableRecord
  2
Continuous
 70
     0
  3
Solid line
 72
    65
 73
     0
 40
0.0
  0
ENDTAB
  0
TABLE
  2
LAYER
  5
2
330
0
100
AcDbSymbolTable
 70
     2
  0
LAYER
  5
5C
102
{ACAD_XDICTIONARY
360
4F8
102
}
330
2
100
AcDbSymbolTableRecord
100
AcDbLayerTableRecord
  2
0
 70
     0
 62
     7
  6
Continuous
370
    -3
390
F
  0
LAYER
  5
78
102
{ACAD_XDICTIONARY
360
4FA
102
}
330
2
100
AcDbSymbolTableRecord
100
AcDbLayerTableRecord
  2
Layer 1
 70
     0
 62
     7
  6
Continuous
370
    -3
390
F
  0
ENDTAB
  0
TABLE
  2
STYLE
  5
3
330
0
100
AcDbSymbolTable
 70
     2
  0
STYLE
  5
5D
330
3
100
AcDbSymbolTableRecord
100
AcDbTextStyleTableRecord
  2
Standard
 70
     0
 40
0.0
 41
1.0
 50
0.0
 71
     0
 42
0.2
  3
txt
  4

  0
STYLE
  5
61
330
3
100
AcDbSymbolTableRecord
100
AcDbTextStyleTableRecord
  2
Annotative
 70
     0
 40
0.0
 41
1.0
 50
0.0
 71
     0
 42
0.2
  3
txt
  4

1001
AcadAnnotative
1000
AnnotativeData
1002
{
1070
     1
1070
     1
1002
}
  0
ENDTAB
  0
TABLE
  2
VIEW
  5
6
330
0
100
AcDbSymbolTable
 70
     0
  0
ENDTAB
  0
TABLE
  2
UCS
  5
7
330
0
100
AcDbSymbolTable
 70
     0
  0
ENDTAB
  0
TABLE
  2
APPID
  5
9
330
0
100
AcDbSymbolTable
 70
     3
  0
APPID
  5
5E
330
9
100
AcDbSymbolTableRecord
100
AcDbRegAppTableRecord
  2
ACAD
 70
     0
  0
APPID
  5
65
330
9
100
AcDbSymbolTableRecord
100
AcDbRegAppTableRecord
  2
AcadAnnotative
 70
     0
  0
APPID
  5
6F
330
9
100
AcDbSymbolTableRecord
100
AcDbRegAppTableRecord
  2
ACAD_MLEADERVER
 70
     0
  0
ENDTAB
  0
TABLE
  2
DIMSTYLE
  5
A
330
0
100
AcDbSymbolTable
 70
     2
100
AcDbDimStyleTable
 71
     0
  0
DIMSTYLE
105
5F
330
A
100
AcDbSymbolTableRecord
100
AcDbDimStyleTableRecord
  2
Standard
 70
     0
340
5D
  0
DIMSTYLE
105
60
330
A
100
AcDbSymbolTableRecord
100
AcDbDimStyleTableRecord
  2
Annotative
 70
     0
340
5D
1001
AcadAnnotative
1000
AnnotativeData
1002
{
1070
     1
1070
     1
1002
}
  0
ENDTAB
  0
TABLE
  2
BLOCK_RECORD
  5
1
330
0
100
AcDbSymbolTable
 70
     0
  0
BLOCK_RECORD
  5
74
330
1
100
AcDbSymbolTableRecord
100
AcDbBlockTableRecord
  2
*Model_Space
340
77
  0
BLOCK_RECORD
  5
70
330
1
100
AcDbSymbolTableRecord
100
AcDbBlockTableRecord
  2
*Paper_Space
340
73
  0
ENDTAB
  0
ENDSEC
  0
SECTION
  2
BLOCKS
  0
BLOCK
  5
75
330
74
100
AcDbEntity
  8
0
100
AcDbBlockBegin
  2
*Model_Space
 70
     0
 10
0.0
 20
0.0
 30
0.0
  3
*Model_Space
  1

  0
ENDBLK
  5
76
330
74
100
AcDbEntity
  8
0
100
AcDbBlockEnd
  0
BLOCK
  5
71
330
70
100
AcDbEntity
 67
     1
  8
0
100
AcDbBlockBegin
  2
*Paper_Space
 70
     0
 10
0.0
 20
0.0
 30
0.0
  3
*Paper_Space
  1

  0
ENDBLK
  5
72
330
70
100
AcDbEntity
 67
     1
  8
0
100
AcDbBlockEnd
  0
ENDSEC
  0
SECTION
  2
ENTITIES
  0
LINE
  5
79
330
74
100
AcDbEntity
  8
Layer 1
100
AcDbLine
 10
63.958828
 20
246.621056
 30
0.0
 11
64.452891
 21
246.466756
 31
0.0
  0
LINE
  5
7A
330
74
100
AcDbEntity
  8
Layer 1
100
AcDbLine
 10
64.452891
 20
246.466756
 30
0.0
 11
64.828927
 21
245.947946
 31
0.0
  0
LINE
  5
7B
330
74
100
AcDbEntity
  8
Layer 1
100
AcDbLine
 10
64.828927
 20
245.947946
 30
0.0
 11
65.12489599999999
 21
244.98076
 31
0.0
  0
LINE
  5
7C
330
74
100
AcDbEntity
  8
Layer 1
100
AcDbLine
 10
65.12489599999999
 20
244.98076
 30
0.0
 11
65.378759
 21
243.481334
 31
0.0
  0
LINE
  5
7D
330
74
100
AcDbEntity
  8
Layer 1
100
AcDbLine
 10
65.378759
 20
243.481334
 30
0.0
 11
66.05189799999999
 21
239.709546
 31
0.0
  0
LINE
  5
7E
330
74
100
AcDbEntity
  8
Layer 1
100
AcDbLine
 10
66.05189799999999
 20
239.709546
 30
0.0
 11
67.002824
 21
235.789509
 31
0.0
  0
LINE
  5
7F
330
74
100
AcDbEntity
  8
Layer 1
100
AcDbLine
 10
67.002824
 20
235.789509
 30
0.0
 11
68.06114499999999
 21
232.348561
 31
0.0
  0
LINE
  5
80
330
74
100
AcDbEntity
  8
Layer 1
100
AcDbLine
 10
68.06114499999999
 20
232.348561
 30
0.0
 11
69.056467
 21
230.014039
 31
0.0
  0
LINE
  5
81
330
74
100
AcDbEntity
  8
Layer 1
100
AcDbLine
 10
69.056467
 20
230.014039
 30
0.0
 11
70.247057
 21
228.319481
 31
0.0
  0
LINE
  5
82
330
74
100
AcDbEntity
  8
Layer 1
100
AcDbLine
 10
70.247057
 20
228.319481
 30
0.0
 11
71.829316
 21
226.735363
 31
0.0
  0
LINE
  5
83
330
74
100
AcDbEntity
  8
Layer 1
100
AcDbLine
 10
71.829316
 20
226.735363
 30
0.0
 11
73.89266899999999
 21
225.183238
 31
0.0
  0
LINE
  5
84
330
74
100
AcDbEntity
  8
Layer 1
100
AcDbLine
 10
73.89266899999999
 20
225.183238
 30
0.0
 11
76.52653700000001
 21
223.584664
 31
0.0
  0
LINE
  5
85
330
74
100
AcDbEntity
  8
Layer 1
100
AcDbLine
 10
76.52653700000001
 20
223.584664
 30
0.0
 11
79.68798599999999
 21
221.63777
 31
0.0
  0
LINE
  5
86
330
74
100
AcDbEntity
  8
Layer 1
100
AcDbLine
 10
79.68798599999999
 20
221.63777
 30
0.0
 11
82.267995
 21
219.739386
 31
0.0
  0
LINE
  5
87
330
74
100
AcDbEntity
  8
Layer 1
100
AcDbLine
 10
82.267995
 20
219.739386
 30
0.0
 11
83.11011999999999
 21
219.161506
 31
0.0
  0
LINE
  5
88
330
74
100
AcDbEntity
  8
Layer 1
100
AcDbLine
 10
83.11011999999999
 20
219.161506
 30
0.0
 11
84.004472
 21
218.90558
 31
0.0
  0
LINE
  5
89
330
74
100
AcDbEntity
  8
Layer 1
100
AcDbLine
 10
84.004472
 20
218.90558
 30
0.0
 11
85.14844999999999
 21
218.9497
 31
0.0
  0
LINE
  5
8A
330
74
100
AcDbEntity
  8
Layer 1
100
AcDbLine
 10
85.14844999999999
 20
218.9497
 30
0.0
 11
86.73945299999999
 21
219.271956
 31
0.0
  0
LINE
  5
8B
330
74
100
AcDbEntity
  8
Layer 1
100
AcDbLine
 10
86.73945299999999
 20
219.271956
 30
0.0
 11
88.32668199999998
 21
219.538954
 31
0.0
  0
LINE
  5
8C
330
74
100
AcDbEntity
  8
Layer 1
100
AcDbLine
 10
88.32668199999998
 20
219.538954
 30
0.0
 11
89.94091199999999
 21
219.651192
 31
0.0
  0
LINE
  5
8D
330
74
100
AcDbEntity
  8
Layer 1
100
AcDbLine
 10
89.94091199999999
 20
219.651192
 30
0.0
 11
91.581328
 21
219.783484
 31
0.0
  0
LINE
  5
8E
330
74
100
AcDbEntity
  8
Layer 1
100
AcDbLine
 10
91.581328
 20
219.783484
 30
0.0
 11
91.193273
 21
220.894734
 31
0.0
  0
LINE
  5
8F
330
74
100
AcDbEntity
  8
Layer 1
100
AcDbLine
 10
91.193273
 20
220.894734
 30
0.0
 11
90.58287400000001
 21
223.312968
 31
0.0
  0
LINE
  5
90
330
74
100
AcDbEntity
  8
Layer 1
100
AcDbLine
 10
90.58287400000001
 20
223.312968
 30
0.0
 11
90.29391999999999
 21
226.277647
 31
0.0
  0
LINE
  5
91
330
74
100
AcDbEntity
  8
Layer 1
100
AcDbLine
 10
90.29391999999999
 20
226.277647
 30
0.0
 11
90.348809
 21
229.225366
 31
0.0
  0
LINE
  5
92
330
74
100
AcDbEntity
  8
Layer 1
100
AcDbLine
 10
90.348809
 20
229.225366
 30
0.0
 11
90.76994
 21
231.59272
 31
0.0
  0
LINE
  5
93
330
74
100
AcDbEntity
  8
Layer 1
100
AcDbLine
 10
90.76994
 20
231.59272
 30
0.0
 11
92.225148
 21
236.67272
 31
0.0
  0
LINE
  5
94
330
74
100
AcDbEntity
  8
Layer 1
100
AcDbLine
 10
92.225148
 20
236.67272
 30
0.0
 11
93.95865999999999
 21
242.729681
 31
0.0
  0
LINE
  5
95
330
74
100
AcDbEntity
  8
Layer 1
100
AcDbLine
 10
93.95865999999999
 20
242.729681
 30
0.0
 11
94.976815
 21
245.650917
 31
0.0
  0
LINE
  5
96
330
74
100
AcDbEntity
  8
Layer 1
100
AcDbLine
 10
94.976815
 20
245.650917
 30
0.0
 11
95.41113000000001
 21
245.492787
 31
0.0
  0
LINE
  5
97
330
74
100
AcDbEntity
  8
Layer 1
100
AcDbLine
 10
95.41113000000001
 20
245.492787
 30
0.0
 11
96.157803
 21
244.740327
 31
0.0
  0
LINE
  5
98
330
74
100
AcDbEntity
  8
Layer 1
100
AcDbLine
 10
96.157803
 20
244.740327
 30
0.0
 11
96.99528499999999
 21
243.651617
 31
0.0
  0
LINE
  5
99
330
74
100
AcDbEntity
  8
Layer 1
100
AcDbLine
 10
96.99528499999999
 20
243.651617
 30
0.0
 11
97.70202300000001
 21
242.484736
 31
0.0
  0
LINE
  5
9A
330
74
100
AcDbEntity
  8
Layer 1
100
AcDbLine
 10
97.70202300000001
 20
242.484736
 30
0.0
 11
98.873466
 21
239.629975
 31
0.0
  0
LINE
  5
9B
330
74
100
AcDbEntity
  8
Layer 1
100
AcDbLine
 10
98.873466
 20
239.629975
 30
0.0
 11
99.986259
 21
235.887789
 31
0.0
  0
LINE
  5
9C
330
74
100
AcDbEntity
  8
Layer 1
100
AcDbLine
 10
99.986259
 20
235.887789
 30
0.0
 11
101.496492
 21
230.895101
 31
0.0
  0
LINE
  5
9D
330
74
100
AcDbEntity
  8
Layer 1
100
AcDbLine
 10
101.496492
 20
230.895101
 30
0.0
 11
103.346467
 21
226.424525
 31
0.0
  0
LINE
  5
9E
330
74
100
AcDbEntity
  8
Layer 1
100
AcDbLine
 10
103.346467
 20
226.424525
 30
0.0
 11
104.376946
 21
224.072893
 31
0.0
  0
LINE
  5
9F
330
74
100
AcDbEntity
  8
Layer 1
100
AcDbLine
 10
104.376946
 20
224.072893
 30
0.0
 11
104.995703
 21
222.288206
 31
0.0
  0
LINE
  5
A0
330
74
100
AcDbEntity
  8
Layer 1
100
AcDbLine
 10
104.995703
 20
222.288206
 30
0.0
 11
105.597331
 21
220.804818
 31
0.0
  0
LINE
  5
A1
330
74
100
AcDbEntity
  8
Layer 1
100
AcDbLine
 10
105.597331
 20
220.804818
 30
0.0
 11
107.050634
 21
219.007372
 31
0.0
  0
LINE
  5
A2
330
74
100
AcDbEntity
  8
Layer 1
100
AcDbLine
 10
107.050634
 20
219.007372
 30
0.0
 11
109.625912
 21
215.87647
 31
0.0
  0
LINE
  5
A3
330
74
100
AcDbEntity
  8
Layer 1
100
AcDbLine
 10
109.625912
 20
215.87647
 30
0.0
 11
110.444562
 21
214.867562
 31
0.0
  0
LINE
  5
A4
330
74
100
AcDbEntity
  8
Layer 1
100
AcDbLine
 10
110.444562
 20
214.867562
 30
0.0
 11
110.730931
 21
214.851436
 31
0.0
  0
LINE
  5
A5
330
74
100
AcDbEntity
  8
Layer 1
100
AcDbLine
 10
110.730931
 20
214.851436
 30
0.0
 11
111.107578
 21
215.065081
 31
0.0
  0
LINE
  5
A6
330
74
100
AcDbEntity
  8
Layer 1
100
AcDbLine
 10
111.107578
 20
215.065081
 30
0.0
 11
112.131884
 21
215.314833
 31
0.0
  0
LINE
  5
A7
330
74
100
AcDbEntity
  8
Layer 1
100
AcDbLine
 10
112.131884
 20
215.314833
 30
0.0
 11
113.655081
 21
215.261717
 31
0.0
  0
LINE
  5
A8
330
74
100
AcDbEntity
  8
Layer 1
100
AcDbLine
 10
113.655081
 20
215.261717
 30
0.0
 11
115.262721
 21
214.953737
 31
0.0
  0
LINE
  5
A9
330
74
100
AcDbEntity
  8
Layer 1
100
AcDbLine
 10
115.262721
 20
214.953737
 30
0.0
 11
116.540356
 21
214.4389
 31
0.0
  0
LINE
  5
AA
330
74
100
AcDbEntity
  8
Layer 1
100
AcDbLine
 10
116.540356
 20
214.4389
 30
0.0
 11
117.210406
 21
214.137112
 31
0.0
  0
LINE
  5
AB
330
74
100
AcDbEntity
  8
Layer 1
100
AcDbLine
 10
117.210406
 20
214.137112
 30
0.0
 11
118.316128
 21
213.864574
 31
0.0
  0
LINE
  5
AC
330
74
100
AcDbEntity
  8
Layer 1
100
AcDbLine
 10
118.316128
 20
213.864574
 30
0.0
 11
122.83744
 21
213.230636
 31
0.0
  0
LINE
  5
AD
330
74
100
AcDbEntity
  8
Layer 1
100
AcDbLine
 10
122.83744
 20
213.230636
 30
0.0
 11
141.971642
 21
209.581119
 31
0.0
  0
LINE
  5
AE
330
74
100
AcDbEntity
  8
Layer 1
100
AcDbLine
 10
141.971642
 20
209.581119
 30
0.0
 11
161.001003
 21
205.632056
 31
0.0
  0
LINE
  5
AF
330
74
100
AcDbEntity
  8
Layer 1
100
AcDbLine
 10
161.001003
 20
205.632056
 30
0.0
 11
180.060318
 21
201.383445
 31
0.0
  0
LINE
  5
B0
330
74
100
AcDbEntity
  8
Layer 1
100
AcDbLine
 10
180.060318
 20
201.383445
 30
0.0
 11
199.284384
 21
196.835289
 31
0.0
  0
LINE
  5
B1
330
74
100
AcDbEntity
  8
Layer 1
100
AcDbLine
 10
199.284384
 20
196.835289
 30
0.0
 11
199.601884
 21
196.4648719999999
 31
0.0
  0
LINE
  5
B2
330
74
100
AcDbEntity
  8
Layer 1
100
AcDbLine
 10
199.601884
 20
196.4648719999999
 30
0.0
 11
199.9941
 21
195.696378
 31
0.0
  0
LINE
  5
B3
330
74
100
AcDbEntity
  8
Layer 1
100
AcDbLine
 10
199.9941
 20
195.696378
 30
0.0
 11
200.219065
 21
194.688767
 31
0.0
  0
LINE
  5
B4
330
74
100
AcDbEntity
  8
Layer 1
100
AcDbLine
 10
200.219065
 20
194.688767
 30
0.0
 11
200.360356
 21
192.00299
 31
0.0
  0
LINE
  5
B5
330
74
100
AcDbEntity
  8
Layer 1
100
AcDbLine
 10
200.360356
 20
192.00299
 30
0.0
 11
183.506398
 21
196.432728
 31
0.0
  0
LINE
  5
B6
330
74
100
AcDbEntity
  8
Layer 1
100
AcDbLine
 10
183.506398
 20
196.432728
 30
0.0
 11
166.65244
 21
200.473058
 31
0.0
  0
LINE
  5
B7
330
74
100
AcDbEntity
  8
Layer 1
100
AcDbLine
 10
166.65244
 20
200.473058
 30
0.0
 11
149.798481
 21
204.213841
 31
0.0
  0
LINE
  5
B8
330
74
100
AcDbEntity
  8
Layer 1
100
AcDbLine
 10
149.798481
 20
204.213841
 30
0.0
 11
132.944523
 21
207.744942
 31
0.0
  0
LINE
  5
B9
330
74
100
AcDbEntity
  8
Layer 1
100
AcDbLine
 10
132.944523
 20
207.744942
 30
0.0
 11
132.944523
 21
207.789039
 31
0.0
  0
LINE
  5
BA
330
74
100
AcDbEntity
  8
Layer 1
100
AcDbLine
 10
132.944523
 20
207.789039
 30
0.0
 11
131.871797
 21
208.333083
 31
0.0
  0
LINE
  5
BB
330
74
100
AcDbEntity
  8
Layer 1
100
AcDbLine
 10
131.871797
 20
208.333083
 30
0.0
 11
130.719278
 21
208.761722
 31
0.0
  0
LINE
  5
BC
330
74
100
AcDbEntity
  8
Layer 1
100
AcDbLine
 10
130.719278
 20
208.761722
 30
0.0
 11
128.358412
 21
209.420636
 31
0.0
  0
LINE
  5
BD
330
74
100
AcDbEntity
  8
Layer 1
100
AcDbLine
 10
128.358412
 20
209.420636
 30
0.0
 11
123.000946
 21
210.377804
 31
0.0
  0
LINE
  5
BE
330
74
100
AcDbEntity
  8
Layer 1
100
AcDbLine
 10
123.000946
 20
210.377804
 30
0.0
 11
120.558032
 21
210.673108
 31
0.0
  0
LINE
  5
BF
330
74
100
AcDbEntity
  8
Layer 1
100
AcDbLine
 10
120.558032
 20
210.673108
 30
0.0
 11
119.433134
 21
210.681817
 31
0.0
  0
LINE
  5
C0
330
74
100
AcDbEntity
  8
Layer 1
100
AcDbLine
 10
119.433134
 20
210.681817
 30
0.0
 11
119.362992
 21
210.402725
 31
0.0
  0
LINE
  5
C1
330
74
100
AcDbEntity
  8
Layer 1
100
AcDbLine
 10
119.362992
 20
210.402725
 30
0.0
 11
119.4618
 21
209.632204
 31
0.0
  0
LINE
  5
C2
330
74
100
AcDbEntity
  8
Layer 1
100
AcDbLine
 10
119.4618
 20
209.632204
 30
0.0
 11
120.394453
 21
205.39015
 31
0.0
  0
LINE
  5
C3
330
74
100
AcDbEntity
  8
Layer 1
100
AcDbLine
 10
120.394453
 20
205.39015
 30
0.0
 11
120.721924
 21
203.779267
 31
0.0
  0
LINE
  5
C4
330
74
100
AcDbEntity
  8
Layer 1
100
AcDbLine
 10
120.721924
 20
203.779267
 30
0.0
 11
120.907205
 21
202.082006
 31
0.0
  0
LINE
  5
C5
330
74
100
AcDbEntity
  8
Layer 1
100
AcDbLine
 10
120.907205
 20
202.082006
 30
0.0
 11
121.011815
 21
195.829872
 31
0.0
  0
LINE
  5
C6
330
74
100
AcDbEntity
  8
Layer 1
100
AcDbLine
 10
121.011815
 20
195.829872
 30
0.0
 11
120.979035
 21
191.411737
 31
0.0
  0
LINE
  5
C7
330
74
100
AcDbEntity
  8
Layer 1
100
AcDbLine
 10
120.979035
 20
191.411737
 30
0.0
 11
120.798023
 21
188.279076
 31
0.0
  0
LINE
  5
C8
330
74
100
AcDbEntity
  8
Layer 1
100
AcDbLine
 10
120.798023
 20
188.279076
 30
0.0
 11
120.3579
 21
185.32348
 31
0.0
  0
LINE
  5
C9
330
74
100
AcDbEntity
  8
Layer 1
100
AcDbLine
 10
120.3579
 20
185.32348
 30
0.0
 11
119.547787
 21
181.436539
 31
0.0
  0
LINE
  5
CA
330
74
100
AcDbEntity
  8
Layer 1
100
AcDbLine
 10
119.547787
 20
181.436539
 30
0.0
 11
118.992162
 21
178.684872
 31
0.0
  0
LINE
  5
CB
330
74
100
AcDbEntity
  8
Layer 1
100
AcDbLine
 10
118.992162
 20
178.684872
 30
0.0
 11
120.226884
 21
175.148275
 31
0.0
  0
LINE
  5
CC
330
74
100
AcDbEntity
  8
Layer 1
100
AcDbLine
 10
120.226884
 20
175.148275
 30
0.0
 11
121.889826
 21
170.474833
 31
0.0
  0
LINE
  5
CD
330
74
100
AcDbEntity
  8
Layer 1
100
AcDbLine
 10
121.889826
 20
170.474833
 30
0.0
 11
123.340148
 21
165.199942
 31
0.0
  0
LINE
  5
CE
330
74
100
AcDbEntity
  8
Layer 1
100
AcDbLine
 10
123.340148
 20
165.199942
 30
0.0
 11
125.478187
 21
156.343731
 31
0.0
  0
LINE
  5
CF
330
74
100
AcDbEntity
  8
Layer 1
100
AcDbLine
 10
125.478187
 20
156.343731
 30
0.0
 11
126.523967
 21
150.647859
 31
0.0
  0
LINE
  5
D0
330
74
100
AcDbEntity
  8
Layer 1
100
AcDbLine
 10
126.523967
 20
150.647859
 30
0.0
 11
127.053134
 21
146.749664
 31
0.0
  0
LINE
  5
D1
330
74
100
AcDbEntity
  8
Layer 1
100
AcDbLine
 10
127.053134
 20
146.749664
 30
0.0
 11
127.761517
 21
140.035555
 31
0.0
  0
LINE
  5
D2
330
74
100
AcDbEntity
  8
Layer 1
100
AcDbLine
 10
127.761517
 20
140.035555
 30
0.0
 11
128.402509
 21
131.959456
 31
0.0
  0
LINE
  5
D3
330
74
100
AcDbEntity
  8
Layer 1
100
AcDbLine
 10
128.402509
 20
131.959456
 30
0.0
 11
128.530633
 21
125.538721
 31
0.0
  0
LINE
  5
D4
330
74
100
AcDbEntity
  8
Layer 1
100
AcDbLine
 10
128.530633
 20
125.538721
 30
0.0
 11
128.235194
 21
119.231063
 31
0.0
  0
LINE
  5
D5
330
74
100
AcDbEntity
  8
Layer 1
100
AcDbLine
 10
128.235194
 20
119.231063
 30
0.0
 11
127.547162
 21
113.413851
 31
0.0
  0
LINE
  5
D6
330
74
100
AcDbEntity
  8
Layer 1
100
AcDbLine
 10
127.547162
 20
113.413851
 30
0.0
 11
126.497509
 21
108.464456
 31
0.0
  0
LINE
  5
D7
330
74
100
AcDbEntity
  8
Layer 1
100
AcDbLine
 10
126.497509
 20
108.464456
 30
0.0
 11
126.456222
 21
107.963867
 31
0.0
  0
LINE
  5
D8
330
74
100
AcDbEntity
  8
Layer 1
100
AcDbLine
 10
126.456222
 20
107.963867
 30
0.0
 11
126.802983
 21
108.031712
 31
0.0
  0
LINE
  5
D9
330
74
100
AcDbEntity
  8
Layer 1
100
AcDbLine
 10
126.802983
 20
108.031712
 30
0.0
 11
128.914037
 21
110.043136
 31
0.0
  0
LINE
  5
DA
330
74
100
AcDbEntity
  8
Layer 1
100
AcDbLine
 10
128.914037
 20
110.043136
 30
0.0
 11
131.006697
 21
112.501827
 31
0.0
  0
LINE
  5
DB
330
74
100
AcDbEntity
  8
Layer 1
100
AcDbLine
 10
131.006697
 20
112.501827
 30
0.0
 11
132.532547
 21
114.973989
 31
0.0
  0
LINE
  5
DC
330
74
100
AcDbEntity
  8
Layer 1
100
AcDbLine
 10
132.532547
 20
114.973989
 30
0.0
 11
133.6426129999999
 21
117.758849
 31
0.0
  0
LINE
  5
DD
330
74
100
AcDbEntity
  8
Layer 1
100
AcDbLine
 10
133.6426129999999
 20
117.758849
 30
0.0
 11
134.487926
 21
121.155636
 31
0.0
  0
LINE
  5
DE
330
74
100
AcDbEntity
  8
Layer 1
100
AcDbLine
 10
134.487926
 20
121.155636
 30
0.0
 11
134.898489
 21
123.836464
 31
0.0
  0
LINE
  5
DF
330
74
100
AcDbEntity
  8
Layer 1
100
AcDbLine
 10
134.898489
 20
123.836464
 30
0.0
 11
135.224187
 21
127.084725
 31
0.0
  0
LINE
  5
E0
330
74
100
AcDbEntity
  8
Layer 1
100
AcDbLine
 10
135.224187
 20
127.084725
 30
0.0
 11
135.408855
 21
130.199485
 31
0.0
  0
LINE
  5
E1
330
74
100
AcDbEntity
  8
Layer 1
100
AcDbLine
 10
135.408855
 20
130.199485
 30
0.0
 11
135.396328
 21
132.479803
 31
0.0
  0
LINE
  5
E2
330
74
100
AcDbEntity
  8
Layer 1
100
AcDbLine
 10
135.396328
 20
132.479803
 30
0.0
 11
134.550543
 21
140.55054
 31
0.0
  0
LINE
  5
E3
330
74
100
AcDbEntity
  8
Layer 1
100
AcDbLine
 10
134.550543
 20
140.55054
 30
0.0
 11
133.341398
 21
147.534595
 31
0.0
  0
LINE
  5
E4
330
74
100
AcDbEntity
  8
Layer 1
100
AcDbLine
 10
133.341398
 20
147.534595
 30
0.0
 11
132.20774
 21
153.146913
 31
0.0
  0
LINE
  5
E5
330
74
100
AcDbEntity
  8
Layer 1
100
AcDbLine
 10
132.20774
 20
153.146913
 30
0.0
 11
131.668546
 21
156.579388
 31
0.0
  0
LINE
  5
E6
330
74
100
AcDbEntity
  8
Layer 1
100
AcDbLine
 10
131.668546
 20
156.579388
 30
0.0
 11
131.615493
 21
157.540576
 31
0.0
  0
LINE
  5
E7
330
74
100
AcDbEntity
  8
Layer 1
100
AcDbLine
 10
131.615493
 20
157.540576
 30
0.0
 11
131.703399
 21
158.031671
 31
0.0
  0
LINE
  5
E8
330
74
100
AcDbEntity
  8
Layer 1
100
AcDbLine
 10
131.703399
 20
158.031671
 30
0.0
 11
131.929714
 21
158.077632
 31
0.0
  0
LINE
  5
E9
330
74
100
AcDbEntity
  8
Layer 1
100
AcDbLine
 10
131.929714
 20
158.077632
 30
0.0
 11
132.291884
 21
157.703414
 31
0.0
  0
LINE
  5
EA
330
74
100
AcDbEntity
  8
Layer 1
100
AcDbLine
 10
132.291884
 20
157.703414
 30
0.0
 11
133.193444
 21
156.220383
 31
0.0
  0
LINE
  5
EB
330
74
100
AcDbEntity
  8
Layer 1
100
AcDbLine
 10
133.193444
 20
156.220383
 30
0.0
 11
134.251169
 21
154.116365
 31
0.0
  0
LINE
  5
EC
330
74
100
AcDbEntity
  8
Layer 1
100
AcDbLine
 10
134.251169
 20
154.116365
 30
0.0
 11
135.206787
 21
151.940558
 31
0.0
  0
LINE
  5
ED
330
74
100
AcDbEntity
  8
Layer 1
100
AcDbLine
 10
135.206787
 20
151.940558
 30
0.0
 11
135.802023
 21
150.242164
 31
0.0
  0
LINE
  5
EE
330
74
100
AcDbEntity
  8
Layer 1
100
AcDbLine
 10
135.802023
 20
150.242164
 30
0.0
 11
137.089662
 21
145.832442
 31
0.0
  0
LINE
  5
EF
330
74
100
AcDbEntity
  8
Layer 1
100
AcDbLine
 10
137.089662
 20
145.832442
 30
0.0
 11
139.114135
 21
139.135814
 31
0.0
  0
LINE
  5
F0
330
74
100
AcDbEntity
  8
Layer 1
100
AcDbLine
 10
139.114135
 20
139.135814
 30
0.0
 11
140.097092
 21
134.834595
 31
0.0
  0
LINE
  5
F1
330
74
100
AcDbEntity
  8
Layer 1
100
AcDbLine
 10
140.097092
 20
134.834595
 30
0.0
 11
140.682202
 21
130.193681
 31
0.0
  0
LINE
  5
F2
330
74
100
AcDbEntity
  8
Layer 1
100
AcDbLine
 10
140.682202
 20
130.193681
 30
0.0
 11
140.996676
 21
125.86522
 31
0.0
  0
LINE
  5
F3
330
74
100
AcDbEntity
  8
Layer 1
100
AcDbLine
 10
140.996676
 20
125.86522
 30
0.0
 11
141.07079
 21
125.231602
 31
0.0
  0
LINE
  5
F4
330
74
100
AcDbEntity
  8
Layer 1
100
AcDbLine
 10
141.07079
 20
125.231602
 30
0.0
 11
141.273753
 21
124.706482
 31
0.0
  0
LINE
  5
F5
330
74
100
AcDbEntity
  8
Layer 1
100
AcDbLine
 10
141.273753
 20
124.706482
 30
0.0
 11
141.5848879999999
 21
124.299826
 31
0.0
  0
LINE
  5
F6
330
74
100
AcDbEntity
  8
Layer 1
100
AcDbLine
 10
141.5848879999999
 20
124.299826
 30
0.0
 11
141.9835139999999
 21
124.021602
 31
0.0
  0
LINE
  5
F7
330
74
100
AcDbEntity
  8
Layer 1
100
AcDbLine
 10
141.9835139999999
 20
124.021602
 30
0.0
 11
142.448956
 21
123.881777
 31
0.0
  0
LINE
  5
F8
330
74
100
AcDbEntity
  8
Layer 1
100
AcDbLine
 10
142.448956
 20
123.881777
 30
0.0
 11
142.960533
 21
123.890319
 31
0.0
  0
LINE
  5
F9
330
74
100
AcDbEntity
  8
Layer 1
100
AcDbLine
 10
142.960533
 20
123.890319
 30
0.0
 11
143.497569
 21
124.057195
 31
0.0
  0
LINE
  5
FA
330
74
100
AcDbEntity
  8
Layer 1
100
AcDbLine
 10
143.497569
 20
124.057195
 30
0.0
 11
144.039384
 21
124.392372
 31
0.0
  0
LINE
  5
FB
330
74
100
AcDbEntity
  8
Layer 1
100
AcDbLine
 10
144.039384
 20
124.392372
 30
0.0
 11
144.6801439999999
 21
124.740324
 31
0.0
  0
LINE
  5
FC
330
74
100
AcDbEntity
  8
Layer 1
100
AcDbLine
 10
144.6801439999999
 20
124.740324
 30
0.0
 11
145.305713
 21
124.784693
 31
0.0
  0
LINE
  5
FD
330
74
100
AcDbEntity
  8
Layer 1
100
AcDbLine
 10
145.305713
 20
124.784693
 30
0.0
 11
145.884611
 21
124.531477
 31
0.0
  0
LINE
  5
FE
330
74
100
AcDbEntity
  8
Layer 1
100
AcDbLine
 10
145.884611
 20
124.531477
 30
0.0
 11
146.385356
 21
123.986678
 31
0.0
  0
LINE
  5
FF
330
74
100
AcDbEntity
  8
Layer 1
100
AcDbLine
 10
146.385356
 20
123.986678
 30
0.0
 11
147.081565
 21
122.659443
 31
0.0
  0
LINE
  5
100
330
74
100
AcDbEntity
  8
Layer 1
100
AcDbLine
 10
147.081565
 20
122.659443
 30
0.0
 11
147.727158
 21
120.993732
 31
0.0
  0
LINE
  5
101
330
74
100
AcDbEntity
  8
Layer 1
100
AcDbLine
 10
147.727158
 20
120.993732
 30
0.0
 11
148.202354
 21
119.342828
 31
0.0
  0
LINE
  5
102
330
74
100
AcDbEntity
  8
Layer 1
100
AcDbLine
 10
148.202354
 20
119.342828
 30
0.0
 11
148.38737
 21
118.060011
 31
0.0
  0
LINE
  5
103
330
74
100
AcDbEntity
  8
Layer 1
100
AcDbLine
 10
148.38737
 20
118.060011
 30
0.0
 11
148.491617
 21
117.160816
 31
0.0
  0
LINE
  5
104
330
74
100
AcDbEntity
  8
Layer 1
100
AcDbLine
 10
148.491617
 20
117.160816
 30
0.0
 11
148.789569
 21
116.399737
 31
0.0
  0
LINE
  5
105
330
74
100
AcDbEntity
  8
Layer 1
100
AcDbLine
 10
148.789569
 20
116.399737
 30
0.0
 11
149.259043
 21
115.813952
 31
0.0
  0
LINE
  5
106
330
74
100
AcDbEntity
  8
Layer 1
100
AcDbLine
 10
149.259043
 20
115.813952
 30
0.0
 11
149.877856
 21
115.440636
 31
0.0
  0
LINE
  5
107
330
74
100
AcDbEntity
  8
Layer 1
100
AcDbLine
 10
149.877856
 20
115.440636
 30
0.0
 11
150.38318
 21
114.990191
 31
0.0
  0
LINE
  5
108
330
74
100
AcDbEntity
  8
Layer 1
100
AcDbLine
 10
150.38318
 20
114.990191
 30
0.0
 11
150.949359
 21
114.102807
 31
0.0
  0
LINE
  5
109
330
74
100
AcDbEntity
  8
Layer 1
100
AcDbLine
 10
150.949359
 20
114.102807
 30
0.0
 11
151.464856
 21
112.986959
 31
0.0
  0
LINE
  5
10A
330
74
100
AcDbEntity
  8
Layer 1
100
AcDbLine
 10
151.464856
 20
112.986959
 30
0.0
 11
151.818134
 21
111.851122
 31
0.0
  0
LINE
  5
10B
330
74
100
AcDbEntity
  8
Layer 1
100
AcDbLine
 10
151.818134
 20
111.851122
 30
0.0
 11
152.186077
 21
110.679695
 31
0.0
  0
LINE
  5
10C
330
74
100
AcDbEntity
  8
Layer 1
100
AcDbLine
 10
152.186077
 20
110.679695
 30
0.0
 11
152.877612
 21
109.267797
 31
0.0
  0
LINE
  5
10D
330
74
100
AcDbEntity
  8
Layer 1
100
AcDbLine
 10
152.877612
 20
109.267797
 30
0.0
 11
155.69869
 21
104.866122
 31
0.0
  0
LINE
  5
10E
330
74
100
AcDbEntity
  8
Layer 1
100
AcDbLine
 10
155.69869
 20
104.866122
 30
0.0
 11
159.900441
 21
99.07493199999999
 31
0.0
  0
LINE
  5
10F
330
74
100
AcDbEntity
  8
Layer 1
100
AcDbLine
 10
159.900441
 20
99.07493199999999
 30
0.0
 11
167.966537
 21
88.823553
 31
0.0
  0
LINE
  5
110
330
74
100
AcDbEntity
  8
Layer 1
100
AcDbLine
 10
167.966537
 20
88.823553
 30
0.0
 11
170.109662
 21
85.833761
 31
0.0
  0
LINE
  5
111
330
74
100
AcDbEntity
  8
Layer 1
100
AcDbLine
 10
170.109662
 20
85.833761
 30
0.0
 11
171.372907
 21
83.70231700000001
 31
0.0
  0
LINE
  5
112
330
74
100
AcDbEntity
  8
Layer 1
100
AcDbLine
 10
171.372907
 20
83.70231700000001
 30
0.0
 11
174.300729
 21
79.280181
 31
0.0
  0
LINE
  5
113
330
74
100
AcDbEntity
  8
Layer 1
100
AcDbLine
 10
174.300729
 20
79.280181
 30
0.0
 11
179.978606
 21
71.219942
 31
0.0
  0
LINE
  5
114
330
74
100
AcDbEntity
  8
Layer 1
100
AcDbLine
 10
179.978606
 20
71.219942
 30
0.0
 11
183.0036899999999
 21
67.79799699999999
 31
0.0
  0
LINE
  5
115
330
74
100
AcDbEntity
  8
Layer 1
100
AcDbLine
 10
183.0036899999999
 20
67.79799699999999
 30
0.0
 11
184.247217
 21
66.42216399999999
 31
0.0
  0
LINE
  5
116
330
74
100
AcDbEntity
  8
Layer 1
100
AcDbLine
 10
184.247217
 20
66.42216399999999
 30
0.0
 11
184.089219
 21
66.26015699999999
 31
0.0
  0
LINE
  5
117
330
74
100
AcDbEntity
  8
Layer 1
100
AcDbLine
 10
184.089219
 20
66.26015699999999
 30
0.0
 11
183.649917
 21
66.298755
 31
0.0
  0
LINE
  5
118
330
74
100
AcDbEntity
  8
Layer 1
100
AcDbLine
 10
183.649917
 20
66.298755
 30
0.0
 11
182.135542
 21
66.87953799999999
 31
0.0
  0
LINE
  5
119
330
74
100
AcDbEntity
  8
Layer 1
100
AcDbLine
 10
182.135542
 20
66.87953799999999
 30
0.0
 11
180.12038
 21
67.968058
 31
0.0
  0
LINE
  5
11A
330
74
100
AcDbEntity
  8
Layer 1
100
AcDbLine
 10
180.12038
 20
67.968058
 30
0.0
 11
178.020718
 21
69.367859
 31
0.0
  0
LINE
  5
11B
330
74
100
AcDbEntity
  8
Layer 1
100
AcDbLine
 10
178.020718
 20
69.367859
 30
0.0
 11
174.980544
 21
72.035023
 31
0.0
  0
LINE
  5
11C
330
74
100
AcDbEntity
  8
Layer 1
100
AcDbLine
 10
174.980544
 20
72.035023
 30
0.0
 11
171.330005
 21
75.805003
 31
0.0
  0
LINE
  5
11D
330
74
100
AcDbEntity
  8
Layer 1
100
AcDbLine
 10
171.330005
 20
75.805003
 30
0.0
 11
167.766035
 21
79.915056
 31
0.0
  0
LINE
  5
11E
330
74
100
AcDbEntity
  8
Layer 1
100
AcDbLine
 10
167.766035
 20
79.915056
 30
0.0
 11
164.985565
 21
83.60244200000002
 31
0.0
  0
LINE
  5
11F
330
74
100
AcDbEntity
  8
Layer 1
100
AcDbLine
 10
164.985565
 20
83.60244200000002
 30
0.0
 11
162.547877
 21
87.03929100000001
 31
0.0
  0
LINE
  5
120
330
74
100
AcDbEntity
  8
Layer 1
100
AcDbLine
 10
162.547877
 20
87.03929100000001
 30
0.0
 11
159.468546
 21
91.078003
 31
0.0
  0
LINE
  5
121
330
74
100
AcDbEntity
  8
Layer 1
100
AcDbLine
 10
159.468546
 20
91.078003
 30
0.0
 11
152.84119
 21
99.10702499999999
 31
0.0
  0
LINE
  5
122
330
74
100
AcDbEntity
  8
Layer 1
100
AcDbLine
 10
152.84119
 20
99.10702499999999
 30
0.0
 11
147.41364
 21
104.731293
 31
0.0
  0
LINE
  5
123
330
74
100
AcDbEntity
  8
Layer 1
100
AcDbLine
 10
147.41364
 20
104.731293
 30
0.0
 11
141.816884
 21
109.946122
 31
0.0
  0
LINE
  5
124
330
74
100
AcDbEntity
  8
Layer 1
100
AcDbLine
 10
141.816884
 20
109.946122
 30
0.0
 11
139.68206
 21
111.656126
 31
0.0
  0
LINE
  5
125
330
74
100
AcDbEntity
  8
Layer 1
100
AcDbLine
 10
139.68206
 20
111.656126
 30
0.0
 11
138.00013
 21
112.812651
 31
0.0
  0
LINE
  5
126
330
74
100
AcDbEntity
  8
Layer 1
100
AcDbLine
 10
138.00013
 20
112.812651
 30
0.0
 11
136.766959
 21
113.417856
 31
0.0
  0
LINE
  5
127
330
74
100
AcDbEntity
  8
Layer 1
100
AcDbLine
 10
136.766959
 20
113.417856
 30
0.0
 11
135.978412
 21
113.4739
 31
0.0
  0
LINE
  5
128
330
74
100
AcDbEntity
  8
Layer 1
100
AcDbLine
 10
135.978412
 20
113.4739
 30
0.0
 11
135.485102
 21
113.000791
 31
0.0
  0
LINE
  5
129
330
74
100
AcDbEntity
  8
Layer 1
100
AcDbLine
 10
135.485102
 20
113.000791
 30
0.0
 11
134.920078
 21
112.098067
 31
0.0
  0
LINE
  5
12A
330
74
100
AcDbEntity
  8
Layer 1
100
AcDbLine
 10
134.920078
 20
112.098067
 30
0.0
 11
134.046938
 21
110.689859
 31
0.0
  0
LINE
  5
12B
330
74
100
AcDbEntity
  8
Layer 1
100
AcDbLine
 10
134.046938
 20
110.689859
 30
0.0
 11
132.843853
 21
109.299696
 31
0.0
  0
LINE
  5
12C
330
74
100
AcDbEntity
  8
Layer 1
100
AcDbLine
 10
132.843853
 20
109.299696
 30
0.0
 11
131.239107
 21
107.855714
 31
0.0
  0
LINE
  5
12D
330
74
100
AcDbEntity
  8
Layer 1
100
AcDbLine
 10
131.239107
 20
107.855714
 30
0.0
 11
129.160981
 21
106.286053
 31
0.0
  0
LINE
  5
12E
330
74
100
AcDbEntity
  8
Layer 1
100
AcDbLine
 10
129.160981
 20
106.286053
 30
0.0
 11
126.865164
 21
104.578805
 31
0.0
  0
LINE
  5
12F
330
74
100
AcDbEntity
  8
Layer 1
100
AcDbLine
 10
126.865164
 20
104.578805
 30
0.0
 11
125.087317
 21
103.074457
 31
0.0
  0
LINE
  5
130
330
74
100
AcDbEntity
  8
Layer 1
100
AcDbLine
 10
125.087317
 20
103.074457
 30
0.0
 11
123.816129
 21
101.76259
 31
0.0
  0
LINE
  5
131
330
74
100
AcDbEntity
  8
Layer 1
100
AcDbLine
 10
123.816129
 20
101.76259
 30
0.0
 11
123.040287
 21
100.632789
 31
0.0
  0
LINE
  5
132
330
74
100
AcDbEntity
  8
Layer 1
100
AcDbLine
 10
123.040287
 20
100.632789
 30
0.0
 11
122.242843
 21
99.394042
 31
0.0
  0
LINE
  5
133
330
74
100
AcDbEntity
  8
Layer 1
100
AcDbLine
 10
122.242843
 20
99.394042
 30
0.0
 11
121.29954
 21
98.73464
 31
0.0
  0
LINE
  5
134
330
74
100
AcDbEntity
  8
Layer 1
100
AcDbLine
 10
121.29954
 20
98.73464
 30
0.0
 11
120.005117
 21
98.57893100000001
 31
0.0
  0
LINE
  5
135
330
74
100
AcDbEntity
  8
Layer 1
100
AcDbLine
 10
120.005117
 20
98.57893100000001
 30
0.0
 11
118.154315
 21
98.851261
 31
0.0
  0
LINE
  5
136
330
74
100
AcDbEntity
  8
Layer 1
100
AcDbLine
 10
118.154315
 20
98.851261
 30
0.0
 11
116.083895
 21
99.17216899999999
 31
0.0
  0
LINE
  5
137
330
74
100
AcDbEntity
  8
Layer 1
100
AcDbLine
 10
116.083895
 20
99.17216899999999
 30
0.0
 11
115.395884
 21
99.05708500000001
 31
0.0
  0
LINE
  5
138
330
74
100
AcDbEntity
  8
Layer 1
100
AcDbLine
 10
115.395884
 20
99.05708500000001
 30
0.0
 11
114.503065
 21
98.745428
 31
0.0
  0
LINE
  5
139
330
74
100
AcDbEntity
  8
Layer 1
100
AcDbLine
 10
114.503065
 20
98.745428
 30
0.0
 11
111.864559
 21
97.96913400000001
 31
0.0
  0
LINE
  5
13A
330
74
100
AcDbEntity
  8
Layer 1
100
AcDbLine
 10
111.864559
 20
97.96913400000001
 30
0.0
 11
108.775712
 21
97.37305500000001
 31
0.0
  0
LINE
  5
13B
330
74
100
AcDbEntity
  8
Layer 1
100
AcDbLine
 10
108.775712
 20
97.37305500000001
 30
0.0
 11
105.732729
 21
97.03321600000002
 31
0.0
  0
LINE
  5
13C
330
74
100
AcDbEntity
  8
Layer 1
100
AcDbLine
 10
105.732729
 20
97.03321600000002
 30
0.0
 11
103.231815
 21
97.02563599999999
 31
0.0
  0
LINE
  5
13D
330
74
100
AcDbEntity
  8
Layer 1
100
AcDbLine
 10
103.231815
 20
97.02563599999999
 30
0.0
 11
101.411912
 21
97.04660500000001
 31
0.0
  0
LINE
  5
13E
330
74
100
AcDbEntity
  8
Layer 1
100
AcDbLine
 10
101.411912
 20
97.04660500000001
 30
0.0
 11
99.62466200000001
 21
96.76987199999999
 31
0.0
  0
LINE
  5
13F
330
74
100
AcDbEntity
  8
Layer 1
100
AcDbLine
 10
99.62466200000001
 20
96.76987199999999
 30
0.0
 11
97.157078
 21
95.97338
 31
0.0
  0
LINE
  5
140
330
74
100
AcDbEntity
  8
Layer 1
100
AcDbLine
 10
97.157078
 20
95.97338
 30
0.0
 11
94.726811
 21
94.588877
 31
0.0
  0
LINE
  5
141
330
74
100
AcDbEntity
  8
Layer 1
100
AcDbLine
 10
94.726811
 20
94.588877
 30
0.0
 11
91.839463
 21
92.270809
 31
0.0
  0
LINE
  5
142
330
74
100
AcDbEntity
  8
Layer 1
100
AcDbLine
 10
91.839463
 20
92.270809
 30
0.0
 11
88.00063399999999
 21
88.673622
 31
0.0
  0
LINE
  5
143
330
74
100
AcDbEntity
  8
Layer 1
100
AcDbLine
 10
88.00063399999999
 20
88.673622
 30
0.0
 11
84.486597
 21
85.11294900000001
 31
0.0
  0
LINE
  5
144
330
74
100
AcDbEntity
  8
Layer 1
100
AcDbLine
 10
84.486597
 20
85.11294900000001
 30
0.0
 11
83.83551899999998
 21
84.22841600000001
 31
0.0
  0
LINE
  5
145
330
74
100
AcDbEntity
  8
Layer 1
100
AcDbLine
 10
83.83551899999998
 20
84.22841600000001
 30
0.0
 11
83.59973100000001
 21
83.56716400000001
 31
0.0
  0
LINE
  5
146
330
74
100
AcDbEntity
  8
Layer 1
100
AcDbLine
 10
83.59973100000001
 20
83.56716400000001
 30
0.0
 11
83.25502900000001
 21
82.64571399999999
 31
0.0
  0
LINE
  5
147
330
74
100
AcDbEntity
  8
Layer 1
100
AcDbLine
 10
83.25502900000001
 20
82.64571399999999
 30
0.0
 11
82.259176
 21
81.997303
 31
0.0
  0
LINE
  5
148
330
74
100
AcDbEntity
  8
Layer 1
100
AcDbLine
 10
82.259176
 20
81.997303
 30
0.0
 11
81.22577300000001
 21
81.30748399999999
 31
0.0
  0
LINE
  5
149
330
74
100
AcDbEntity
  8
Layer 1
100
AcDbLine
 10
81.22577300000001
 20
81.30748399999999
 30
0.0
 11
80.574662
 21
80.312789
 31
0.0
  0
LINE
  5
14A
330
74
100
AcDbEntity
  8
Layer 1
100
AcDbLine
 10
80.574662
 20
80.312789
 30
0.0
 11
80.06313399999999
 21
78.787025
 31
0.0
  0
LINE
  5
14B
330
74
100
AcDbEntity
  8
Layer 1
100
AcDbLine
 10
80.06313399999999
 20
78.787025
 30
0.0
 11
79.888414
 21
77.84656099999999
 31
0.0
  0
LINE
  5
14C
330
74
100
AcDbEntity
  8
Layer 1
100
AcDbLine
 10
79.888414
 20
77.84656099999999
 30
0.0
 11
79.457847
 21
76.63188199999999
 31
0.0
  0
LINE
  5
14D
330
74
100
AcDbEntity
  8
Layer 1
100
AcDbLine
 10
79.457847
 20
76.63188199999999
 30
0.0
 11
78.88233699999999
 21
75.412188
 31
0.0
  0
LINE
  5
14E
330
74
100
AcDbEntity
  8
Layer 1
100
AcDbLine
 10
78.88233699999999
 20
75.412188
 30
0.0
 11
78.27278699999999
 21
74.45667799999999
 31
0.0
  0
LINE
  5
14F
330
74
100
AcDbEntity
  8
Layer 1
100
AcDbLine
 10
78.27278699999999
 20
74.45667799999999
 30
0.0
 11
77.19721899999999
 21
73.356223
 31
0.0
  0
LINE
  5
150
330
74
100
AcDbEntity
  8
Layer 1
100
AcDbLine
 10
77.19721899999999
 20
73.356223
 30
0.0
 11
75.701334
 21
72.124751
 31
0.0
  0
LINE
  5
151
330
74
100
AcDbEntity
  8
Layer 1
100
AcDbLine
 10
75.701334
 20
72.124751
 30
0.0
 11
74.042582
 21
70.95681299999999
 31
0.0
  0
LINE
  5
152
330
74
100
AcDbEntity
  8
Layer 1
100
AcDbLine
 10
74.042582
 20
70.95681299999999
 30
0.0
 11
72.478412
 21
70.04695600000001
 31
0.0
  0
LINE
  5
153
330
74
100
AcDbEntity
  8
Layer 1
100
AcDbLine
 10
72.478412
 20
70.04695600000001
 30
0.0
 11
70.761279
 21
69.359364
 31
0.0
  0
LINE
  5
154
330
74
100
AcDbEntity
  8
Layer 1
100
AcDbLine
 10
70.761279
 20
69.359364
 30
0.0
 11
68.96191800000001
 21
68.96011800000001
 31
0.0
  0
LINE
  5
155
330
74
100
AcDbEntity
  8
Layer 1
100
AcDbLine
 10
68.96191800000001
 20
68.96011800000001
 30
0.0
 11
67.13707099999999
 21
68.85734599999999
 31
0.0
  0
LINE
  5
156
330
74
100
AcDbEntity
  8
Layer 1
100
AcDbLine
 10
67.13707099999999
 20
68.85734599999999
 30
0.0
 11
65.34348100000001
 21
69.059178
 31
0.0
  0
LINE
  5
157
330
74
100
AcDbEntity
  8
Layer 1
100
AcDbLine
 10
65.34348100000001
 20
69.059178
 30
0.0
 11
63.750852
 21
69.47931099999999
 31
0.0
  0
LINE
  5
158
330
74
100
AcDbEntity
  8
Layer 1
100
AcDbLine
 10
63.750852
 20
69.47931099999999
 30
0.0
 11
62.60063399999999
 21
69.949942
 31
0.0
  0
LINE
  5
159
330
74
100
AcDbEntity
  8
Layer 1
100
AcDbLine
 10
62.60063399999999
 20
69.949942
 30
0.0
 11
61.76278700000001
 21
70.46146999999999
 31
0.0
  0
LINE
  5
15A
330
74
100
AcDbEntity
  8
Layer 1
100
AcDbLine
 10
61.76278700000001
 20
70.46146999999999
 30
0.0
 11
61.321815
 21
69.79119200000001
 31
0.0
  0
LINE
  5
15B
330
74
100
AcDbEntity
  8
Layer 1
100
AcDbLine
 10
61.321815
 20
69.79119200000001
 30
0.0
 11
60.965986
 21
68.82338399999999
 31
0.0
  0
LINE
  5
15C
330
74
100
AcDbEntity
  8
Layer 1
100
AcDbLine
 10
60.965986
 20
68.82338399999999
 30
0.0
 11
60.69245099999999
 21
67.187674
 31
0.0
  0
LINE
  5
15D
330
74
100
AcDbEntity
  8
Layer 1
100
AcDbLine
 10
60.69245099999999
 20
67.187674
 30
0.0
 11
60.43986999999999
 21
62.32112199999999
 31
0.0
  0
LINE
  5
15E
330
74
100
AcDbEntity
  8
Layer 1
100
AcDbLine
 10
60.43986999999999
 20
62.32112199999999
 30
0.0
 11
60.36090999999999
 21
60.085025
 31
0.0
  0
LINE
  5
15F
330
74
100
AcDbEntity
  8
Layer 1
100
AcDbLine
 10
60.36090999999999
 20
60.085025
 30
0.0
 11
60.102571
 21
58.531252
 31
0.0
  0
LINE
  5
160
330
74
100
AcDbEntity
  8
Layer 1
100
AcDbLine
 10
60.102571
 20
58.531252
 30
0.0
 11
59.587343
 21
57.392951
 31
0.0
  0
LINE
  5
161
330
74
100
AcDbEntity
  8
Layer 1
100
AcDbLine
 10
59.587343
 20
57.392951
 30
0.0
 11
58.737717
 21
56.403275
 31
0.0
  0
LINE
  5
162
330
74
100
AcDbEntity
  8
Layer 1
100
AcDbLine
 10
58.737717
 20
56.403275
 30
0.0
 11
58.066357
 21
55.810951
 31
0.0
  0
LINE
  5
163
330
74
100
AcDbEntity
  8
Layer 1
100
AcDbLine
 10
58.066357
 20
55.810951
 30
0.0
 11
57.411288
 21
55.429379
 31
0.0
  0
LINE
  5
164
330
74
100
AcDbEntity
  8
Layer 1
100
AcDbLine
 10
57.411288
 20
55.429379
 30
0.0
 11
55.165842
 21
54.86869200000001
 31
0.0
  0
LINE
  5
165
330
74
100
AcDbEntity
  8
Layer 1
100
AcDbLine
 10
55.165842
 20
54.86869200000001
 30
0.0
 11
52.922878
 21
54.297365
 31
0.0
  0
LINE
  5
166
330
74
100
AcDbEntity
  8
Layer 1
100
AcDbLine
 10
52.922878
 20
54.297365
 30
0.0
 11
51.20591199999999
 21
53.484039
 31
0.0
  0
LINE
  5
167
330
74
100
AcDbEntity
  8
Layer 1
100
AcDbLine
 10
51.20591199999999
 20
53.484039
 30
0.0
 11
49.717251
 21
52.739692
 31
0.0
  0
LINE
  5
168
330
74
100
AcDbEntity
  8
Layer 1
100
AcDbLine
 10
49.717251
 20
52.739692
 30
0.0
 11
49.092643
 21
52.682353
 31
0.0
  0
LINE
  5
169
330
74
100
AcDbEntity
  8
Layer 1
100
AcDbLine
 10
49.092643
 20
52.682353
 30
0.0
 11
48.25139799999999
 21
52.76084499999999
 31
0.0
  0
LINE
  5
16A
330
74
100
AcDbEntity
  8
Layer 1
100
AcDbLine
 10
48.25139799999999
 20
52.76084499999999
 30
0.0
 11
47.393539
 21
52.846197
 31
0.0
  0
LINE
  5
16B
330
74
100
AcDbEntity
  8
Layer 1
100
AcDbLine
 10
47.393539
 20
52.846197
 30
0.0
 11
46.82968999999999
 21
52.779587
 31
0.0
  0
LINE
  5
16C
330
74
100
AcDbEntity
  8
Layer 1
100
AcDbLine
 10
46.82968999999999
 20
52.779587
 30
0.0
 11
46.324056
 21
52.483119
 31
0.0
  0
LINE
  5
16D
330
74
100
AcDbEntity
  8
Layer 1
100
AcDbLine
 10
46.324056
 20
52.483119
 30
0.0
 11
45.64084199999999
 21
51.8789
 31
0.0
  0
LINE
  5
16E
330
74
100
AcDbEntity
  8
Layer 1
100
AcDbLine
 10
45.64084199999999
 20
51.8789
 30
0.0
 11
44.335436
 21
50.897994
 31
0.0
  0
LINE
  5
16F
330
74
100
AcDbEntity
  8
Layer 1
100
AcDbLine
 10
44.335436
 20
50.897994
 30
0.0
 11
42.624592
 21
50.44133099999999
 31
0.0
  0
LINE
  5
170
330
74
100
AcDbEntity
  8
Layer 1
100
AcDbLine
 10
42.624592
 20
50.44133099999999
 30
0.0
 11
38.435356
 21
50.406053
 31
0.0
  0
LINE
  5
171
330
74
100
AcDbEntity
  8
Layer 1
100
AcDbLine
 10
38.435356
 20
50.406053
 30
0.0
 11
35.098057
 21
50.611006
 31
0.0
  0
LINE
  5
172
330
74
100
AcDbEntity
  8
Layer 1
100
AcDbLine
 10
35.098057
 20
50.611006
 30
0.0
 11
32.51750900000001
 21
51.279178
 31
0.0
  0
LINE
  5
173
330
74
100
AcDbEntity
  8
Layer 1
100
AcDbLine
 10
32.51750900000001
 20
51.279178
 30
0.0
 11
30.248406
 21
52.152293
 31
0.0
  0
LINE
  5
174
330
74
100
AcDbEntity
  8
Layer 1
100
AcDbLine
 10
30.248406
 20
52.152293
 30
0.0
 11
28.134247
 21
53.140081
 31
0.0
  0
LINE
  5
175
330
74
100
AcDbEntity
  8
Layer 1
100
AcDbLine
 10
28.134247
 20
53.140081
 30
0.0
 11
26.172959
 21
54.01522599999999
 31
0.0
  0
LINE
  5
176
330
74
100
AcDbEntity
  8
Layer 1
100
AcDbLine
 10
26.172959
 20
54.01522599999999
 30
0.0
 11
24.315427
 21
54.46299699999999
 31
0.0
  0
LINE
  5
177
330
74
100
AcDbEntity
  8
Layer 1
100
AcDbLine
 10
24.315427
 20
54.46299699999999
 30
0.0
 11
22.449074
 21
54.83035400000001
 31
0.0
  0
LINE
  5
178
330
74
100
AcDbEntity
  8
Layer 1
100
AcDbLine
 10
22.449074
 20
54.83035400000001
 30
0.0
 11
20.849589
 21
55.361829
 31
0.0
  0
LINE
  5
179
330
74
100
AcDbEntity
  8
Layer 1
100
AcDbLine
 10
20.849589
 20
55.361829
 30
0.0
 11
19.532224
 21
56.050224
 31
0.0
  0
LINE
  5
17A
330
74
100
AcDbEntity
  8
Layer 1
100
AcDbLine
 10
19.532224
 20
56.050224
 30
0.0
 11
18.512233
 21
56.88834499999999
 31
0.0
  0
LINE
  5
17B
330
74
100
AcDbEntity
  8
Layer 1
100
AcDbLine
 10
18.512233
 20
56.88834499999999
 30
0.0
 11
17.96577
 21
57.532601
 31
0.0
  0
LINE
  5
17C
330
74
100
AcDbEntity
  8
Layer 1
100
AcDbLine
 10
17.96577
 20
57.532601
 30
0.0
 11
17.575243
 21
58.244215
 31
0.0
  0
LINE
  5
17D
330
74
100
AcDbEntity
  8
Layer 1
100
AcDbLine
 10
17.575243
 20
58.244215
 30
0.0
 11
16.854177
 21
60.848275
 31
0.0
  0
LINE
  5
17E
330
74
100
AcDbEntity
  8
Layer 1
100
AcDbLine
 10
16.854177
 20
60.848275
 30
0.0
 11
15.910496
 21
65.593136
 31
0.0
  0
LINE
  5
17F
330
74
100
AcDbEntity
  8
Layer 1
100
AcDbLine
 10
15.910496
 20
65.593136
 30
0.0
 11
15.722212
 21
66.64865299999999
 31
0.0
  0
LINE
  5
180
330
74
100
AcDbEntity
  8
Layer 1
100
AcDbLine
 10
15.722212
 20
66.64865299999999
 30
0.0
 11
15.460019
 21
67.366066
 31
0.0
  0
LINE
  5
181
330
74
100
AcDbEntity
  8
Layer 1
100
AcDbLine
 10
15.460019
 20
67.366066
 30
0.0
 11
14.975478
 21
68.01501800000001
 31
0.0
  0
LINE
  5
182
330
74
100
AcDbEntity
  8
Layer 1
100
AcDbLine
 10
14.975478
 20
68.01501800000001
 30
0.0
 11
14.120149
 21
68.86515
 31
0.0
  0
LINE
  5
183
330
74
100
AcDbEntity
  8
Layer 1
100
AcDbLine
 10
14.120149
 20
68.86515
 30
0.0
 11
13.167101
 21
69.89572800000001
 31
0.0
  0
LINE
  5
184
330
74
100
AcDbEntity
  8
Layer 1
100
AcDbLine
 10
13.167101
 20
69.89572800000001
 30
0.0
 11
12.334259
 21
71.056763
 31
0.0
  0
LINE
  5
185
330
74
100
AcDbEntity
  8
Layer 1
100
AcDbLine
 10
12.334259
 20
71.056763
 30
0.0
 11
11.619082
 21
72.355814
 31
0.0
  0
LINE
  5
186
330
74
100
AcDbEntity
  8
Layer 1
100
AcDbLine
 10
11.619082
 20
72.355814
 30
0.0
 11
11.01903
 21
73.800443
 31
0.0
  0
LINE
  5
187
330
74
100
AcDbEntity
  8
Layer 1
100
AcDbLine
 10
11.01903
 20
73.800443
 30
0.0
 11
10.154135
 21
77.15666699999999
 31
0.0
  0
LINE
  5
188
330
74
100
AcDbEntity
  8
Layer 1
100
AcDbLine
 10
10.154135
 20
77.15666699999999
 30
0.0
 11
9.719246
 21
81.18591399999999
 31
0.0
  0
LINE
  5
189
330
74
100
AcDbEntity
  8
Layer 1
100
AcDbLine
 10
9.719246
 20
81.18591399999999
 30
0.0
 11
9.678819
 21
83.957828
 31
0.0
  0
LINE
  5
18A
330
74
100
AcDbEntity
  8
Layer 1
100
AcDbLine
 10
9.678819
 20
83.957828
 30
0.0
 11
9.875821
 21
84.62225
 31
0.0
  0
LINE
  5
18B
330
74
100
AcDbEntity
  8
Layer 1
100
AcDbLine
 10
9.875821
 20
84.62225
 30
0.0
 11
10.283691
 21
85.295775
 31
0.0
  0
LINE
  5
18C
330
74
100
AcDbEntity
  8
Layer 1
100
AcDbLine
 10
10.283691
 20
85.295775
 30
0.0
 11
11.349202
 21
86.522299
 31
0.0
  0
LINE
  5
18D
330
74
100
AcDbEntity
  8
Layer 1
100
AcDbLine
 10
11.349202
 20
86.522299
 30
0.0
 11
12.903066
 21
87.950428
 31
0.0
  0
LINE
  5
18E
330
74
100
AcDbEntity
  8
Layer 1
100
AcDbLine
 10
12.903066
 20
87.950428
 30
0.0
 11
14.323731
 21
89.274675
 31
0.0
  0
LINE
  5
18F
330
74
100
AcDbEntity
  8
Layer 1
100
AcDbLine
 10
14.323731
 20
89.274675
 30
0.0
 11
15.072649
 21
90.252303
 31
0.0
  0
LINE
  5
190
330
74
100
AcDbEntity
  8
Layer 1
100
AcDbLine
 10
15.072649
 20
90.252303
 30
0.0
 11
17.879411
 21
97.385453
 31
0.0
  0
LINE
  5
191
330
74
100
AcDbEntity
  8
Layer 1
100
AcDbLine
 10
17.879411
 20
97.385453
 30
0.0
 11
21.554941
 21
105.651053
 31
0.0
  0
LINE
  5
192
330
74
100
AcDbEntity
  8
Layer 1
100
AcDbLine
 10
21.554941
 20
105.651053
 30
0.0
 11
26.150352
 21
115.917097
 31
0.0
  0
LINE
  5
193
330
74
100
AcDbEntity
  8
Layer 1
100
AcDbLine
 10
26.150352
 20
115.917097
 30
0.0
 11
27.101802
 21
118.436601
 31
0.0
  0
LINE
  5
194
330
74
100
AcDbEntity
  8
Layer 1
100
AcDbLine
 10
27.101802
 20
118.436601
 30
0.0
 11
27.587441
 21
120.264872
 31
0.0
  0
LINE
  5
195
330
74
100
AcDbEntity
  8
Layer 1
100
AcDbLine
 10
27.587441
 20
120.264872
 30
0.0
 11
28.248113
 21
122.840564
 31
0.0
  0
LINE
  5
196
330
74
100
AcDbEntity
  8
Layer 1
100
AcDbLine
 10
28.248113
 20
122.840564
 30
0.0
 11
29.115404
 21
124.934904
 31
0.0
  0
LINE
  5
197
330
74
100
AcDbEntity
  8
Layer 1
100
AcDbLine
 10
29.115404
 20
124.934904
 30
0.0
 11
30.31012
 21
126.775617
 31
0.0
  0
LINE
  5
198
330
74
100
AcDbEntity
  8
Layer 1
100
AcDbLine
 10
30.31012
 20
126.775617
 30
0.0
 11
31.953065
 21
128.590428
 31
0.0
  0
LINE
  5
199
330
74
100
AcDbEntity
  8
Layer 1
100
AcDbLine
 10
31.953065
 20
128.590428
 30
0.0
 11
33.981537
 21
130.742372
 31
0.0
  0
LINE
  5
19A
330
74
100
AcDbEntity
  8
Layer 1
100
AcDbLine
 10
33.981537
 20
130.742372
 30
0.0
 11
34.784106
 21
132.541539
 31
0.0
  0
LINE
  5
19B
330
74
100
AcDbEntity
  8
Layer 1
100
AcDbLine
 10
34.784106
 20
132.541539
 30
0.0
 11
37.793112
 21
139.32686
 31
0.0
  0
LINE
  5
19C
330
74
100
AcDbEntity
  8
Layer 1
100
AcDbLine
 10
37.793112
 20
139.32686
 30
0.0
 11
41.725009
 21
148.839872
 31
0.0
  0
LINE
  5
19D
330
74
100
AcDbEntity
  8
Layer 1
100
AcDbLine
 10
41.725009
 20
148.839872
 30
0.0
 11
43.26284099999999
 21
152.887665
 31
0.0
  0
LINE
  5
19E
330
74
100
AcDbEntity
  8
Layer 1
100
AcDbLine
 10
43.26284099999999
 20
152.887665
 30
0.0
 11
44.04536199999999
 21
155.667942
 31
0.0
  0
LINE
  5
19F
330
74
100
AcDbEntity
  8
Layer 1
100
AcDbLine
 10
44.04536199999999
 20
155.667942
 30
0.0
 11
44.188053
 21
157.783646
 31
0.0
  0
LINE
  5
1A0
330
74
100
AcDbEntity
  8
Layer 1
100
AcDbLine
 10
44.188053
 20
157.783646
 30
0.0
 11
43.80639799999999
 21
159.83772
 31
0.0
  0
LINE
  5
1A1
330
74
100
AcDbEntity
  8
Layer 1
100
AcDbLine
 10
43.80639799999999
 20
159.83772
 30
0.0
 11
42.840023
 21
163.602715
 31
0.0
  0
LINE
  5
1A2
330
74
100
AcDbEntity
  8
Layer 1
100
AcDbLine
 10
42.840023
 20
163.602715
 30
0.0
 11
42.395136
 21
166.097634
 31
0.0
  0
LINE
  5
1A3
330
74
100
AcDbEntity
  8
Layer 1
100
AcDbLine
 10
42.395136
 20
166.097634
 30
0.0
 11
42.41995999999999
 21
167.839436
 31
0.0
  0
LINE
  5
1A4
330
74
100
AcDbEntity
  8
Layer 1
100
AcDbLine
 10
42.41995999999999
 20
167.839436
 30
0.0
 11
42.86271699999999
 21
169.345081
 31
0.0
  0
LINE
  5
1A5
330
74
100
AcDbEntity
  8
Layer 1
100
AcDbLine
 10
42.86271699999999
 20
169.345081
 30
0.0
 11
43.80639799999999
 21
172.008553
 31
0.0
  0
LINE
  5
1A6
330
74
100
AcDbEntity
  8
Layer 1
100
AcDbLine
 10
43.80639799999999
 20
172.008553
 30
0.0
 11
44.66599
 21
174.086193
 31
0.0
  0
LINE
  5
1A7
330
74
100
AcDbEntity
  8
Layer 1
100
AcDbLine
 10
44.66599
 20
174.086193
 30
0.0
 11
45.990149
 21
176.007471
 31
0.0
  0
LINE
  5
1A8
330
74
100
AcDbEntity
  8
Layer 1
100
AcDbLine
 10
45.990149
 20
176.007471
 30
0.0
 11
47.955453
 21
177.97981
 31
0.0
  0
LINE
  5
1A9
330
74
100
AcDbEntity
  8
Layer 1
100
AcDbLine
 10
47.955453
 20
177.97981
 30
0.0
 11
50.738481
 21
180.210636
 31
0.0
  0
LINE
  5
1AA
330
74
100
AcDbEntity
  8
Layer 1
100
AcDbLine
 10
50.738481
 20
180.210636
 30
0.0
 11
54.50438399999999
 21
183.253345
 31
0.0
  0
LINE
  5
1AB
330
74
100
AcDbEntity
  8
Layer 1
100
AcDbLine
 10
54.50438399999999
 20
183.253345
 30
0.0
 11
56.398511
 21
185.372139
 31
0.0
  0
LINE
  5
1AC
330
74
100
AcDbEntity
  8
Layer 1
100
AcDbLine
 10
56.398511
 20
185.372139
 30
0.0
 11
57.037828
 21
186.323056
 31
0.0
  0
LINE
  5
1AD
330
74
100
AcDbEntity
  8
Layer 1
100
AcDbLine
 10
57.037828
 20
186.323056
 30
0.0
 11
57.28250899999999
 21
186.948692
 31
0.0
  0
LINE
  5
1AE
330
74
100
AcDbEntity
  8
Layer 1
100
AcDbLine
 10
57.28250899999999
 20
186.948692
 30
0.0
 11
58.28792599999999
 21
188.871331
 31
0.0
  0
LINE
  5
1AF
330
74
100
AcDbEntity
  8
Layer 1
100
AcDbLine
 10
58.28792599999999
 20
188.871331
 30
0.0
 11
59.16474399999999
 21
190.365921
 31
0.0
  0
LINE
  5
1B0
330
74
100
AcDbEntity
  8
Layer 1
100
AcDbLine
 10
59.16474399999999
 20
190.365921
 30
0.0
 11
59.62224
 21
191.45922
 31
0.0
  0
LINE
  5
1B1
330
74
100
AcDbEntity
  8
Layer 1
100
AcDbLine
 10
59.62224
 20
191.45922
 30
0.0
 11
59.712441
 21
192.34116
 31
0.0
  0
LINE
  5
1B2
330
74
100
AcDbEntity
  8
Layer 1
100
AcDbLine
 10
59.712441
 20
192.34116
 30
0.0
 11
59.48737
 21
193.201678
 31
0.0
  0
LINE
  5
1B3
330
74
100
AcDbEntity
  8
Layer 1
100
AcDbLine
 10
59.48737
 20
193.201678
 30
0.0
 11
59.27858
 21
193.815418
 31
0.0
  0
LINE
  5
1B4
330
74
100
AcDbEntity
  8
Layer 1
100
AcDbLine
 10
59.27858
 20
193.815418
 30
0.0
 11
59.267003
 21
194.396965
 31
0.0
  0
LINE
  5
1B5
330
74
100
AcDbEntity
  8
Layer 1
100
AcDbLine
 10
59.267003
 20
194.396965
 30
0.0
 11
60.025356
 21
196.650081
 31
0.0
  0
LINE
  5
1B6
330
74
100
AcDbEntity
  8
Layer 1
100
AcDbLine
 10
60.025356
 20
196.650081
 30
0.0
 11
61.31623499999999
 21
199.507992
 31
0.0
  0
LINE
  5
1B7
330
74
100
AcDbEntity
  8
Layer 1
100
AcDbLine
 10
61.31623499999999
 20
199.507992
 30
0.0
 11
62.674166
 21
201.540829
 31
0.0
  0
LINE
  5
1B8
330
74
100
AcDbEntity
  8
Layer 1
100
AcDbLine
 10
62.674166
 20
201.540829
 30
0.0
 11
63.37959399999999
 21
202.249997
 31
0.0
  0
LINE
  5
1B9
330
74
100
AcDbEntity
  8
Layer 1
100
AcDbLine
 10
63.37959399999999
 20
202.249997
 30
0.0
 11
64.103368
 21
202.755479
 31
0.0
  0
LINE
  5
1BA
330
74
100
AcDbEntity
  8
Layer 1
100
AcDbLine
 10
64.103368
 20
202.755479
 30
0.0
 11
64.84601600000001
 21
203.058137
 31
0.0
  0
LINE
  5
1BB
330
74
100
AcDbEntity
  8
Layer 1
100
AcDbLine
 10
64.84601600000001
 20
203.058137
 30
0.0
 11
65.60806499999999
 21
203.158831
 31
0.0
  0
LINE
  5
1BC
330
74
100
AcDbEntity
  8
Layer 1
100
AcDbLine
 10
65.60806499999999
 20
203.158831
 30
0.0
 11
66.63696
 21
203.236736
 31
0.0
  0
LINE
  5
1BD
330
74
100
AcDbEntity
  8
Layer 1
100
AcDbLine
 10
66.63696
 20
203.236736
 30
0.0
 11
67.531936
 21
203.551052
 31
0.0
  0
LINE
  5
1BE
330
74
100
AcDbEntity
  8
Layer 1
100
AcDbLine
 10
67.531936
 20
203.551052
 30
0.0
 11
68.52992399999999
 21
204.222677
 31
0.0
  0
LINE
  5
1BF
330
74
100
AcDbEntity
  8
Layer 1
100
AcDbLine
 10
68.52992399999999
 20
204.222677
 30
0.0
 11
69.86785600000001
 21
205.372511
 31
0.0
  0
LINE
  5
1C0
330
74
100
AcDbEntity
  8
Layer 1
100
AcDbLine
 10
69.86785600000001
 20
205.372511
 30
0.0
 11
71.993342
 21
207.092303
 31
0.0
  0
LINE
  5
1C1
330
74
100
AcDbEntity
  8
Layer 1
100
AcDbLine
 10
71.993342
 20
207.092303
 30
0.0
 11
72.239603
 21
207.219361
 31
0.0
  0
LINE
  5
1C2
330
74
100
AcDbEntity
  8
Layer 1
100
AcDbLine
 10
72.239603
 20
207.219361
 30
0.0
 11
72.116638
 21
207.550186
 31
0.0
  0
LINE
  5
1C3
330
74
100
AcDbEntity
  8
Layer 1
100
AcDbLine
 10
72.116638
 20
207.550186
 30
0.0
 11
70.979106
 21
208.521053
 31
0.0
  0
LINE
  5
1C4
330
74
100
AcDbEntity
  8
Layer 1
100
AcDbLine
 10
70.979106
 20
208.521053
 30
0.0
 11
69.14866100000001
 21
209.932756
 31
0.0
  0
LINE
  5
1C5
330
74
100
AcDbEntity
  8
Layer 1
100
AcDbLine
 10
69.14866100000001
 20
209.932756
 30
0.0
 11
67.005273
 21
211.950933
 31
0.0
  0
LINE
  5
1C6
330
74
100
AcDbEntity
  8
Layer 1
100
AcDbLine
 10
67.005273
 20
211.950933
 30
0.0
 11
64.95262
 21
214.167989
 31
0.0
  0
LINE
  5
1C7
330
74
100
AcDbEntity
  8
Layer 1
100
AcDbLine
 10
64.95262
 20
214.167989
 30
0.0
 11
63.39438399999999
 21
216.176331
 31
0.0
  0
LINE
  5
1C8
330
74
100
AcDbEntity
  8
Layer 1
100
AcDbLine
 10
63.39438399999999
 20
216.176331
 30
0.0
 11
61.570139
 21
219.392022
 31
0.0
  0
LINE
  5
1C9
330
74
100
AcDbEntity
  8
Layer 1
100
AcDbLine
 10
61.570139
 20
219.392022
 30
0.0
 11
60.91098299999999
 21
221.011756
 31
0.0
  0
LINE
  5
1CA
330
74
100
AcDbEntity
  8
Layer 1
100
AcDbLine
 10
60.91098299999999
 20
221.011756
 30
0.0
 11
60.407667
 21
222.69115
 31
0.0
  0
LINE
  5
1CB
330
74
100
AcDbEntity
  8
Layer 1
100
AcDbLine
 10
60.407667
 20
222.69115
 30
0.0
 11
60.05059
 21
224.469004
 31
0.0
  0
LINE
  5
1CC
330
74
100
AcDbEntity
  8
Layer 1
100
AcDbLine
 10
60.05059
 20
224.469004
 30
0.0
 11
59.83015
 21
226.384119
 31
0.0
  0
LINE
  5
1CD
330
74
100
AcDbEntity
  8
Layer 1
100
AcDbLine
 10
59.83015
 20
226.384119
 30
0.0
 11
59.760773
 21
230.781331
 31
0.0
  0
LINE
  5
1CE
330
74
100
AcDbEntity
  8
Layer 1
100
AcDbLine
 10
59.760773
 20
230.781331
 30
0.0
 11
59.9251
 21
233.558921
 31
0.0
  0
LINE
  5
1CF
330
74
100
AcDbEntity
  8
Layer 1
100
AcDbLine
 10
59.9251
 20
233.558921
 30
0.0
 11
60.242415
 21
236.348026
 31
0.0
  0
LINE
  5
1D0
330
74
100
AcDbEntity
  8
Layer 1
100
AcDbLine
 10
60.242415
 20
236.348026
 30
0.0
 11
61.383551
 21
242.299528
 31
0.0
  0
LINE
  5
1D1
330
74
100
AcDbEntity
  8
Layer 1
100
AcDbLine
 10
61.383551
 20
242.299528
 30
0.0
 11
61.927514
 21
244.19575
 31
0.0
  0
LINE
  5
1D2
330
74
100
AcDbEntity
  8
Layer 1
100
AcDbLine
 10
61.927514
 20
244.19575
 30
0.0
 11
62.53668199999999
 21
245.545611
 31
0.0
  0
LINE
  5
1D3
330
74
100
AcDbEntity
  8
Layer 1
100
AcDbLine
 10
62.53668199999999
 20
245.545611
 30
0.0
 11
63.213103
 21
246.352812
 31
0.0
  0
LINE
  5
1D4
330
74
100
AcDbEntity
  8
Layer 1
100
AcDbLine
 10
63.213103
 20
246.352812
 30
0.0
 11
63.958828
 21
246.621056
 31
0.0
  0
LINE
  5
1D5
330
74
100
AcDbEntity
  8
Layer 1
100
AcDbLine
 10
63.958828
 20
246.621056
 30
0.0
 11
63.958828
 21
246.621056
 31
0.0
  0
LINE
  5
1D6
330
74
100
AcDbEntity
  8
Layer 1
100
AcDbLine
 10
73.404453
 20
222.270567
 30
0.0
 11
72.98994
 21
222.200011
 31
0.0
  0
LINE
  5
1D7
330
74
100
AcDbEntity
  8
Layer 1
100
AcDbLine
 10
72.98994
 20
222.200011
 30
0.0
 11
74.048273
 21
219.016192
 31
0.0
  0
LINE
  5
1D8
330
74
100
AcDbEntity
  8
Layer 1
100
AcDbLine
 10
74.048273
 20
219.016192
 30
0.0
 11
74.80560600000001
 21
216.540027
 31
0.0
  0
LINE
  5
1D9
330
74
100
AcDbEntity
  8
Layer 1
100
AcDbLine
 10
74.80560600000001
 20
216.540027
 30
0.0
 11
75.29602699999999
 21
214.363414
 31
0.0
  0
LINE
  5
1DA
330
74
100
AcDbEntity
  8
Layer 1
100
AcDbLine
 10
75.29602699999999
 20
214.363414
 30
0.0
 11
75.51755400000001
 21
212.497947
 31
0.0
  0
LINE
  5
1DB
330
74
100
AcDbEntity
  8
Layer 1
100
AcDbLine
 10
75.51755400000001
 20
212.497947
 30
0.0
 11
75.468203
 21
210.95522
 31
0.0
  0
LINE
  5
1DC
330
74
100
AcDbEntity
  8
Layer 1
100
AcDbLine
 10
75.468203
 20
210.95522
 30
0.0
 11
75.412436
 21
209.888932
 31
0.0
  0
LINE
  5
1DD
330
74
100
AcDbEntity
  8
Layer 1
100
AcDbLine
 10
75.412436
 20
209.888932
 30
0.0
 11
75.579335
 21
209.739288
 31
0.0
  0
LINE
  5
1DE
330
74
100
AcDbEntity
  8
Layer 1
100
AcDbLine
 10
75.579335
 20
209.739288
 30
0.0
 11
75.92681500000001
 21
209.711678
 31
0.0
  0
LINE
  5
1DF
330
74
100
AcDbEntity
  8
Layer 1
100
AcDbLine
 10
75.92681500000001
 20
209.711678
 30
0.0
 11
76.52003
 21
209.899335
 31
0.0
  0
LINE
  5
1E0
330
74
100
AcDbEntity
  8
Layer 1
100
AcDbLine
 10
76.52003
 20
209.899335
 30
0.0
 11
77.16494
 21
210.381136
 31
0.0
  0
LINE
  5
1E1
330
74
100
AcDbEntity
  8
Layer 1
100
AcDbLine
 10
77.16494
 20
210.381136
 30
0.0
 11
77.730979
 21
211.035326
 31
0.0
  0
LINE
  5
1E2
330
74
100
AcDbEntity
  8
Layer 1
100
AcDbLine
 10
77.730979
 20
211.035326
 30
0.0
 11
78.08757800000001
 21
211.74015
 31
0.0
  0
LINE
  5
1E3
330
74
100
AcDbEntity
  8
Layer 1
100
AcDbLine
 10
78.08757800000001
 20
211.74015
 30
0.0
 11
78.555531
 21
212.44271
 31
0.0
  0
LINE
  5
1E4
330
74
100
AcDbEntity
  8
Layer 1
100
AcDbLine
 10
78.555531
 20
212.44271
 30
0.0
 11
79.428134
 21
213.301192
 31
0.0
  0
LINE
  5
1E5
330
74
100
AcDbEntity
  8
Layer 1
100
AcDbLine
 10
79.428134
 20
213.301192
 30
0.0
 11
80.36173899999999
 21
214.250436
 31
0.0
  0
LINE
  5
1E6
330
74
100
AcDbEntity
  8
Layer 1
100
AcDbLine
 10
80.36173899999999
 20
214.250436
 30
0.0
 11
80.58348100000001
 21
215.144456
 31
0.0
  0
LINE
  5
1E7
330
74
100
AcDbEntity
  8
Layer 1
100
AcDbLine
 10
80.58348100000001
 20
215.144456
 30
0.0
 11
80.516205
 21
215.65958
 31
0.0
  0
LINE
  5
1E8
330
74
100
AcDbEntity
  8
Layer 1
100
AcDbLine
 10
80.516205
 20
215.65958
 30
0.0
 11
80.25929299999999
 21
216.18643
 31
0.0
  0
LINE
  5
1E9
330
74
100
AcDbEntity
  8
Layer 1
100
AcDbLine
 10
80.25929299999999
 20
216.18643
 30
0.0
 11
78.846051
 21
217.77265
 31
0.0
  0
LINE
  5
1EA
330
74
100
AcDbEntity
  8
Layer 1
100
AcDbLine
 10
78.846051
 20
217.77265
 30
0.0
 11
76.55299499999999
 21
220.136261
 31
0.0
  0
LINE
  5
1EB
330
74
100
AcDbEntity
  8
Layer 1
100
AcDbLine
 10
76.55299499999999
 20
220.136261
 30
0.0
 11
74.870007
 21
221.526022
 31
0.0
  0
LINE
  5
1EC
330
74
100
AcDbEntity
  8
Layer 1
100
AcDbLine
 10
74.870007
 20
221.526022
 30
0.0
 11
73.993076
 21
222.058059
 31
0.0
  0
LINE
  5
1ED
330
74
100
AcDbEntity
  8
Layer 1
100
AcDbLine
 10
73.993076
 20
222.058059
 30
0.0
 11
73.404453
 21
222.270567
 31
0.0
  0
LINE
  5
1EE
330
74
100
AcDbEntity
  8
Layer 1
100
AcDbLine
 10
73.404453
 20
222.270567
 30
0.0
 11
73.404453
 21
222.270567
 31
0.0
  0
LINE
  5
1EF
330
74
100
AcDbEntity
  8
Layer 1
100
AcDbLine
 10
93.04535600000001
 20
214.950428
 30
0.0
 11
92.11049499999999
 21
214.791678
 31
0.0
  0
LINE
  5
1F0
330
74
100
AcDbEntity
  8
Layer 1
100
AcDbLine
 10
92.11049499999999
 20
214.791678
 30
0.0
 11
91.14794300000001
 21
214.530777
 31
0.0
  0
LINE
  5
1F1
330
74
100
AcDbEntity
  8
Layer 1
100
AcDbLine
 10
91.14794300000001
 20
214.530777
 30
0.0
 11
90.13290600000001
 21
214.094195
 31
0.0
  0
LINE
  5
1F2
330
74
100
AcDbEntity
  8
Layer 1
100
AcDbLine
 10
90.13290600000001
 20
214.094195
 30
0.0
 11
89.17621199999999
 21
213.538923
 31
0.0
  0
LINE
  5
1F3
330
74
100
AcDbEntity
  8
Layer 1
100
AcDbLine
 10
89.17621199999999
 20
213.538923
 30
0.0
 11
88.38869
 21
212.921956
 31
0.0
  0
LINE
  5
1F4
330
74
100
AcDbEntity
  8
Layer 1
100
AcDbLine
 10
88.38869
 20
212.921956
 30
0.0
 11
87.881724
 21
212.353062
 31
0.0
  0
LINE
  5
1F5
330
74
100
AcDbEntity
  8
Layer 1
100
AcDbLine
 10
87.881724
 20
212.353062
 30
0.0
 11
87.500303
 21
211.699409
 31
0.0
  0
LINE
  5
1F6
330
74
100
AcDbEntity
  8
Layer 1
100
AcDbLine
 10
87.500303
 20
211.699409
 30
0.0
 11
87.004037
 21
209.896886
 31
0.0
  0
LINE
  5
1F7
330
74
100
AcDbEntity
  8
Layer 1
100
AcDbLine
 10
87.004037
 20
209.896886
 30
0.0
 11
86.508812
 21
208.734212
 31
0.0
  0
LINE
  5
1F8
330
74
100
AcDbEntity
  8
Layer 1
100
AcDbLine
 10
86.508812
 20
208.734212
 30
0.0
 11
85.187231
 21
207.14522
 31
0.0
  0
LINE
  5
1F9
330
74
100
AcDbEntity
  8
Layer 1
100
AcDbLine
 10
85.187231
 20
207.14522
 30
0.0
 11
82.850078
 21
204.2789
 31
0.0
  0
LINE
  5
1FA
330
74
100
AcDbEntity
  8
Layer 1
100
AcDbLine
 10
82.850078
 20
204.2789
 30
0.0
 11
82.231912
 21
203.479612
 31
0.0
  0
LINE
  5
1FB
330
74
100
AcDbEntity
  8
Layer 1
100
AcDbLine
 10
82.231912
 20
203.479612
 30
0.0
 11
81.517063
 21
202.880505
 31
0.0
  0
LINE
  5
1FC
330
74
100
AcDbEntity
  8
Layer 1
100
AcDbLine
 10
81.517063
 20
202.880505
 30
0.0
 11
80.741118
 21
202.504346
 31
0.0
  0
LINE
  5
1FD
330
74
100
AcDbEntity
  8
Layer 1
100
AcDbLine
 10
80.741118
 20
202.504346
 30
0.0
 11
79.939662
 21
202.3739
 31
0.0
  0
LINE
  5
1FE
330
74
100
AcDbEntity
  8
Layer 1
100
AcDbLine
 10
79.939662
 20
202.3739
 30
0.0
 11
79.47126899999999
 21
202.30001
 31
0.0
  0
LINE
  5
1FF
330
74
100
AcDbEntity
  8
Layer 1
100
AcDbLine
 10
79.47126899999999
 20
202.30001
 30
0.0
 11
79.278203
 21
202.118136
 31
0.0
  0
LINE
  5
200
330
74
100
AcDbEntity
  8
Layer 1
100
AcDbLine
 10
79.278203
 20
202.118136
 30
0.0
 11
79.420191
 21
201.931852
 31
0.0
  0
LINE
  5
201
330
74
100
AcDbEntity
  8
Layer 1
100
AcDbLine
 10
79.420191
 20
201.931852
 30
0.0
 11
79.763273
 21
201.853553
 31
0.0
  0
LINE
  5
202
330
74
100
AcDbEntity
  8
Layer 1
100
AcDbLine
 10
79.763273
 20
201.853553
 30
0.0
 11
82.991451
 21
200.982698
 31
0.0
  0
LINE
  5
203
330
74
100
AcDbEntity
  8
Layer 1
100
AcDbLine
 10
82.991451
 20
200.982698
 30
0.0
 11
87.524384
 21
199.348831
 31
0.0
  0
LINE
  5
204
330
74
100
AcDbEntity
  8
Layer 1
100
AcDbLine
 10
87.524384
 20
199.348831
 30
0.0
 11
92.50378000000001
 21
197.000286
 31
0.0
  0
LINE
  5
205
330
74
100
AcDbEntity
  8
Layer 1
100
AcDbLine
 10
92.50378000000001
 20
197.000286
 30
0.0
 11
98.019691
 21
193.935553
 31
0.0
  0
LINE
  5
206
330
74
100
AcDbEntity
  8
Layer 1
100
AcDbLine
 10
98.019691
 20
193.935553
 30
0.0
 11
103.573001
 21
190.450966
 31
0.0
  0
LINE
  5
207
330
74
100
AcDbEntity
  8
Layer 1
100
AcDbLine
 10
103.573001
 20
190.450966
 30
0.0
 11
108.664592
 21
186.842859
 31
0.0
  0
LINE
  5
208
330
74
100
AcDbEntity
  8
Layer 1
100
AcDbLine
 10
108.664592
 20
186.842859
 30
0.0
 11
112.04244
 21
184.364595
 31
0.0
  0
LINE
  5
209
330
74
100
AcDbEntity
  8
Layer 1
100
AcDbLine
 10
112.04244
 20
184.364595
 30
0.0
 11
113.427092
 21
183.526747
 31
0.0
  0
LINE
  5
20A
330
74
100
AcDbEntity
  8
Layer 1
100
AcDbLine
 10
113.427092
 20
183.526747
 30
0.0
 11
113.915489
 21
184.400641
 31
0.0
  0
LINE
  5
20B
330
74
100
AcDbEntity
  8
Layer 1
100
AcDbLine
 10
113.915489
 20
184.400641
 30
0.0
 11
114.603274
 21
186.577384
 31
0.0
  0
LINE
  5
20C
330
74
100
AcDbEntity
  8
Layer 1
100
AcDbLine
 10
114.603274
 20
186.577384
 30
0.0
 11
115.304896
 21
189.389573
 31
0.0
  0
LINE
  5
20D
330
74
100
AcDbEntity
  8
Layer 1
100
AcDbLine
 10
115.304896
 20
189.389573
 30
0.0
 11
115.834801
 21
192.169803
 31
0.0
  0
LINE
  5
20E
330
74
100
AcDbEntity
  8
Layer 1
100
AcDbLine
 10
115.834801
 20
192.169803
 30
0.0
 11
116.135207
 21
195.376677
 31
0.0
  0
LINE
  5
20F
330
74
100
AcDbEntity
  8
Layer 1
100
AcDbLine
 10
116.135207
 20
195.376677
 30
0.0
 11
116.139457
 21
198.706755
 31
0.0
  0
LINE
  5
210
330
74
100
AcDbEntity
  8
Layer 1
100
AcDbLine
 10
116.139457
 20
198.706755
 30
0.0
 11
115.863497
 21
201.777994
 31
0.0
  0
LINE
  5
211
330
74
100
AcDbEntity
  8
Layer 1
100
AcDbLine
 10
115.863497
 20
201.777994
 30
0.0
 11
115.323273
 21
204.208345
 31
0.0
  0
LINE
  5
212
330
74
100
AcDbEntity
  8
Layer 1
100
AcDbLine
 10
115.323273
 20
204.208345
 30
0.0
 11
114.573685
 21
206.189372
 31
0.0
  0
LINE
  5
213
330
74
100
AcDbEntity
  8
Layer 1
100
AcDbLine
 10
114.573685
 20
206.189372
 30
0.0
 11
113.758478
 21
207.641864
 31
0.0
  0
LINE
  5
214
330
74
100
AcDbEntity
  8
Layer 1
100
AcDbLine
 10
113.758478
 20
207.641864
 30
0.0
 11
112.658515
 21
208.872492
 31
0.0
  0
LINE
  5
215
330
74
100
AcDbEntity
  8
Layer 1
100
AcDbLine
 10
112.658515
 20
208.872492
 30
0.0
 11
111.054662
 21
210.187928
 31
0.0
  0
LINE
  5
216
330
74
100
AcDbEntity
  8
Layer 1
100
AcDbLine
 10
111.054662
 20
210.187928
 30
0.0
 11
109.16186
 21
211.796968
 31
0.0
  0
LINE
  5
217
330
74
100
AcDbEntity
  8
Layer 1
100
AcDbLine
 10
109.16186
 20
211.796968
 30
0.0
 11
107.90612
 21
213.17772
 31
0.0
  0
LINE
  5
218
330
74
100
AcDbEntity
  8
Layer 1
100
AcDbLine
 10
107.90612
 20
213.17772
 30
0.0
 11
107.189234
 21
214.11185
 31
0.0
  0
LINE
  5
219
330
74
100
AcDbEntity
  8
Layer 1
100
AcDbLine
 10
107.189234
 20
214.11185
 30
0.0
 11
107.034347
 21
214.097849
 31
0.0
  0
LINE
  5
21A
330
74
100
AcDbEntity
  8
Layer 1
100
AcDbLine
 10
107.034347
 20
214.097849
 30
0.0
 11
106.927162
 21
213.821539
 31
0.0
  0
LINE
  5
21B
330
74
100
AcDbEntity
  8
Layer 1
100
AcDbLine
 10
106.927162
 20
213.821539
 30
0.0
 11
106.768412
 21
212.525081
 31
0.0
  0
LINE
  5
21C
330
74
100
AcDbEntity
  8
Layer 1
100
AcDbLine
 10
106.768412
 20
212.525081
 30
0.0
 11
106.503828
 21
210.690636
 31
0.0
  0
LINE
  5
21D
330
74
100
AcDbEntity
  8
Layer 1
100
AcDbLine
 10
106.503828
 20
210.690636
 30
0.0
 11
105.833551
 21
207.61265
 31
0.0
  0
LINE
  5
21E
330
74
100
AcDbEntity
  8
Layer 1
100
AcDbLine
 10
105.833551
 20
207.61265
 30
0.0
 11
105.152813
 21
204.749286
 31
0.0
  0
LINE
  5
21F
330
74
100
AcDbEntity
  8
Layer 1
100
AcDbLine
 10
105.152813
 20
204.749286
 30
0.0
 11
104.48809
 21
202.665022
 31
0.0
  0
LINE
  5
220
330
74
100
AcDbEntity
  8
Layer 1
100
AcDbLine
 10
104.48809
 20
202.665022
 30
0.0
 11
103.755264
 21
201.140752
 31
0.0
  0
LINE
  5
221
330
74
100
AcDbEntity
  8
Layer 1
100
AcDbLine
 10
103.755264
 20
201.140752
 30
0.0
 11
102.870217
 21
199.957372
 31
0.0
  0
LINE
  5
222
330
74
100
AcDbEntity
  8
Layer 1
100
AcDbLine
 10
102.870217
 20
199.957372
 30
0.0
 11
102.347838
 21
199.47832
 31
0.0
  0
LINE
  5
223
330
74
100
AcDbEntity
  8
Layer 1
100
AcDbLine
 10
102.347838
 20
199.47832
 30
0.0
 11
101.880095
 21
199.241357
 31
0.0
  0
LINE
  5
224
330
74
100
AcDbEntity
  8
Layer 1
100
AcDbLine
 10
101.880095
 20
199.241357
 30
0.0
 11
101.471616
 21
199.2414379999999
 31
0.0
  0
LINE
  5
225
330
74
100
AcDbEntity
  8
Layer 1
100
AcDbLine
 10
101.471616
 20
199.2414379999999
 30
0.0
 11
101.127029
 21
199.473514
 31
0.0
  0
LINE
  5
226
330
74
100
AcDbEntity
  8
Layer 1
100
AcDbLine
 10
101.127029
 20
199.473514
 30
0.0
 11
100.850962
 21
199.93254
 31
0.0
  0
LINE
  5
227
330
74
100
AcDbEntity
  8
Layer 1
100
AcDbLine
 10
100.850962
 20
199.93254
 30
0.0
 11
100.64804
 21
200.613469
 31
0.0
  0
LINE
  5
228
330
74
100
AcDbEntity
  8
Layer 1
100
AcDbLine
 10
100.64804
 20
200.613469
 30
0.0
 11
100.480148
 21
202.620845
 31
0.0
  0
LINE
  5
229
330
74
100
AcDbEntity
  8
Layer 1
100
AcDbLine
 10
100.480148
 20
202.620845
 30
0.0
 11
100.448917
 21
203.614141
 31
0.0
  0
LINE
  5
22A
330
74
100
AcDbEntity
  8
Layer 1
100
AcDbLine
 10
100.448917
 20
203.614141
 30
0.0
 11
100.304262
 21
204.381037
 31
0.0
  0
LINE
  5
22B
330
74
100
AcDbEntity
  8
Layer 1
100
AcDbLine
 10
100.304262
 20
204.381037
 30
0.0
 11
99.36889800000001
 21
206.210359
 31
0.0
  0
LINE
  5
22C
330
74
100
AcDbEntity
  8
Layer 1
100
AcDbLine
 10
99.36889800000001
 20
206.210359
 30
0.0
 11
95.64709200000001
 21
211.493206
 31
0.0
  0
LINE
  5
22D
330
74
100
AcDbEntity
  8
Layer 1
100
AcDbLine
 10
95.64709200000001
 20
211.493206
 30
0.0
 11
93.04535600000001
 21
214.950428
 31
0.0
  0
LINE
  5
22E
330
74
100
AcDbEntity
  8
Layer 1
100
AcDbLine
 10
93.04535600000001
 20
214.950428
 30
0.0
 11
93.04535600000001
 21
214.950428
 31
0.0
  0
LINE
  5
22F
330
74
100
AcDbEntity
  8
Layer 1
100
AcDbLine
 10
92.427995
 20
212.789664
 30
0.0
 11
92.61450999999999
 21
212.673293
 31
0.0
  0
LINE
  5
230
330
74
100
AcDbEntity
  8
Layer 1
100
AcDbLine
 10
92.61450999999999
 20
212.673293
 30
0.0
 11
92.768277
 21
212.287352
 31
0.0
  0
LINE
  5
231
330
74
100
AcDbEntity
  8
Layer 1
100
AcDbLine
 10
92.768277
 20
212.287352
 30
0.0
 11
93.06299499999999
 21
210.408414
 31
0.0
  0
LINE
  5
232
330
74
100
AcDbEntity
  8
Layer 1
100
AcDbLine
 10
93.06299499999999
 20
210.408414
 30
0.0
 11
93.47232899999999
 21
208.120264
 31
0.0
  0
LINE
  5
233
330
74
100
AcDbEntity
  8
Layer 1
100
AcDbLine
 10
93.47232899999999
 20
208.120264
 30
0.0
 11
94.332995
 21
206.474942
 31
0.0
  0
LINE
  5
234
330
74
100
AcDbEntity
  8
Layer 1
100
AcDbLine
 10
94.332995
 20
206.474942
 30
0.0
 11
95.53244000000001
 21
204.993275
 31
0.0
  0
LINE
  5
235
330
74
100
AcDbEntity
  8
Layer 1
100
AcDbLine
 10
95.53244000000001
 20
204.993275
 30
0.0
 11
95.86006899999999
 21
204.786533
 31
0.0
  0
LINE
  5
236
330
74
100
AcDbEntity
  8
Layer 1
100
AcDbLine
 10
95.86006899999999
 20
204.786533
 30
0.0
 11
96.19752599999999
 21
204.300851
 31
0.0
  0
LINE
  5
237
330
74
100
AcDbEntity
  8
Layer 1
100
AcDbLine
 10
96.19752599999999
 20
204.300851
 30
0.0
 11
96.43394999999999
 21
203.738048
 31
0.0
  0
LINE
  5
238
330
74
100
AcDbEntity
  8
Layer 1
100
AcDbLine
 10
96.43394999999999
 20
203.738048
 30
0.0
 11
96.45848100000002
 21
203.299942
 31
0.0
  0
LINE
  5
239
330
74
100
AcDbEntity
  8
Layer 1
100
AcDbLine
 10
96.45848100000002
 20
203.299942
 30
0.0
 11
96.263035
 21
203.020098
 31
0.0
  0
LINE
  5
23A
330
74
100
AcDbEntity
  8
Layer 1
100
AcDbLine
 10
96.263035
 20
203.020098
 30
0.0
 11
96.00869000000001
 21
202.903067
 31
0.0
  0
LINE
  5
23B
330
74
100
AcDbEntity
  8
Layer 1
100
AcDbLine
 10
96.00869000000001
 20
202.903067
 30
0.0
 11
95.26312800000001
 21
203.412209
 31
0.0
  0
LINE
  5
23C
330
74
100
AcDbEntity
  8
Layer 1
100
AcDbLine
 10
95.26312800000001
 20
203.412209
 30
0.0
 11
94.022325
 21
204.606943
 31
0.0
  0
LINE
  5
23D
330
74
100
AcDbEntity
  8
Layer 1
100
AcDbLine
 10
94.022325
 20
204.606943
 30
0.0
 11
92.769288
 21
205.988229
 31
0.0
  0
LINE
  5
23E
330
74
100
AcDbEntity
  8
Layer 1
100
AcDbLine
 10
92.769288
 20
205.988229
 30
0.0
 11
91.98702299999998
 21
207.057025
 31
0.0
  0
LINE
  5
23F
330
74
100
AcDbEntity
  8
Layer 1
100
AcDbLine
 10
91.98702299999998
 20
207.057025
 30
0.0
 11
91.502662
 21
208.686808
 31
0.0
  0
LINE
  5
240
330
74
100
AcDbEntity
  8
Layer 1
100
AcDbLine
 10
91.502662
 20
208.686808
 30
0.0
 11
91.429197
 21
210.524347
 31
0.0
  0
LINE
  5
241
330
74
100
AcDbEntity
  8
Layer 1
100
AcDbLine
 10
91.429197
 20
210.524347
 30
0.0
 11
91.73165899999998
 21
212.061385
 31
0.0
  0
LINE
  5
242
330
74
100
AcDbEntity
  8
Layer 1
100
AcDbLine
 10
91.73165899999998
 20
212.061385
 30
0.0
 11
92.012934
 21
212.558385
 31
0.0
  0
LINE
  5
243
330
74
100
AcDbEntity
  8
Layer 1
100
AcDbLine
 10
92.012934
 20
212.558385
 30
0.0
 11
92.37507800000001
 21
212.789664
 31
0.0
  0
LINE
  5
244
330
74
100
AcDbEntity
  8
Layer 1
100
AcDbLine
 10
92.37507800000001
 20
212.789664
 30
0.0
 11
92.427995
 21
212.789664
 31
0.0
  0
LINE
  5
245
330
74
100
AcDbEntity
  8
Layer 1
100
AcDbLine
 10
92.427995
 20
212.789664
 30
0.0
 11
92.427995
 21
212.789664
 31
0.0
  0
LINE
  5
246
330
74
100
AcDbEntity
  8
Layer 1
100
AcDbLine
 10
76.852856
 20
207.515636
 30
0.0
 11
76.19139799999999
 21
207.206956
 31
0.0
  0
LINE
  5
247
330
74
100
AcDbEntity
  8
Layer 1
100
AcDbLine
 10
76.19139799999999
 20
207.206956
 30
0.0
 11
73.52110500000001
 21
205.124888
 31
0.0
  0
LINE
  5
248
330
74
100
AcDbEntity
  8
Layer 1
100
AcDbLine
 10
73.52110500000001
 20
205.124888
 30
0.0
 11
71.68466200000001
 21
203.423414
 31
0.0
  0
LINE
  5
249
330
74
100
AcDbEntity
  8
Layer 1
100
AcDbLine
 10
71.68466200000001
 20
203.423414
 30
0.0
 11
72.393489
 21
203.194954
 31
0.0
  0
LINE
  5
24A
330
74
100
AcDbEntity
  8
Layer 1
100
AcDbLine
 10
72.393489
 20
203.194954
 30
0.0
 11
74.10119
 21
202.911886
 31
0.0
  0
LINE
  5
24B
330
74
100
AcDbEntity
  8
Layer 1
100
AcDbLine
 10
74.10119
 20
202.911886
 30
0.0
 11
77.50549499999999
 21
202.38272
 31
0.0
  0
LINE
  5
24C
330
74
100
AcDbEntity
  8
Layer 1
100
AcDbLine
 10
77.50549499999999
 20
202.38272
 30
0.0
 11
78.493273
 21
202.268067
 31
0.0
  0
LINE
  5
24D
330
74
100
AcDbEntity
  8
Layer 1
100
AcDbLine
 10
78.493273
 20
202.268067
 30
0.0
 11
77.964106
 21
203.220567
 31
0.0
  0
LINE
  5
24E
330
74
100
AcDbEntity
  8
Layer 1
100
AcDbLine
 10
77.964106
 20
203.220567
 30
0.0
 11
77.59099499999999
 21
204.147905
 31
0.0
  0
LINE
  5
24F
330
74
100
AcDbEntity
  8
Layer 1
100
AcDbLine
 10
77.59099499999999
 20
204.147905
 30
0.0
 11
77.443759
 21
205.178484
 31
0.0
  0
LINE
  5
250
330
74
100
AcDbEntity
  8
Layer 1
100
AcDbLine
 10
77.443759
 20
205.178484
 30
0.0
 11
77.17917599999999
 21
206.968831
 31
0.0
  0
LINE
  5
251
330
74
100
AcDbEntity
  8
Layer 1
100
AcDbLine
 10
77.17917599999999
 20
206.968831
 30
0.0
 11
76.852856
 21
207.515636
 31
0.0
  0
LINE
  5
252
330
74
100
AcDbEntity
  8
Layer 1
100
AcDbLine
 10
76.852856
 20
207.515636
 30
0.0
 11
76.852856
 21
207.515636
 31
0.0
  0
LINE
  5
253
330
74
100
AcDbEntity
  8
Layer 1
100
AcDbLine
 10
97.878412
 20
201.835914
 30
0.0
 11
98.38112
 21
201.368484
 31
0.0
  0
LINE
  5
254
330
74
100
AcDbEntity
  8
Layer 1
100
AcDbLine
 10
98.38112
 20
201.368484
 30
0.0
 11
98.75365399999999
 21
200.688285
 31
0.0
  0
LINE
  5
255
330
74
100
AcDbEntity
  8
Layer 1
100
AcDbLine
 10
98.75365399999999
 20
200.688285
 30
0.0
 11
98.91028699999999
 21
199.922095
 31
0.0
  0
LINE
  5
256
330
74
100
AcDbEntity
  8
Layer 1
100
AcDbLine
 10
98.91028699999999
 20
199.922095
 30
0.0
 11
99.03920200000001
 21
199.239178
 31
0.0
  0
LINE
  5
257
330
74
100
AcDbEntity
  8
Layer 1
100
AcDbLine
 10
99.03920200000001
 20
199.239178
 30
0.0
 11
99.42089500000001
 21
198.3926699999999
 31
0.0
  0
LINE
  5
258
330
74
100
AcDbEntity
  8
Layer 1
100
AcDbLine
 10
99.42089500000001
 20
198.3926699999999
 30
0.0
 11
100.912301
 21
196.270845
 31
0.0
  0
LINE
  5
259
330
74
100
AcDbEntity
  8
Layer 1
100
AcDbLine
 10
100.912301
 20
196.270845
 30
0.0
 11
101.529662
 21
195.159595
 31
0.0
  0
LINE
  5
25A
330
74
100
AcDbEntity
  8
Layer 1
100
AcDbLine
 10
101.529662
 20
195.159595
 30
0.0
 11
101.351395
 21
194.827846
 31
0.0
  0
LINE
  5
25B
330
74
100
AcDbEntity
  8
Layer 1
100
AcDbLine
 10
101.351395
 20
194.827846
 30
0.0
 11
100.876424
 21
194.835701
 31
0.0
  0
LINE
  5
25C
330
74
100
AcDbEntity
  8
Layer 1
100
AcDbLine
 10
100.876424
 20
194.835701
 30
0.0
 11
100.194496
 21
195.157638
 31
0.0
  0
LINE
  5
25D
330
74
100
AcDbEntity
  8
Layer 1
100
AcDbLine
 10
100.194496
 20
195.157638
 30
0.0
 11
99.39535600000001
 21
195.768136
 31
0.0
  0
LINE
  5
25E
330
74
100
AcDbEntity
  8
Layer 1
100
AcDbLine
 10
99.39535600000001
 20
195.768136
 30
0.0
 11
98.17190899999999
 21
197.209839
 31
0.0
  0
LINE
  5
25F
330
74
100
AcDbEntity
  8
Layer 1
100
AcDbLine
 10
98.17190899999999
 20
197.209839
 30
0.0
 11
97.38517000000001
 21
198.814788
 31
0.0
  0
LINE
  5
260
330
74
100
AcDbEntity
  8
Layer 1
100
AcDbLine
 10
97.38517000000001
 20
198.814788
 30
0.0
 11
97.12286500000001
 21
200.322957
 31
0.0
  0
LINE
  5
261
330
74
100
AcDbEntity
  8
Layer 1
100
AcDbLine
 10
97.12286500000001
 20
200.322957
 30
0.0
 11
97.21578800000001
 21
200.95949
 31
0.0
  0
LINE
  5
262
330
74
100
AcDbEntity
  8
Layer 1
100
AcDbLine
 10
97.21578800000001
 20
200.95949
 30
0.0
 11
97.472717
 21
201.474317
 31
0.0
  0
LINE
  5
263
330
74
100
AcDbEntity
  8
Layer 1
100
AcDbLine
 10
97.472717
 20
201.474317
 30
0.0
 11
97.878412
 21
201.835914
 31
0.0
  0
LINE
  5
264
330
74
100
AcDbEntity
  8
Layer 1
100
AcDbLine
 10
97.878412
 20
201.835914
 30
0.0
 11
97.878412
 21
201.835914
 31
0.0
  0
LINE
  5
265
330
74
100
AcDbEntity
  8
Layer 1
100
AcDbLine
 10
66.78986999999999
 20
195.485914
 30
0.0
 11
65.310523
 21
195.367435
 31
0.0
  0
LINE
  5
266
330
74
100
AcDbEntity
  8
Layer 1
100
AcDbLine
 10
65.310523
 20
195.367435
 30
0.0
 11
64.232231
 21
194.947928
 31
0.0
  0
LINE
  5
267
330
74
100
AcDbEntity
  8
Layer 1
100
AcDbLine
 10
64.232231
 20
194.947928
 30
0.0
 11
63.21163699999999
 21
193.502712
 31
0.0
  0
LINE
  5
268
330
74
100
AcDbEntity
  8
Layer 1
100
AcDbLine
 10
63.21163699999999
 20
193.502712
 30
0.0
 11
61.577578
 21
190.564664
 31
0.0
  0
LINE
  5
269
330
74
100
AcDbEntity
  8
Layer 1
100
AcDbLine
 10
61.577578
 20
190.564664
 30
0.0
 11
58.032162
 21
184.311678
 31
0.0
  0
LINE
  5
26A
330
74
100
AcDbEntity
  8
Layer 1
100
AcDbLine
 10
58.032162
 20
184.311678
 30
0.0
 11
56.6135
 21
182.41671
 31
0.0
  0
LINE
  5
26B
330
74
100
AcDbEntity
  8
Layer 1
100
AcDbLine
 10
56.6135
 20
182.41671
 30
0.0
 11
54.93977499999999
 21
180.58343
 31
0.0
  0
LINE
  5
26C
330
74
100
AcDbEntity
  8
Layer 1
100
AcDbLine
 10
54.93977499999999
 20
180.58343
 30
0.0
 11
53.207104
 21
179.00693
 31
0.0
  0
LINE
  5
26D
330
74
100
AcDbEntity
  8
Layer 1
100
AcDbLine
 10
53.207104
 20
179.00693
 30
0.0
 11
51.611606
 21
177.882303
 31
0.0
  0
LINE
  5
26E
330
74
100
AcDbEntity
  8
Layer 1
100
AcDbLine
 10
51.611606
 20
177.882303
 30
0.0
 11
49.85209799999999
 21
176.70074
 31
0.0
  0
LINE
  5
26F
330
74
100
AcDbEntity
  8
Layer 1
100
AcDbLine
 10
49.85209799999999
 20
176.70074
 30
0.0
 11
49.348579
 21
176.212698
 31
0.0
  0
LINE
  5
270
330
74
100
AcDbEntity
  8
Layer 1
100
AcDbLine
 10
49.348579
 20
176.212698
 30
0.0
 11
49.16862
 21
175.853831
 31
0.0
  0
LINE
  5
271
330
74
100
AcDbEntity
  8
Layer 1
100
AcDbLine
 10
49.16862
 20
175.853831
 30
0.0
 11
48.092648
 21
173.8959139999999
 31
0.0
  0
LINE
  5
272
330
74
100
AcDbEntity
  8
Layer 1
100
AcDbLine
 10
48.092648
 20
173.8959139999999
 30
0.0
 11
46.514911
 21
171.115157
 31
0.0
  0
LINE
  5
273
330
74
100
AcDbEntity
  8
Layer 1
100
AcDbLine
 10
46.514911
 20
171.115157
 30
0.0
 11
45.66622299999999
 21
168.875825
 31
0.0
  0
LINE
  5
274
330
74
100
AcDbEntity
  8
Layer 1
100
AcDbLine
 10
45.66622299999999
 20
168.875825
 30
0.0
 11
45.50672099999999
 21
167.923264
 31
0.0
  0
LINE
  5
275
330
74
100
AcDbEntity
  8
Layer 1
100
AcDbLine
 10
45.50672099999999
 20
167.923264
 30
0.0
 11
45.51922
 21
167.062944
 31
0.0
  0
LINE
  5
276
330
74
100
AcDbEntity
  8
Layer 1
100
AcDbLine
 10
45.51922
 20
167.062944
 30
0.0
 11
45.700299
 21
166.280493
 31
0.0
  0
LINE
  5
277
330
74
100
AcDbEntity
  8
Layer 1
100
AcDbLine
 10
45.700299
 20
166.280493
 30
0.0
 11
46.046537
 21
165.561539
 31
0.0
  0
LINE
  5
278
330
74
100
AcDbEntity
  8
Layer 1
100
AcDbLine
 10
46.046537
 20
165.561539
 30
0.0
 11
46.752092
 21
164.679595
 31
0.0
  0
LINE
  5
279
330
74
100
AcDbEntity
  8
Layer 1
100
AcDbLine
 10
46.752092
 20
164.679595
 30
0.0
 11
47.59875899999999
 21
165.508622
 31
0.0
  0
LINE
  5
27A
330
74
100
AcDbEntity
  8
Layer 1
100
AcDbLine
 10
47.59875899999999
 20
165.508622
 30
0.0
 11
48.238712
 21
166.112234
 31
0.0
  0
LINE
  5
27B
330
74
100
AcDbEntity
  8
Layer 1
100
AcDbLine
 10
48.238712
 20
166.112234
 30
0.0
 11
48.65717599999999
 21
166.129281
 31
0.0
  0
LINE
  5
27C
330
74
100
AcDbEntity
  8
Layer 1
100
AcDbLine
 10
48.65717599999999
 20
166.129281
 30
0.0
 11
48.85070200000001
 21
165.562597
 31
0.0
  0
LINE
  5
27D
330
74
100
AcDbEntity
  8
Layer 1
100
AcDbLine
 10
48.85070200000001
 20
165.562597
 30
0.0
 11
48.81584199999999
 21
164.415011
 31
0.0
  0
LINE
  5
27E
330
74
100
AcDbEntity
  8
Layer 1
100
AcDbLine
 10
48.81584199999999
 20
164.415011
 30
0.0
 11
48.392509
 21
161.769178
 31
0.0
  0
LINE
  5
27F
330
74
100
AcDbEntity
  8
Layer 1
100
AcDbLine
 10
48.392509
 20
161.769178
 30
0.0
 11
46.628424
 21
154.549135
 31
0.0
  0
LINE
  5
280
330
74
100
AcDbEntity
  8
Layer 1
100
AcDbLine
 10
46.628424
 20
154.549135
 30
0.0
 11
45.113991
 21
149.014942
 31
0.0
  0
LINE
  5
281
330
74
100
AcDbEntity
  8
Layer 1
100
AcDbLine
 10
45.113991
 20
149.014942
 30
0.0
 11
43.631473
 21
144.433908
 31
0.0
  0
LINE
  5
282
330
74
100
AcDbEntity
  8
Layer 1
100
AcDbLine
 10
43.631473
 20
144.433908
 30
0.0
 11
41.963134
 21
140.073345
 31
0.0
  0
LINE
  5
283
330
74
100
AcDbEntity
  8
Layer 1
100
AcDbLine
 10
41.963134
 20
140.073345
 30
0.0
 11
39.68055
 21
134.972142
 31
0.0
  0
LINE
  5
284
330
74
100
AcDbEntity
  8
Layer 1
100
AcDbLine
 10
39.68055
 20
134.972142
 30
0.0
 11
37.456398
 21
130.371956
 31
0.0
  0
LINE
  5
285
330
74
100
AcDbEntity
  8
Layer 1
100
AcDbLine
 10
37.456398
 20
130.371956
 30
0.0
 11
37.978896
 21
130.108298
 31
0.0
  0
LINE
  5
286
330
74
100
AcDbEntity
  8
Layer 1
100
AcDbLine
 10
37.978896
 20
130.108298
 30
0.0
 11
39.270518
 21
129.776601
 31
0.0
  0
LINE
  5
287
330
74
100
AcDbEntity
  8
Layer 1
100
AcDbLine
 10
39.270518
 20
129.776601
 30
0.0
 11
40.625219
 21
129.530914
 31
0.0
  0
LINE
  5
288
330
74
100
AcDbEntity
  8
Layer 1
100
AcDbLine
 10
40.625219
 20
129.530914
 30
0.0
 11
41.336953
 21
129.525289
 31
0.0
  0
LINE
  5
289
330
74
100
AcDbEntity
  8
Layer 1
100
AcDbLine
 10
41.336953
 20
129.525289
 30
0.0
 11
44.070981
 21
134.314247
 31
0.0
  0
LINE
  5
28A
330
74
100
AcDbEntity
  8
Layer 1
100
AcDbLine
 10
44.070981
 20
134.314247
 30
0.0
 11
48.583801
 21
142.194008
 31
0.0
  0
LINE
  5
28B
330
74
100
AcDbEntity
  8
Layer 1
100
AcDbLine
 10
48.583801
 20
142.194008
 30
0.0
 11
51.382301
 21
146.5027199999999
 31
0.0
  0
LINE
  5
28C
330
74
100
AcDbEntity
  8
Layer 1
100
AcDbLine
 10
51.382301
 20
146.5027199999999
 30
0.0
 11
56.325769
 21
152.632951
 31
0.0
  0
LINE
  5
28D
330
74
100
AcDbEntity
  8
Layer 1
100
AcDbLine
 10
56.325769
 20
152.632951
 30
0.0
 11
59.53146700000001
 21
156.283484
 31
0.0
  0
LINE
  5
28E
330
74
100
AcDbEntity
  8
Layer 1
100
AcDbLine
 10
59.53146700000001
 20
156.283484
 30
0.0
 11
60.298763
 21
156.831214
 31
0.0
  0
LINE
  5
28F
330
74
100
AcDbEntity
  8
Layer 1
100
AcDbLine
 10
60.298763
 20
156.831214
 30
0.0
 11
60.77224499999999
 21
156.905729
 31
0.0
  0
LINE
  5
290
330
74
100
AcDbEntity
  8
Layer 1
100
AcDbLine
 10
60.77224499999999
 20
156.905729
 30
0.0
 11
60.96826
 21
156.576406
 31
0.0
  0
LINE
  5
291
330
74
100
AcDbEntity
  8
Layer 1
100
AcDbLine
 10
60.96826
 20
156.576406
 30
0.0
 11
60.903154
 21
155.912625
 31
0.0
  0
LINE
  5
292
330
74
100
AcDbEntity
  8
Layer 1
100
AcDbLine
 10
60.903154
 20
155.912625
 30
0.0
 11
60.054974
 21
153.859204
 31
0.0
  0
LINE
  5
293
330
74
100
AcDbEntity
  8
Layer 1
100
AcDbLine
 10
60.054974
 20
153.859204
 30
0.0
 11
58.358481
 21
151.300497
 31
0.0
  0
LINE
  5
294
330
74
100
AcDbEntity
  8
Layer 1
100
AcDbLine
 10
58.358481
 20
151.300497
 30
0.0
 11
54.76565799999999
 21
146.244529
 31
0.0
  0
LINE
  5
295
330
74
100
AcDbEntity
  8
Layer 1
100
AcDbLine
 10
54.76565799999999
 20
146.244529
 30
0.0
 11
50.738481
 21
139.694109
 31
0.0
  0
LINE
  5
296
330
74
100
AcDbEntity
  8
Layer 1
100
AcDbLine
 10
50.738481
 20
139.694109
 30
0.0
 11
46.35521699999999
 21
132.179942
 31
0.0
  0
LINE
  5
297
330
74
100
AcDbEntity
  8
Layer 1
100
AcDbLine
 10
46.35521699999999
 20
132.179942
 30
0.0
 11
44.194453
 21
128.255289
 31
0.0
  0
LINE
  5
298
330
74
100
AcDbEntity
  8
Layer 1
100
AcDbLine
 10
44.194453
 20
128.255289
 30
0.0
 11
44.390904
 21
128.011324
 31
0.0
  0
LINE
  5
299
330
74
100
AcDbEntity
  8
Layer 1
100
AcDbLine
 10
44.390904
 20
128.011324
 30
0.0
 11
44.864731
 21
127.7614
 31
0.0
  0
LINE
  5
29A
330
74
100
AcDbEntity
  8
Layer 1
100
AcDbLine
 10
44.864731
 20
127.7614
 30
0.0
 11
51.029523
 21
124.683414
 31
0.0
  0
LINE
  5
29B
330
74
100
AcDbEntity
  8
Layer 1
100
AcDbLine
 10
51.029523
 20
124.683414
 30
0.0
 11
54.887772
 21
122.254307
 31
0.0
  0
LINE
  5
29C
330
74
100
AcDbEntity
  8
Layer 1
100
AcDbLine
 10
54.887772
 20
122.254307
 30
0.0
 11
58.85237
 21
119.435845
 31
0.0
  0
LINE
  5
29D
330
74
100
AcDbEntity
  8
Layer 1
100
AcDbLine
 10
58.85237
 20
119.435845
 30
0.0
 11
61.69954699999999
 21
116.959705
 31
0.0
  0
LINE
  5
29E
330
74
100
AcDbEntity
  8
Layer 1
100
AcDbLine
 10
61.69954699999999
 20
116.959705
 30
0.0
 11
65.281297
 21
113.492263
 31
0.0
  0
LINE
  5
29F
330
74
100
AcDbEntity
  8
Layer 1
100
AcDbLine
 10
65.281297
 20
113.492263
 30
0.0
 11
68.691292
 21
109.94288
 31
0.0
  0
LINE
  5
2A0
330
74
100
AcDbEntity
  8
Layer 1
100
AcDbLine
 10
68.691292
 20
109.94288
 30
0.0
 11
71.02320300000001
 21
107.220914
 31
0.0
  0
LINE
  5
2A1
330
74
100
AcDbEntity
  8
Layer 1
100
AcDbLine
 10
71.02320300000001
 20
107.220914
 30
0.0
 11
73.898342
 21
103.666678
 31
0.0
  0
LINE
  5
2A2
330
74
100
AcDbEntity
  8
Layer 1
100
AcDbLine
 10
73.898342
 20
103.666678
 30
0.0
 11
75.944453
 21
101.25015
 31
0.0
  0
LINE
  5
2A3
330
74
100
AcDbEntity
  8
Layer 1
100
AcDbLine
 10
75.944453
 20
101.25015
 30
0.0
 11
76.572616
 21
100.566109
 31
0.0
  0
LINE
  5
2A4
330
74
100
AcDbEntity
  8
Layer 1
100
AcDbLine
 10
76.572616
 20
100.566109
 30
0.0
 11
77.05570300000001
 21
100.280011
 31
0.0
  0
LINE
  5
2A5
330
74
100
AcDbEntity
  8
Layer 1
100
AcDbLine
 10
77.05570300000001
 20
100.280011
 30
0.0
 11
77.846362
 21
100.923732
 31
0.0
  0
LINE
  5
2A6
330
74
100
AcDbEntity
  8
Layer 1
100
AcDbLine
 10
77.846362
 20
100.923732
 30
0.0
 11
79.260786
 21
102.692734
 31
0.0
  0
LINE
  5
2A7
330
74
100
AcDbEntity
  8
Layer 1
100
AcDbLine
 10
79.260786
 20
102.692734
 30
0.0
 11
83.329374
 21
108.633638
 31
0.0
  0
LINE
  5
2A8
330
74
100
AcDbEntity
  8
Layer 1
100
AcDbLine
 10
83.329374
 20
108.633638
 30
0.0
 11
87.998367
 21
116.156825
 31
0.0
  0
LINE
  5
2A9
330
74
100
AcDbEntity
  8
Layer 1
100
AcDbLine
 10
87.998367
 20
116.156825
 30
0.0
 11
92.00466199999999
 21
123.3164
 31
0.0
  0
LINE
  5
2AA
330
74
100
AcDbEntity
  8
Layer 1
100
AcDbLine
 10
92.00466199999999
 20
123.3164
 30
0.0
 11
93.43341200000001
 21
125.935775
 31
0.0
  0
LINE
  5
2AB
330
74
100
AcDbEntity
  8
Layer 1
100
AcDbLine
 10
93.43341200000001
 20
125.935775
 30
0.0
 11
94.66475499999999
 21
128.151675
 31
0.0
  0
LINE
  5
2AC
330
74
100
AcDbEntity
  8
Layer 1
100
AcDbLine
 10
94.66475499999999
 20
128.151675
 30
0.0
 11
97.21907000000001
 21
133.317402
 31
0.0
  0
LINE
  5
2AD
330
74
100
AcDbEntity
  8
Layer 1
100
AcDbLine
 10
97.21907000000001
 20
133.317402
 30
0.0
 11
103.893273
 21
147.534595
 31
0.0
  0
LINE
  5
2AE
330
74
100
AcDbEntity
  8
Layer 1
100
AcDbLine
 10
103.893273
 20
147.534595
 30
0.0
 11
105.802591
 21
152.229004
 31
0.0
  0
LINE
  5
2AF
330
74
100
AcDbEntity
  8
Layer 1
100
AcDbLine
 10
105.802591
 20
152.229004
 30
0.0
 11
107.888481
 21
158.003275
 31
0.0
  0
LINE
  5
2B0
330
74
100
AcDbEntity
  8
Layer 1
100
AcDbLine
 10
107.888481
 20
158.003275
 30
0.0
 11
112.218828
 21
170.350497
 31
0.0
  0
LINE
  5
2B1
330
74
100
AcDbEntity
  8
Layer 1
100
AcDbLine
 10
112.218828
 20
170.350497
 30
0.0
 11
112.756815
 21
171.699872
 31
0.0
  0
LINE
  5
2B2
330
74
100
AcDbEntity
  8
Layer 1
100
AcDbLine
 10
112.756815
 20
171.699872
 30
0.0
 11
111.098759
 21
173.622511
 31
0.0
  0
LINE
  5
2B3
330
74
100
AcDbEntity
  8
Layer 1
100
AcDbLine
 10
111.098759
 20
173.622511
 30
0.0
 11
109.158593
 21
175.768756
 31
0.0
  0
LINE
  5
2B4
330
74
100
AcDbEntity
  8
Layer 1
100
AcDbLine
 10
109.158593
 20
175.768756
 30
0.0
 11
107.187515
 21
177.723744
 31
0.0
  0
LINE
  5
2B5
330
74
100
AcDbEntity
  8
Layer 1
100
AcDbLine
 10
107.187515
 20
177.723744
 30
0.0
 11
105.122534
 21
179.532891
 31
0.0
  0
LINE
  5
2B6
330
74
100
AcDbEntity
  8
Layer 1
100
AcDbLine
 10
105.122534
 20
179.532891
 30
0.0
 11
102.900662
 21
181.241613
 31
0.0
  0
LINE
  5
2B7
330
74
100
AcDbEntity
  8
Layer 1
100
AcDbLine
 10
102.900662
 20
181.241613
 30
0.0
 11
100.458908
 21
182.895326
 31
0.0
  0
LINE
  5
2B8
330
74
100
AcDbEntity
  8
Layer 1
100
AcDbLine
 10
100.458908
 20
182.895326
 30
0.0
 11
97.73428100000002
 21
184.539445
 31
0.0
  0
LINE
  5
2B9
330
74
100
AcDbEntity
  8
Layer 1
100
AcDbLine
 10
97.73428100000002
 20
184.539445
 30
0.0
 11
91.18445300000001
 21
187.980567
 31
0.0
  0
LINE
  5
2BA
330
74
100
AcDbEntity
  8
Layer 1
100
AcDbLine
 10
91.18445300000001
 20
187.980567
 30
0.0
 11
86.00449199999999
 21
190.441351
 31
0.0
  0
LINE
  5
2BB
330
74
100
AcDbEntity
  8
Layer 1
100
AcDbLine
 10
86.00449199999999
 20
190.441351
 30
0.0
 11
81.823665
 21
192.078754
 31
0.0
  0
LINE
  5
2BC
330
74
100
AcDbEntity
  8
Layer 1
100
AcDbLine
 10
81.823665
 20
192.078754
 30
0.0
 11
76.98967299999999
 21
193.441976
 31
0.0
  0
LINE
  5
2BD
330
74
100
AcDbEntity
  8
Layer 1
100
AcDbLine
 10
76.98967299999999
 20
193.441976
 30
0.0
 11
69.850217
 21
195.08022
 31
0.0
  0
LINE
  5
2BE
330
74
100
AcDbEntity
  8
Layer 1
100
AcDbLine
 10
69.850217
 20
195.08022
 30
0.0
 11
68.20792299999999
 21
195.374333
 31
0.0
  0
LINE
  5
2BF
330
74
100
AcDbEntity
  8
Layer 1
100
AcDbLine
 10
68.20792299999999
 20
195.374333
 30
0.0
 11
66.78986999999999
 21
195.485914
 31
0.0
  0
LINE
  5
2C0
330
74
100
AcDbEntity
  8
Layer 1
100
AcDbLine
 10
66.78986999999999
 20
195.485914
 30
0.0
 11
66.78986999999999
 21
195.485914
 31
0.0
  0
LINE
  5
2C1
330
74
100
AcDbEntity
  8
Layer 1
100
AcDbLine
 10
79.163551
 20
190.009039
 30
0.0
 11
79.387754
 21
189.882088
 31
0.0
  0
LINE
  5
2C2
330
74
100
AcDbEntity
  8
Layer 1
100
AcDbLine
 10
79.387754
 20
189.882088
 30
0.0
 11
79.514426
 21
189.493776
 31
0.0
  0
LINE
  5
2C3
330
74
100
AcDbEntity
  8
Layer 1
100
AcDbLine
 10
79.514426
 20
189.493776
 30
0.0
 11
79.475977
 21
188.037596
 31
0.0
  0
LINE
  5
2C4
330
74
100
AcDbEntity
  8
Layer 1
100
AcDbLine
 10
79.475977
 20
188.037596
 30
0.0
 11
79.049805
 21
185.84955
 31
0.0
  0
LINE
  5
2C5
330
74
100
AcDbEntity
  8
Layer 1
100
AcDbLine
 10
79.049805
 20
185.84955
 30
0.0
 11
78.237509
 21
183.138692
 31
0.0
  0
LINE
  5
2C6
330
74
100
AcDbEntity
  8
Layer 1
100
AcDbLine
 10
78.237509
 20
183.138692
 30
0.0
 11
77.305982
 21
180.3111409999999
 31
0.0
  0
LINE
  5
2C7
330
74
100
AcDbEntity
  8
Layer 1
100
AcDbLine
 10
77.305982
 20
180.3111409999999
 30
0.0
 11
76.87409599999999
 21
178.379229
 31
0.0
  0
LINE
  5
2C8
330
74
100
AcDbEntity
  8
Layer 1
100
AcDbLine
 10
76.87409599999999
 20
178.379229
 30
0.0
 11
76.863742
 21
176.705972
 31
0.0
  0
LINE
  5
2C9
330
74
100
AcDbEntity
  8
Layer 1
100
AcDbLine
 10
76.863742
 20
176.705972
 30
0.0
 11
77.196815
 21
174.654386
 31
0.0
  0
LINE
  5
2CA
330
74
100
AcDbEntity
  8
Layer 1
100
AcDbLine
 10
77.196815
 20
174.654386
 30
0.0
 11
77.55314399999999
 21
172.133744
 31
0.0
  0
LINE
  5
2CB
330
74
100
AcDbEntity
  8
Layer 1
100
AcDbLine
 10
77.55314399999999
 20
172.133744
 30
0.0
 11
77.75568299999999
 21
169.361294
 31
0.0
  0
LINE
  5
2CC
330
74
100
AcDbEntity
  8
Layer 1
100
AcDbLine
 10
77.75568299999999
 20
169.361294
 30
0.0
 11
77.775801
 21
167.00848
 31
0.0
  0
LINE
  5
2CD
330
74
100
AcDbEntity
  8
Layer 1
100
AcDbLine
 10
77.775801
 20
167.00848
 30
0.0
 11
77.58486999999999
 21
165.746747
 31
0.0
  0
LINE
  5
2CE
330
74
100
AcDbEntity
  8
Layer 1
100
AcDbLine
 10
77.58486999999999
 20
165.746747
 30
0.0
 11
77.260824
 21
165.62751
 31
0.0
  0
LINE
  5
2CF
330
74
100
AcDbEntity
  8
Layer 1
100
AcDbLine
 10
77.260824
 20
165.62751
 30
0.0
 11
76.784199
 21
166.080407
 31
0.0
  0
LINE
  5
2D0
330
74
100
AcDbEntity
  8
Layer 1
100
AcDbLine
 10
76.784199
 20
166.080407
 30
0.0
 11
75.34473100000001
 21
168.736539
 31
0.0
  0
LINE
  5
2D1
330
74
100
AcDbEntity
  8
Layer 1
100
AcDbLine
 10
75.34473100000001
 20
168.736539
 30
0.0
 11
74.40103499999999
 21
170.900632
 31
0.0
  0
LINE
  5
2D2
330
74
100
AcDbEntity
  8
Layer 1
100
AcDbLine
 10
74.40103499999999
 20
170.900632
 30
0.0
 11
73.82876999999999
 21
172.611495
 31
0.0
  0
LINE
  5
2D3
330
74
100
AcDbEntity
  8
Layer 1
100
AcDbLine
 10
73.82876999999999
 20
172.611495
 30
0.0
 11
73.54264499999999
 21
174.199481
 31
0.0
  0
LINE
  5
2D4
330
74
100
AcDbEntity
  8
Layer 1
100
AcDbLine
 10
73.54264499999999
 20
174.199481
 30
0.0
 11
73.45736999999999
 21
175.994942
 31
0.0
  0
LINE
  5
2D5
330
74
100
AcDbEntity
  8
Layer 1
100
AcDbLine
 10
73.45736999999999
 20
175.994942
 30
0.0
 11
73.71901700000001
 21
179.151126
 31
0.0
  0
LINE
  5
2D6
330
74
100
AcDbEntity
  8
Layer 1
100
AcDbLine
 10
73.71901700000001
 20
179.151126
 30
0.0
 11
74.580479
 21
182.312604
 31
0.0
  0
LINE
  5
2D7
330
74
100
AcDbEntity
  8
Layer 1
100
AcDbLine
 10
74.580479
 20
182.312604
 30
0.0
 11
76.09306099999999
 21
185.620337
 31
0.0
  0
LINE
  5
2D8
330
74
100
AcDbEntity
  8
Layer 1
100
AcDbLine
 10
76.09306099999999
 20
185.620337
 30
0.0
 11
78.308065
 21
189.215289
 31
0.0
  0
LINE
  5
2D9
330
74
100
AcDbEntity
  8
Layer 1
100
AcDbLine
 10
78.308065
 20
189.215289
 30
0.0
 11
78.797607
 21
189.811268
 31
0.0
  0
LINE
  5
2DA
330
74
100
AcDbEntity
  8
Layer 1
100
AcDbLine
 10
78.797607
 20
189.811268
 30
0.0
 11
79.163551
 21
190.009039
 31
0.0
  0
LINE
  5
2DB
330
74
100
AcDbEntity
  8
Layer 1
100
AcDbLine
 10
79.163551
 20
190.009039
 30
0.0
 11
79.163551
 21
190.009039
 31
0.0
  0
LINE
  5
2DC
330
74
100
AcDbEntity
  8
Layer 1
100
AcDbLine
 10
98.07244
 20
183.7384139999999
 30
0.0
 11
98.390333
 21
183.628289
 31
0.0
  0
LINE
  5
2DD
330
74
100
AcDbEntity
  8
Layer 1
100
AcDbLine
 10
98.390333
 20
183.628289
 30
0.0
 11
98.769176
 21
183.279803
 31
0.0
  0
LINE
  5
2DE
330
74
100
AcDbEntity
  8
Layer 1
100
AcDbLine
 10
98.769176
 20
183.279803
 30
0.0
 11
98.997059
 21
182.8538
 31
0.0
  0
LINE
  5
2DF
330
74
100
AcDbEntity
  8
Layer 1
100
AcDbLine
 10
98.997059
 20
182.8538
 30
0.0
 11
99.13578100000002
 21
182.216407
 31
0.0
  0
LINE
  5
2E0
330
74
100
AcDbEntity
  8
Layer 1
100
AcDbLine
 10
99.13578100000002
 20
182.216407
 30
0.0
 11
99.16108499999999
 21
180.52135
 31
0.0
  0
LINE
  5
2E1
330
74
100
AcDbEntity
  8
Layer 1
100
AcDbLine
 10
99.16108499999999
 20
180.52135
 30
0.0
 11
98.875782
 21
178.622429
 31
0.0
  0
LINE
  5
2E2
330
74
100
AcDbEntity
  8
Layer 1
100
AcDbLine
 10
98.875782
 20
178.622429
 30
0.0
 11
98.310565
 21
176.947442
 31
0.0
  0
LINE
  5
2E3
330
74
100
AcDbEntity
  8
Layer 1
100
AcDbLine
 10
98.310565
 20
176.947442
 30
0.0
 11
97.58672800000001
 21
175.743844
 31
0.0
  0
LINE
  5
2E4
330
74
100
AcDbEntity
  8
Layer 1
100
AcDbLine
 10
97.58672800000001
 20
175.743844
 30
0.0
 11
96.679141
 21
174.618191
 31
0.0
  0
LINE
  5
2E5
330
74
100
AcDbEntity
  8
Layer 1
100
AcDbLine
 10
96.679141
 20
174.618191
 30
0.0
 11
95.74280400000001
 21
173.73994
 31
0.0
  0
LINE
  5
2E6
330
74
100
AcDbEntity
  8
Layer 1
100
AcDbLine
 10
95.74280400000001
 20
173.73994
 30
0.0
 11
94.93271700000001
 21
173.278553
 31
0.0
  0
LINE
  5
2E7
330
74
100
AcDbEntity
  8
Layer 1
100
AcDbLine
 10
94.93271700000001
 20
173.278553
 30
0.0
 11
93.64361099999999
 21
173.080839
 31
0.0
  0
LINE
  5
2E8
330
74
100
AcDbEntity
  8
Layer 1
100
AcDbLine
 10
93.64361099999999
 20
173.080839
 30
0.0
 11
92.423579
 21
173.247161
 31
0.0
  0
LINE
  5
2E9
330
74
100
AcDbEntity
  8
Layer 1
100
AcDbLine
 10
92.423579
 20
173.247161
 30
0.0
 11
91.243238
 21
173.786366
 31
0.0
  0
LINE
  5
2EA
330
74
100
AcDbEntity
  8
Layer 1
100
AcDbLine
 10
91.243238
 20
173.786366
 30
0.0
 11
90.07320300000001
 21
174.707303
 31
0.0
  0
LINE
  5
2EB
330
74
100
AcDbEntity
  8
Layer 1
100
AcDbLine
 10
90.07320300000001
 20
174.707303
 30
0.0
 11
89.41539399999999
 21
175.529305
 31
0.0
  0
LINE
  5
2EC
330
74
100
AcDbEntity
  8
Layer 1
100
AcDbLine
 10
89.41539399999999
 20
175.529305
 30
0.0
 11
89.22653699999999
 21
176.382997
 31
0.0
  0
LINE
  5
2ED
330
74
100
AcDbEntity
  8
Layer 1
100
AcDbLine
 10
89.22653699999999
 20
176.382997
 30
0.0
 11
89.314236
 21
176.968243
 31
0.0
  0
LINE
  5
2EE
330
74
100
AcDbEntity
  8
Layer 1
100
AcDbLine
 10
89.314236
 20
176.968243
 30
0.0
 11
89.620621
 21
177.230013
 31
0.0
  0
LINE
  5
2EF
330
74
100
AcDbEntity
  8
Layer 1
100
AcDbLine
 10
89.620621
 20
177.230013
 30
0.0
 11
90.21062399999999
 21
177.185133
 31
0.0
  0
LINE
  5
2F0
330
74
100
AcDbEntity
  8
Layer 1
100
AcDbLine
 10
90.21062399999999
 20
177.185133
 30
0.0
 11
91.149176
 21
176.850428
 31
0.0
  0
LINE
  5
2F1
330
74
100
AcDbEntity
  8
Layer 1
100
AcDbLine
 10
91.149176
 20
176.850428
 30
0.0
 11
92.090168
 21
176.543472
 31
0.0
  0
LINE
  5
2F2
330
74
100
AcDbEntity
  8
Layer 1
100
AcDbLine
 10
92.090168
 20
176.543472
 30
0.0
 11
92.87391799999999
 21
176.507297
 31
0.0
  0
LINE
  5
2F3
330
74
100
AcDbEntity
  8
Layer 1
100
AcDbLine
 10
92.87391799999999
 20
176.507297
 30
0.0
 11
93.59125099999999
 21
176.75293
 31
0.0
  0
LINE
  5
2F4
330
74
100
AcDbEntity
  8
Layer 1
100
AcDbLine
 10
93.59125099999999
 20
176.75293
 30
0.0
 11
94.332995
 21
177.2914
 31
0.0
  0
LINE
  5
2F5
330
74
100
AcDbEntity
  8
Layer 1
100
AcDbLine
 10
94.332995
 20
177.2914
 30
0.0
 11
95.05030699999998
 21
178.055087
 31
0.0
  0
LINE
  5
2F6
330
74
100
AcDbEntity
  8
Layer 1
100
AcDbLine
 10
95.05030699999998
 20
178.055087
 30
0.0
 11
95.717929
 21
179.069314
 31
0.0
  0
LINE
  5
2F7
330
74
100
AcDbEntity
  8
Layer 1
100
AcDbLine
 10
95.717929
 20
179.069314
 30
0.0
 11
97.06702299999999
 21
182.150914
 31
0.0
  0
LINE
  5
2F8
330
74
100
AcDbEntity
  8
Layer 1
100
AcDbLine
 10
97.06702299999999
 20
182.150914
 30
0.0
 11
97.593998
 21
183.347281
 31
0.0
  0
LINE
  5
2F9
330
74
100
AcDbEntity
  8
Layer 1
100
AcDbLine
 10
97.593998
 20
183.347281
 30
0.0
 11
97.83086800000001
 21
183.637865
 31
0.0
  0
LINE
  5
2FA
330
74
100
AcDbEntity
  8
Layer 1
100
AcDbLine
 10
97.83086800000001
 20
183.637865
 30
0.0
 11
98.07244
 21
183.7384139999999
 31
0.0
  0
LINE
  5
2FB
330
74
100
AcDbEntity
  8
Layer 1
100
AcDbLine
 10
98.07244
 20
183.7384139999999
 30
0.0
 11
98.07244
 21
183.7384139999999
 31
0.0
  0
LINE
  5
2FC
330
74
100
AcDbEntity
  8
Layer 1
100
AcDbLine
 10
135.025912
 20
177.723553
 30
0.0
 11
135.131745
 21
177.7059139999999
 31
0.0
  0
LINE
  5
2FD
330
74
100
AcDbEntity
  8
Layer 1
100
AcDbLine
 10
135.131745
 20
177.7059139999999
 30
0.0
 11
135.644636
 21
177.134575
 31
0.0
  0
LINE
  5
2FE
330
74
100
AcDbEntity
  8
Layer 1
100
AcDbLine
 10
135.644636
 20
177.134575
 30
0.0
 11
136.286706
 21
175.829161
 31
0.0
  0
LINE
  5
2FF
330
74
100
AcDbEntity
  8
Layer 1
100
AcDbLine
 10
136.286706
 20
175.829161
 30
0.0
 11
136.953223
 21
174.037784
 31
0.0
  0
LINE
  5
300
330
74
100
AcDbEntity
  8
Layer 1
100
AcDbLine
 10
136.953223
 20
174.037784
 30
0.0
 11
137.539453
 21
172.008553
 31
0.0
  0
LINE
  5
301
330
74
100
AcDbEntity
  8
Layer 1
100
AcDbLine
 10
137.539453
 20
172.008553
 30
0.0
 11
138.87119
 21
166.646331
 31
0.0
  0
LINE
  5
302
330
74
100
AcDbEntity
  8
Layer 1
100
AcDbLine
 10
138.87119
 20
166.646331
 30
0.0
 11
139.948288
 21
163.188808
 31
0.0
  0
LINE
  5
303
330
74
100
AcDbEntity
  8
Layer 1
100
AcDbLine
 10
139.948288
 20
163.188808
 30
0.0
 11
140.612983
 21
161.739568
 31
0.0
  0
LINE
  5
304
330
74
100
AcDbEntity
  8
Layer 1
100
AcDbLine
 10
140.612983
 20
161.739568
 30
0.0
 11
141.402532
 21
160.416715
 31
0.0
  0
LINE
  5
305
330
74
100
AcDbEntity
  8
Layer 1
100
AcDbLine
 10
141.402532
 20
160.416715
 30
0.0
 11
142.347504
 21
159.175276
 31
0.0
  0
LINE
  5
306
330
74
100
AcDbEntity
  8
Layer 1
100
AcDbLine
 10
142.347504
 20
159.175276
 30
0.0
 11
143.478466
 21
157.970281
 31
0.0
  0
LINE
  5
307
330
74
100
AcDbEntity
  8
Layer 1
100
AcDbLine
 10
143.478466
 20
157.970281
 30
0.0
 11
146.420634
 21
155.489734
 31
0.0
  0
LINE
  5
308
330
74
100
AcDbEntity
  8
Layer 1
100
AcDbLine
 10
146.420634
 20
155.489734
 30
0.0
 11
160.029037
 21
144.782928
 31
0.0
  0
LINE
  5
309
330
74
100
AcDbEntity
  8
Layer 1
100
AcDbLine
 10
160.029037
 20
144.782928
 30
0.0
 11
172.587926
 21
134.966886
 31
0.0
  0
LINE
  5
30A
330
74
100
AcDbEntity
  8
Layer 1
100
AcDbLine
 10
172.587926
 20
134.966886
 30
0.0
 11
176.338339
 21
131.965719
 31
0.0
  0
LINE
  5
30B
330
74
100
AcDbEntity
  8
Layer 1
100
AcDbLine
 10
176.338339
 20
131.965719
 30
0.0
 11
177.703218
 21
130.583622
 31
0.0
  0
LINE
  5
30C
330
74
100
AcDbEntity
  8
Layer 1
100
AcDbLine
 10
177.703218
 20
130.583622
 30
0.0
 11
177.636065
 21
130.281855
 31
0.0
  0
LINE
  5
30D
330
74
100
AcDbEntity
  8
Layer 1
100
AcDbLine
 10
177.636065
 20
130.281855
 30
0.0
 11
177.42736
 21
130.119695
 31
0.0
  0
LINE
  5
30E
330
74
100
AcDbEntity
  8
Layer 1
100
AcDbLine
 10
177.42736
 20
130.119695
 30
0.0
 11
176.567224
 21
130.220185
 31
0.0
  0
LINE
  5
30F
330
74
100
AcDbEntity
  8
Layer 1
100
AcDbLine
 10
176.567224
 20
130.220185
 30
0.0
 11
175.08666
 21
130.897064
 31
0.0
  0
LINE
  5
310
330
74
100
AcDbEntity
  8
Layer 1
100
AcDbLine
 10
175.08666
 20
130.897064
 30
0.0
 11
172.949523
 21
132.162303
 31
0.0
  0
LINE
  5
311
330
74
100
AcDbEntity
  8
Layer 1
100
AcDbLine
 10
172.949523
 20
132.162303
 30
0.0
 11
166.185009
 21
136.360359
 31
0.0
  0
LINE
  5
312
330
74
100
AcDbEntity
  8
Layer 1
100
AcDbLine
 10
166.185009
 20
136.360359
 30
0.0
 11
160.223839
 21
140.090404
 31
0.0
  0
LINE
  5
313
330
74
100
AcDbEntity
  8
Layer 1
100
AcDbLine
 10
160.223839
 20
140.090404
 30
0.0
 11
155.936815
 21
142.974942
 31
0.0
  0
LINE
  5
314
330
74
100
AcDbEntity
  8
Layer 1
100
AcDbLine
 10
155.936815
 20
142.974942
 30
0.0
 11
150.037578
 21
147.220264
 31
0.0
  0
LINE
  5
315
330
74
100
AcDbEntity
  8
Layer 1
100
AcDbLine
 10
150.037578
 20
147.220264
 30
0.0
 11
145.463655
 21
150.712859
 31
0.0
  0
LINE
  5
316
330
74
100
AcDbEntity
  8
Layer 1
100
AcDbLine
 10
145.463655
 20
150.712859
 30
0.0
 11
142.040784
 21
153.675084
 31
0.0
  0
LINE
  5
317
330
74
100
AcDbEntity
  8
Layer 1
100
AcDbLine
 10
142.040784
 20
153.675084
 30
0.0
 11
139.594704
 21
156.329297
 31
0.0
  0
LINE
  5
318
330
74
100
AcDbEntity
  8
Layer 1
100
AcDbLine
 10
139.594704
 20
156.329297
 30
0.0
 11
138.683504
 21
157.610387
 31
0.0
  0
LINE
  5
319
330
74
100
AcDbEntity
  8
Layer 1
100
AcDbLine
 10
138.683504
 20
157.610387
 30
0.0
 11
137.951154
 21
158.897858
 31
0.0
  0
LINE
  5
31A
330
74
100
AcDbEntity
  8
Layer 1
100
AcDbLine
 10
137.951154
 20
158.897858
 30
0.0
 11
137.375871
 21
160.219505
 31
0.0
  0
LINE
  5
31B
330
74
100
AcDbEntity
  8
Layer 1
100
AcDbLine
 10
137.375871
 20
160.219505
 30
0.0
 11
136.935871
 21
161.603124
 31
0.0
  0
LINE
  5
31C
330
74
100
AcDbEntity
  8
Layer 1
100
AcDbLine
 10
136.935871
 20
161.603124
 30
0.0
 11
136.374595
 21
164.667454
 31
0.0
  0
LINE
  5
31D
330
74
100
AcDbEntity
  8
Layer 1
100
AcDbLine
 10
136.374595
 20
164.667454
 30
0.0
 11
136.093065
 21
168.313206
 31
0.0
  0
LINE
  5
31E
330
74
100
AcDbEntity
  8
Layer 1
100
AcDbLine
 10
136.093065
 20
168.313206
 30
0.0
 11
135.77301
 21
172.73374
 31
0.0
  0
LINE
  5
31F
330
74
100
AcDbEntity
  8
Layer 1
100
AcDbLine
 10
135.77301
 20
172.73374
 30
0.0
 11
135.538753
 21
173.924528
 31
0.0
  0
LINE
  5
320
330
74
100
AcDbEntity
  8
Layer 1
100
AcDbLine
 10
135.538753
 20
173.924528
 30
0.0
 11
135.184662
 21
174.954247
 31
0.0
  0
LINE
  5
321
330
74
100
AcDbEntity
  8
Layer 1
100
AcDbLine
 10
135.184662
 20
174.954247
 30
0.0
 11
134.833491
 21
176.024989
 31
0.0
  0
LINE
  5
322
330
74
100
AcDbEntity
  8
Layer 1
100
AcDbLine
 10
134.833491
 20
176.024989
 30
0.0
 11
134.688873
 21
176.905772
 31
0.0
  0
LINE
  5
323
330
74
100
AcDbEntity
  8
Layer 1
100
AcDbLine
 10
134.688873
 20
176.905772
 30
0.0
 11
134.752462
 21
177.50312
 31
0.0
  0
LINE
  5
324
330
74
100
AcDbEntity
  8
Layer 1
100
AcDbLine
 10
134.752462
 20
177.50312
 30
0.0
 11
135.025912
 21
177.723553
 31
0.0
  0
LINE
  5
325
330
74
100
AcDbEntity
  8
Layer 1
100
AcDbLine
 10
135.025912
 20
177.723553
 30
0.0
 11
135.025912
 21
177.723553
 31
0.0
  0
LINE
  5
326
330
74
100
AcDbEntity
  8
Layer 1
100
AcDbLine
 10
107.394592
 20
175.933206
 30
0.0
 11
107.636267
 21
174.707923
 31
0.0
  0
LINE
  5
327
330
74
100
AcDbEntity
  8
Layer 1
100
AcDbLine
 10
107.636267
 20
174.707923
 30
0.0
 11
107.753083
 21
171.888245
 31
0.0
  0
LINE
  5
328
330
74
100
AcDbEntity
  8
Layer 1
100
AcDbLine
 10
107.753083
 20
171.888245
 30
0.0
 11
107.725932
 21
168.758304
 31
0.0
  0
LINE
  5
329
330
74
100
AcDbEntity
  8
Layer 1
100
AcDbLine
 10
107.725932
 20
168.758304
 30
0.0
 11
107.535703
 21
166.602234
 31
0.0
  0
LINE
  5
32A
330
74
100
AcDbEntity
  8
Layer 1
100
AcDbLine
 10
107.535703
 20
166.602234
 30
0.0
 11
106.98267
 21
164.815121
 31
0.0
  0
LINE
  5
32B
330
74
100
AcDbEntity
  8
Layer 1
100
AcDbLine
 10
106.98267
 20
164.815121
 30
0.0
 11
106.124381
 21
163.107388
 31
0.0
  0
LINE
  5
32C
330
74
100
AcDbEntity
  8
Layer 1
100
AcDbLine
 10
106.124381
 20
163.107388
 30
0.0
 11
104.91783
 21
161.407443
 31
0.0
  0
LINE
  5
32D
330
74
100
AcDbEntity
  8
Layer 1
100
AcDbLine
 10
104.91783
 20
161.407443
 30
0.0
 11
103.320009
 21
159.643692
 31
0.0
  0
LINE
  5
32E
330
74
100
AcDbEntity
  8
Layer 1
100
AcDbLine
 10
103.320009
 20
159.643692
 30
0.0
 11
101.522833
 21
157.968643
 31
0.0
  0
LINE
  5
32F
330
74
100
AcDbEntity
  8
Layer 1
100
AcDbLine
 10
101.522833
 20
157.968643
 30
0.0
 11
100.507035
 21
157.377211
 31
0.0
  0
LINE
  5
330
330
74
100
AcDbEntity
  8
Layer 1
100
AcDbLine
 10
100.507035
 20
157.377211
 30
0.0
 11
100.277348
 21
157.486822
 31
0.0
  0
LINE
  5
331
330
74
100
AcDbEntity
  8
Layer 1
100
AcDbLine
 10
100.277348
 20
157.486822
 30
0.0
 11
100.225241
 21
157.866102
 31
0.0
  0
LINE
  5
332
330
74
100
AcDbEntity
  8
Layer 1
100
AcDbLine
 10
100.225241
 20
157.866102
 30
0.0
 11
100.630078
 21
159.432025
 31
0.0
  0
LINE
  5
333
330
74
100
AcDbEntity
  8
Layer 1
100
AcDbLine
 10
100.630078
 20
159.432025
 30
0.0
 11
101.177645
 21
160.544228
 31
0.0
  0
LINE
  5
334
330
74
100
AcDbEntity
  8
Layer 1
100
AcDbLine
 10
101.177645
 20
160.544228
 30
0.0
 11
101.926537
 21
161.58397
 31
0.0
  0
LINE
  5
335
330
74
100
AcDbEntity
  8
Layer 1
100
AcDbLine
 10
101.926537
 20
161.58397
 30
0.0
 11
102.692866
 21
162.569686
 31
0.0
  0
LINE
  5
336
330
74
100
AcDbEntity
  8
Layer 1
100
AcDbLine
 10
102.692866
 20
162.569686
 30
0.0
 11
103.275768
 21
163.723488
 31
0.0
  0
LINE
  5
337
330
74
100
AcDbEntity
  8
Layer 1
100
AcDbLine
 10
103.275768
 20
163.723488
 30
0.0
 11
103.777162
 21
165.302426
 31
0.0
  0
LINE
  5
338
330
74
100
AcDbEntity
  8
Layer 1
100
AcDbLine
 10
103.777162
 20
165.302426
 30
0.0
 11
104.298967
 21
167.563553
 31
0.0
  0
LINE
  5
339
330
74
100
AcDbEntity
  8
Layer 1
100
AcDbLine
 10
104.298967
 20
167.563553
 30
0.0
 11
105.14339
 21
171.158253
 31
0.0
  0
LINE
  5
33A
330
74
100
AcDbEntity
  8
Layer 1
100
AcDbLine
 10
105.14339
 20
171.158253
 30
0.0
 11
105.952643
 21
173.781244
 31
0.0
  0
LINE
  5
33B
330
74
100
AcDbEntity
  8
Layer 1
100
AcDbLine
 10
105.952643
 20
173.781244
 30
0.0
 11
106.708965
 21
175.387803
 31
0.0
  0
LINE
  5
33C
330
74
100
AcDbEntity
  8
Layer 1
100
AcDbLine
 10
106.708965
 20
175.387803
 30
0.0
 11
107.061725
 21
175.795944
 31
0.0
  0
LINE
  5
33D
330
74
100
AcDbEntity
  8
Layer 1
100
AcDbLine
 10
107.061725
 20
175.795944
 30
0.0
 11
107.394592
 21
175.933206
 31
0.0
  0
LINE
  5
33E
330
74
100
AcDbEntity
  8
Layer 1
100
AcDbLine
 10
107.394592
 20
175.933206
 30
0.0
 11
107.394592
 21
175.933206
 31
0.0
  0
LINE
  5
33F
330
74
100
AcDbEntity
  8
Layer 1
100
AcDbLine
 10
117.448759
 20
169.133414
 30
0.0
 11
117.25424
 21
168.920298
 31
0.0
  0
LINE
  5
340
330
74
100
AcDbEntity
  8
Layer 1
100
AcDbLine
 10
117.25424
 20
168.920298
 30
0.0
 11
117.078342
 21
168.41022
 31
0.0
  0
LINE
  5
341
330
74
100
AcDbEntity
  8
Layer 1
100
AcDbLine
 10
117.078342
 20
168.41022
 30
0.0
 11
114.867118
 21
159.942949
 31
0.0
  0
LINE
  5
342
330
74
100
AcDbEntity
  8
Layer 1
100
AcDbLine
 10
114.867118
 20
159.942949
 30
0.0
 11
112.057479
 21
151.489516
 31
0.0
  0
LINE
  5
343
330
74
100
AcDbEntity
  8
Layer 1
100
AcDbLine
 10
112.057479
 20
151.489516
 30
0.0
 11
108.583271
 21
142.873224
 31
0.0
  0
LINE
  5
344
330
74
100
AcDbEntity
  8
Layer 1
100
AcDbLine
 10
108.583271
 20
142.873224
 30
0.0
 11
104.378342
 21
133.917372
 31
0.0
  0
LINE
  5
345
330
74
100
AcDbEntity
  8
Layer 1
100
AcDbLine
 10
104.378342
 20
133.917372
 30
0.0
 11
101.009315
 21
127.241053
 31
0.0
  0
LINE
  5
346
330
74
100
AcDbEntity
  8
Layer 1
100
AcDbLine
 10
101.009315
 20
127.241053
 30
0.0
 11
97.85195300000001
 21
120.961609
 31
0.0
  0
LINE
  5
347
330
74
100
AcDbEntity
  8
Layer 1
100
AcDbLine
 10
97.85195300000001
 20
120.961609
 30
0.0
 11
95.366786
 21
115.9289629999999
 31
0.0
  0
LINE
  5
348
330
74
100
AcDbEntity
  8
Layer 1
100
AcDbLine
 10
95.366786
 20
115.9289629999999
 30
0.0
 11
93.43341200000001
 21
112.450845
 31
0.0
  0
LINE
  5
349
330
74
100
AcDbEntity
  8
Layer 1
100
AcDbLine
 10
93.43341200000001
 20
112.450845
 30
0.0
 11
92.622023
 21
111.145567
 31
0.0
  0
LINE
  5
34A
330
74
100
AcDbEntity
  8
Layer 1
100
AcDbLine
 10
92.622023
 20
111.145567
 30
0.0
 11
84.88736999999998
 21
99.909595
 31
0.0
  0
LINE
  5
34B
330
74
100
AcDbEntity
  8
Layer 1
100
AcDbLine
 10
84.88736999999998
 20
99.909595
 30
0.0
 11
82.03321800000001
 21
95.74427699999999
 31
0.0
  0
LINE
  5
34C
330
74
100
AcDbEntity
  8
Layer 1
100
AcDbLine
 10
82.03321800000001
 20
95.74427699999999
 30
0.0
 11
80.848065
 21
93.7889
 31
0.0
  0
LINE
  5
34D
330
74
100
AcDbEntity
  8
Layer 1
100
AcDbLine
 10
80.848065
 20
93.7889
 30
0.0
 11
81.53598100000001
 21
91.27535899999999
 31
0.0
  0
LINE
  5
34E
330
74
100
AcDbEntity
  8
Layer 1
100
AcDbLine
 10
81.53598100000001
 20
91.27535899999999
 30
0.0
 11
82.40028700000001
 21
88.96466399999999
 31
0.0
  0
LINE
  5
34F
330
74
100
AcDbEntity
  8
Layer 1
100
AcDbLine
 10
82.40028700000001
 20
88.96466399999999
 30
0.0
 11
82.85370999999999
 21
89.00138000000001
 31
0.0
  0
LINE
  5
350
330
74
100
AcDbEntity
  8
Layer 1
100
AcDbLine
 10
82.85370999999999
 20
89.00138000000001
 30
0.0
 11
83.638773
 21
89.54000500000001
 31
0.0
  0
LINE
  5
351
330
74
100
AcDbEntity
  8
Layer 1
100
AcDbLine
 10
83.638773
 20
89.54000500000001
 30
0.0
 11
84.58290899999999
 21
90.436984
 31
0.0
  0
LINE
  5
352
330
74
100
AcDbEntity
  8
Layer 1
100
AcDbLine
 10
84.58290899999999
 20
90.436984
 30
0.0
 11
85.513551
 21
91.548761
 31
0.0
  0
LINE
  5
353
330
74
100
AcDbEntity
  8
Layer 1
100
AcDbLine
 10
85.513551
 20
91.548761
 30
0.0
 11
88.126531
 21
95.37736499999999
 31
0.0
  0
LINE
  5
354
330
74
100
AcDbEntity
  8
Layer 1
100
AcDbLine
 10
88.126531
 20
95.37736499999999
 30
0.0
 11
88.92205699999999
 21
96.775558
 31
0.0
  0
LINE
  5
355
330
74
100
AcDbEntity
  8
Layer 1
100
AcDbLine
 10
88.92205699999999
 20
96.775558
 30
0.0
 11
89.217717
 21
97.57244200000002
 31
0.0
  0
LINE
  5
356
330
74
100
AcDbEntity
  8
Layer 1
100
AcDbLine
 10
89.217717
 20
97.57244200000002
 30
0.0
 11
88.95408600000001
 21
98.291654
 31
0.0
  0
LINE
  5
357
330
74
100
AcDbEntity
  8
Layer 1
100
AcDbLine
 10
88.95408600000001
 20
98.291654
 30
0.0
 11
88.309315
 21
99.23049699999999
 31
0.0
  0
LINE
  5
358
330
74
100
AcDbEntity
  8
Layer 1
100
AcDbLine
 10
88.309315
 20
99.23049699999999
 30
0.0
 11
87.753177
 21
100.000878
 31
0.0
  0
LINE
  5
359
330
74
100
AcDbEntity
  8
Layer 1
100
AcDbLine
 10
87.753177
 20
100.000878
 30
0.0
 11
87.45914
 21
100.678056
 31
0.0
  0
LINE
  5
35A
330
74
100
AcDbEntity
  8
Layer 1
100
AcDbLine
 10
87.45914
 20
100.678056
 30
0.0
 11
87.42262
 21
101.284094
 31
0.0
  0
LINE
  5
35B
330
74
100
AcDbEntity
  8
Layer 1
100
AcDbLine
 10
87.42262
 20
101.284094
 30
0.0
 11
87.639037
 21
101.841053
 31
0.0
  0
LINE
  5
35C
330
74
100
AcDbEntity
  8
Layer 1
100
AcDbLine
 10
87.639037
 20
101.841053
 30
0.0
 11
88.044021
 21
102.099176
 31
0.0
  0
LINE
  5
35D
330
74
100
AcDbEntity
  8
Layer 1
100
AcDbLine
 10
88.044021
 20
102.099176
 30
0.0
 11
89.01487000000001
 21
101.89397
 31
0.0
  0
LINE
  5
35E
330
74
100
AcDbEntity
  8
Layer 1
100
AcDbLine
 10
89.01487000000001
 20
101.89397
 30
0.0
 11
92.38572299999999
 21
101.04515
 31
0.0
  0
LINE
  5
35F
330
74
100
AcDbEntity
  8
Layer 1
100
AcDbLine
 10
92.38572299999999
 20
101.04515
 30
0.0
 11
96.139705
 21
100.368729
 31
0.0
  0
LINE
  5
360
330
74
100
AcDbEntity
  8
Layer 1
100
AcDbLine
 10
96.139705
 20
100.368729
 30
0.0
 11
99.89873600000001
 21
99.92135199999999
 31
0.0
  0
LINE
  5
361
330
74
100
AcDbEntity
  8
Layer 1
100
AcDbLine
 10
99.89873600000001
 20
99.92135199999999
 30
0.0
 11
103.284731
 21
99.759664
 31
0.0
  0
LINE
  5
362
330
74
100
AcDbEntity
  8
Layer 1
100
AcDbLine
 10
103.284731
 20
99.759664
 30
0.0
 11
107.146473
 21
99.973842
 31
0.0
  0
LINE
  5
363
330
74
100
AcDbEntity
  8
Layer 1
100
AcDbLine
 10
107.146473
 20
99.973842
 30
0.0
 11
110.963359
 21
100.626203
 31
0.0
  0
LINE
  5
364
330
74
100
AcDbEntity
  8
Layer 1
100
AcDbLine
 10
110.963359
 20
100.626203
 30
0.0
 11
114.797233
 21
101.731649
 31
0.0
  0
LINE
  5
365
330
74
100
AcDbEntity
  8
Layer 1
100
AcDbLine
 10
114.797233
 20
101.731649
 30
0.0
 11
118.70994
 21
103.305081
 31
0.0
  0
LINE
  5
366
330
74
100
AcDbEntity
  8
Layer 1
100
AcDbLine
 10
118.70994
 20
103.305081
 30
0.0
 11
120.041676
 21
103.684317
 31
0.0
  0
LINE
  5
367
330
74
100
AcDbEntity
  8
Layer 1
100
AcDbLine
 10
120.041676
 20
103.684317
 30
0.0
 11
120.559429
 21
103.830009
 31
0.0
  0
LINE
  5
368
330
74
100
AcDbEntity
  8
Layer 1
100
AcDbLine
 10
120.559429
 20
103.830009
 30
0.0
 11
121.062742
 21
104.268799
 31
0.0
  0
LINE
  5
369
330
74
100
AcDbEntity
  8
Layer 1
100
AcDbLine
 10
121.062742
 20
104.268799
 30
0.0
 11
121.55275
 21
105.003256
 31
0.0
  0
LINE
  5
36A
330
74
100
AcDbEntity
  8
Layer 1
100
AcDbLine
 10
121.55275
 20
105.003256
 30
0.0
 11
122.030585
 21
106.035951
 31
0.0
  0
LINE
  5
36B
330
74
100
AcDbEntity
  8
Layer 1
100
AcDbLine
 10
122.030585
 20
106.035951
 30
0.0
 11
122.954268
 21
109.006331
 31
0.0
  0
LINE
  5
36C
330
74
100
AcDbEntity
  8
Layer 1
100
AcDbLine
 10
122.954268
 20
109.006331
 30
0.0
 11
123.842856
 21
113.200497
 31
0.0
  0
LINE
  5
36D
330
74
100
AcDbEntity
  8
Layer 1
100
AcDbLine
 10
123.842856
 20
113.200497
 30
0.0
 11
124.250718
 21
117.291138
 31
0.0
  0
LINE
  5
36E
330
74
100
AcDbEntity
  8
Layer 1
100
AcDbLine
 10
124.250718
 20
117.291138
 30
0.0
 11
124.454671
 21
122.986904
 31
0.0
  0
LINE
  5
36F
330
74
100
AcDbEntity
  8
Layer 1
100
AcDbLine
 10
124.454671
 20
122.986904
 30
0.0
 11
124.429886
 21
128.708512
 31
0.0
  0
LINE
  5
370
330
74
100
AcDbEntity
  8
Layer 1
100
AcDbLine
 10
124.429886
 20
128.708512
 30
0.0
 11
124.151537
 21
132.876678
 31
0.0
  0
LINE
  5
371
330
74
100
AcDbEntity
  8
Layer 1
100
AcDbLine
 10
124.151537
 20
132.876678
 30
0.0
 11
123.798759
 21
137.224664
 31
0.0
  0
LINE
  5
372
330
74
100
AcDbEntity
  8
Layer 1
100
AcDbLine
 10
123.798759
 20
137.224664
 30
0.0
 11
123.393065
 21
141.4139
 31
0.0
  0
LINE
  5
373
330
74
100
AcDbEntity
  8
Layer 1
100
AcDbLine
 10
123.393065
 20
141.4139
 30
0.0
 11
122.855078
 21
145.832442
 31
0.0
  0
LINE
  5
374
330
74
100
AcDbEntity
  8
Layer 1
100
AcDbLine
 10
122.855078
 20
145.832442
 30
0.0
 11
122.515177
 21
148.921345
 31
0.0
  0
LINE
  5
375
330
74
100
AcDbEntity
  8
Layer 1
100
AcDbLine
 10
122.515177
 20
148.921345
 30
0.0
 11
121.912173
 21
152.637758
 31
0.0
  0
LINE
  5
376
330
74
100
AcDbEntity
  8
Layer 1
100
AcDbLine
 10
121.912173
 20
152.637758
 30
0.0
 11
121.112549
 21
156.615992
 31
0.0
  0
LINE
  5
377
330
74
100
AcDbEntity
  8
Layer 1
100
AcDbLine
 10
121.112549
 20
156.615992
 30
0.0
 11
120.182787
 21
160.490359
 31
0.0
  0
LINE
  5
378
330
74
100
AcDbEntity
  8
Layer 1
100
AcDbLine
 10
120.182787
 20
160.490359
 30
0.0
 11
118.912787
 21
165.632095
 31
0.0
  0
LINE
  5
379
330
74
100
AcDbEntity
  8
Layer 1
100
AcDbLine
 10
118.912787
 20
165.632095
 30
0.0
 11
118.171382
 21
168.024362
 31
0.0
  0
LINE
  5
37A
330
74
100
AcDbEntity
  8
Layer 1
100
AcDbLine
 10
118.171382
 20
168.024362
 30
0.0
 11
117.770691
 21
168.826936
 31
0.0
  0
LINE
  5
37B
330
74
100
AcDbEntity
  8
Layer 1
100
AcDbLine
 10
117.770691
 20
168.826936
 30
0.0
 11
117.448759
 21
169.133414
 31
0.0
  0
LINE
  5
37C
330
74
100
AcDbEntity
  8
Layer 1
100
AcDbLine
 10
117.448759
 20
169.133414
 30
0.0
 11
117.448759
 21
169.133414
 31
0.0
  0
LINE
  5
37D
330
74
100
AcDbEntity
  8
Layer 1
100
AcDbLine
 10
90.24959200000001
 20
166.990289
 30
0.0
 11
90.69938399999999
 21
166.946192
 31
0.0
  0
LINE
  5
37E
330
74
100
AcDbEntity
  8
Layer 1
100
AcDbLine
 10
90.69938399999999
 20
166.946192
 30
0.0
 11
91.73049499999999
 21
166.644801
 31
0.0
  0
LINE
  5
37F
330
74
100
AcDbEntity
  8
Layer 1
100
AcDbLine
 10
91.73049499999999
 20
166.644801
 30
0.0
 11
92.979433
 21
166.083459
 31
0.0
  0
LINE
  5
380
330
74
100
AcDbEntity
  8
Layer 1
100
AcDbLine
 10
92.979433
 20
166.083459
 30
0.0
 11
94.25692299999999
 21
165.358171
 31
0.0
  0
LINE
  5
381
330
74
100
AcDbEntity
  8
Layer 1
100
AcDbLine
 10
94.25692299999999
 20
165.358171
 30
0.0
 11
95.37368999999999
 21
164.564942
 31
0.0
  0
LINE
  5
382
330
74
100
AcDbEntity
  8
Layer 1
100
AcDbLine
 10
95.37368999999999
 20
164.564942
 30
0.0
 11
97.24341200000001
 21
163.286122
 31
0.0
  0
LINE
  5
383
330
74
100
AcDbEntity
  8
Layer 1
100
AcDbLine
 10
97.24341200000001
 20
163.286122
 30
0.0
 11
97.78812600000001
 21
162.929962
 31
0.0
  0
LINE
  5
384
330
74
100
AcDbEntity
  8
Layer 1
100
AcDbLine
 10
97.78812600000001
 20
162.929962
 30
0.0
 11
98.15393900000001
 21
162.5324629999999
 31
0.0
  0
LINE
  5
385
330
74
100
AcDbEntity
  8
Layer 1
100
AcDbLine
 10
98.15393900000001
 20
162.5324629999999
 30
0.0
 11
98.313637
 21
162.134762
 31
0.0
  0
LINE
  5
386
330
74
100
AcDbEntity
  8
Layer 1
100
AcDbLine
 10
98.313637
 20
162.134762
 30
0.0
 11
98.24000900000001
 21
161.777997
 31
0.0
  0
LINE
  5
387
330
74
100
AcDbEntity
  8
Layer 1
100
AcDbLine
 10
98.24000900000001
 20
161.777997
 30
0.0
 11
98.03317100000001
 21
161.590932
 31
0.0
  0
LINE
  5
388
330
74
100
AcDbEntity
  8
Layer 1
100
AcDbLine
 10
98.03317100000001
 20
161.590932
 30
0.0
 11
97.63022600000001
 21
161.673148
 31
0.0
  0
LINE
  5
389
330
74
100
AcDbEntity
  8
Layer 1
100
AcDbLine
 10
97.63022600000001
 20
161.673148
 30
0.0
 11
95.38250899999999
 21
163.01272
 31
0.0
  0
LINE
  5
38A
330
74
100
AcDbEntity
  8
Layer 1
100
AcDbLine
 10
95.38250899999999
 20
163.01272
 30
0.0
 11
93.534755
 21
164.138543
 31
0.0
  0
LINE
  5
38B
330
74
100
AcDbEntity
  8
Layer 1
100
AcDbLine
 10
93.534755
 20
164.138543
 30
0.0
 11
92.18841299999999
 21
164.816378
 31
0.0
  0
LINE
  5
38C
330
74
100
AcDbEntity
  8
Layer 1
100
AcDbLine
 10
92.18841299999999
 20
164.816378
 30
0.0
 11
91.085335
 21
165.154623
 31
0.0
  0
LINE
  5
38D
330
74
100
AcDbEntity
  8
Layer 1
100
AcDbLine
 10
91.085335
 20
165.154623
 30
0.0
 11
89.96736999999999
 21
165.261678
 31
0.0
  0
LINE
  5
38E
330
74
100
AcDbEntity
  8
Layer 1
100
AcDbLine
 10
89.96736999999999
 20
165.261678
 30
0.0
 11
89.00627900000001
 21
165.359703
 31
0.0
  0
LINE
  5
38F
330
74
100
AcDbEntity
  8
Layer 1
100
AcDbLine
 10
89.00627900000001
 20
165.359703
 30
0.0
 11
88.51216200000001
 21
165.55272
 31
0.0
  0
LINE
  5
390
330
74
100
AcDbEntity
  8
Layer 1
100
AcDbLine
 10
88.51216200000001
 20
165.55272
 30
0.0
 11
88.61701999999999
 21
165.924408
 31
0.0
  0
LINE
  5
391
330
74
100
AcDbEntity
  8
Layer 1
100
AcDbLine
 10
88.61701999999999
 20
165.924408
 30
0.0
 11
89.094245
 21
166.452303
 31
0.0
  0
LINE
  5
392
330
74
100
AcDbEntity
  8
Layer 1
100
AcDbLine
 10
89.094245
 20
166.452303
 30
0.0
 11
89.679186
 21
166.856495
 31
0.0
  0
LINE
  5
393
330
74
100
AcDbEntity
  8
Layer 1
100
AcDbLine
 10
89.679186
 20
166.856495
 30
0.0
 11
90.24959200000001
 21
166.990289
 31
0.0
  0
LINE
  5
394
330
74
100
AcDbEntity
  8
Layer 1
100
AcDbLine
 10
90.24959200000001
 20
166.990289
 30
0.0
 11
90.24959200000001
 21
166.990289
 31
0.0
  0
LINE
  5
395
330
74
100
AcDbEntity
  8
Layer 1
100
AcDbLine
 10
87.136328
 20
164.679595
 30
0.0
 11
87.943452
 21
164.463106
 31
0.0
  0
LINE
  5
396
330
74
100
AcDbEntity
  8
Layer 1
100
AcDbLine
 10
87.943452
 20
164.463106
 30
0.0
 11
89.31405500000002
 21
163.885692
 31
0.0
  0
LINE
  5
397
330
74
100
AcDbEntity
  8
Layer 1
100
AcDbLine
 10
89.31405500000002
 20
163.885692
 30
0.0
 11
92.93363900000001
 21
162.080392
 31
0.0
  0
LINE
  5
398
330
74
100
AcDbEntity
  8
Layer 1
100
AcDbLine
 10
92.93363900000001
 20
162.080392
 30
0.0
 11
96.37095600000002
 21
160.128304
 31
0.0
  0
LINE
  5
399
330
74
100
AcDbEntity
  8
Layer 1
100
AcDbLine
 10
96.37095600000002
 20
160.128304
 30
0.0
 11
97.51372600000001
 21
159.367406
 31
0.0
  0
LINE
  5
39A
330
74
100
AcDbEntity
  8
Layer 1
100
AcDbLine
 10
97.51372600000001
 20
159.367406
 30
0.0
 11
98.00188399999999
 21
158.894039
 31
0.0
  0
LINE
  5
39B
330
74
100
AcDbEntity
  8
Layer 1
100
AcDbLine
 10
98.00188399999999
 20
158.894039
 30
0.0
 11
97.95529000000001
 21
158.186547
 31
0.0
  0
LINE
  5
39C
330
74
100
AcDbEntity
  8
Layer 1
100
AcDbLine
 10
97.95529000000001
 20
158.186547
 30
0.0
 11
97.513883
 21
157.245996
 31
0.0
  0
LINE
  5
39D
330
74
100
AcDbEntity
  8
Layer 1
100
AcDbLine
 10
97.513883
 20
157.245996
 30
0.0
 11
96.74982700000001
 21
156.1924
 31
0.0
  0
LINE
  5
39E
330
74
100
AcDbEntity
  8
Layer 1
100
AcDbLine
 10
96.74982700000001
 20
156.1924
 30
0.0
 11
95.735287
 21
155.145775
 31
0.0
  0
LINE
  5
39F
330
74
100
AcDbEntity
  8
Layer 1
100
AcDbLine
 10
95.735287
 20
155.145775
 30
0.0
 11
94.42250200000001
 21
154.062523
 31
0.0
  0
LINE
  5
3A0
330
74
100
AcDbEntity
  8
Layer 1
100
AcDbLine
 10
94.42250200000001
 20
154.062523
 30
0.0
 11
93.19077699999999
 21
153.251568
 31
0.0
  0
LINE
  5
3A1
330
74
100
AcDbEntity
  8
Layer 1
100
AcDbLine
 10
93.19077699999999
 20
153.251568
 30
0.0
 11
92.014224
 21
152.697596
 31
0.0
  0
LINE
  5
3A2
330
74
100
AcDbEntity
  8
Layer 1
100
AcDbLine
 10
92.014224
 20
152.697596
 30
0.0
 11
90.866953
 21
152.385289
 31
0.0
  0
LINE
  5
3A3
330
74
100
AcDbEntity
  8
Layer 1
100
AcDbLine
 10
90.866953
 20
152.385289
 30
0.0
 11
89.643502
 21
152.27469
 31
0.0
  0
LINE
  5
3A4
330
74
100
AcDbEntity
  8
Layer 1
100
AcDbLine
 10
89.643502
 20
152.27469
 30
0.0
 11
88.28001
 21
152.313707
 31
0.0
  0
LINE
  5
3A5
330
74
100
AcDbEntity
  8
Layer 1
100
AcDbLine
 10
88.28001
 20
152.313707
 30
0.0
 11
86.93558000000001
 21
152.489939
 31
0.0
  0
LINE
  5
3A6
330
74
100
AcDbEntity
  8
Layer 1
100
AcDbLine
 10
86.93558000000001
 20
152.489939
 30
0.0
 11
85.769315
 21
152.790984
 31
0.0
  0
LINE
  5
3A7
330
74
100
AcDbEntity
  8
Layer 1
100
AcDbLine
 10
85.769315
 20
152.790984
 30
0.0
 11
84.84718499999999
 21
152.994676
 31
0.0
  0
LINE
  5
3A8
330
74
100
AcDbEntity
  8
Layer 1
100
AcDbLine
 10
84.84718499999999
 20
152.994676
 30
0.0
 11
84.040703
 21
152.8439
 31
0.0
  0
LINE
  5
3A9
330
74
100
AcDbEntity
  8
Layer 1
100
AcDbLine
 10
84.040703
 20
152.8439
 30
0.0
 11
83.39067099999999
 21
152.684956
 31
0.0
  0
LINE
  5
3AA
330
74
100
AcDbEntity
  8
Layer 1
100
AcDbLine
 10
83.39067099999999
 20
152.684956
 30
0.0
 11
82.876892
 21
152.731663
 31
0.0
  0
LINE
  5
3AB
330
74
100
AcDbEntity
  8
Layer 1
100
AcDbLine
 10
82.876892
 20
152.731663
 30
0.0
 11
82.539324
 21
152.97119
 31
0.0
  0
LINE
  5
3AC
330
74
100
AcDbEntity
  8
Layer 1
100
AcDbLine
 10
82.539324
 20
152.97119
 30
0.0
 11
82.417926
 21
153.390706
 31
0.0
  0
LINE
  5
3AD
330
74
100
AcDbEntity
  8
Layer 1
100
AcDbLine
 10
82.417926
 20
153.390706
 30
0.0
 11
83.29987
 21
157.394734
 31
0.0
  0
LINE
  5
3AE
330
74
100
AcDbEntity
  8
Layer 1
100
AcDbLine
 10
83.29987
 20
157.394734
 30
0.0
 11
84.255878
 21
160.759496
 31
0.0
  0
LINE
  5
3AF
330
74
100
AcDbEntity
  8
Layer 1
100
AcDbLine
 10
84.255878
 20
160.759496
 30
0.0
 11
85.171828
 21
163.016278
 31
0.0
  0
LINE
  5
3B0
330
74
100
AcDbEntity
  8
Layer 1
100
AcDbLine
 10
85.171828
 20
163.016278
 30
0.0
 11
85.63452899999999
 21
163.766184
 31
0.0
  0
LINE
  5
3B1
330
74
100
AcDbEntity
  8
Layer 1
100
AcDbLine
 10
85.63452899999999
 20
163.766184
 30
0.0
 11
86.110913
 21
164.283503
 31
0.0
  0
LINE
  5
3B2
330
74
100
AcDbEntity
  8
Layer 1
100
AcDbLine
 10
86.110913
 20
164.283503
 30
0.0
 11
86.60887999999999
 21
164.583039
 31
0.0
  0
LINE
  5
3B3
330
74
100
AcDbEntity
  8
Layer 1
100
AcDbLine
 10
86.60887999999999
 20
164.583039
 30
0.0
 11
87.136328
 21
164.679595
 31
0.0
  0
LINE
  5
3B4
330
74
100
AcDbEntity
  8
Layer 1
100
AcDbLine
 10
87.136328
 20
164.679595
 30
0.0
 11
87.136328
 21
164.679595
 31
0.0
  0
LINE
  5
3B5
330
74
100
AcDbEntity
  8
Layer 1
100
AcDbLine
 10
88.05355099999999
 20
160.613831
 30
0.0
 11
87.683134
 21
160.507997
 31
0.0
  0
LINE
  5
3B6
330
74
100
AcDbEntity
  8
Layer 1
100
AcDbLine
 10
87.683134
 20
160.507997
 30
0.0
 11
87.221138
 21
160.161343
 31
0.0
  0
LINE
  5
3B7
330
74
100
AcDbEntity
  8
Layer 1
100
AcDbLine
 10
87.221138
 20
160.161343
 30
0.0
 11
86.89039499999999
 21
159.717728
 31
0.0
  0
LINE
  5
3B8
330
74
100
AcDbEntity
  8
Layer 1
100
AcDbLine
 10
86.89039499999999
 20
159.717728
 30
0.0
 11
86.72671600000001
 21
159.243709
 31
0.0
  0
LINE
  5
3B9
330
74
100
AcDbEntity
  8
Layer 1
100
AcDbLine
 10
86.72671600000001
 20
159.243709
 30
0.0
 11
86.765912
 21
158.805845
 31
0.0
  0
LINE
  5
3BA
330
74
100
AcDbEntity
  8
Layer 1
100
AcDbLine
 10
86.765912
 20
158.805845
 30
0.0
 11
87.115436
 21
158.517502
 31
0.0
  0
LINE
  5
3BB
330
74
100
AcDbEntity
  8
Layer 1
100
AcDbLine
 10
87.115436
 20
158.517502
 30
0.0
 11
87.734657
 21
158.398657
 31
0.0
  0
LINE
  5
3BC
330
74
100
AcDbEntity
  8
Layer 1
100
AcDbLine
 10
87.734657
 20
158.398657
 30
0.0
 11
88.405287
 21
158.459152
 31
0.0
  0
LINE
  5
3BD
330
74
100
AcDbEntity
  8
Layer 1
100
AcDbLine
 10
88.405287
 20
158.459152
 30
0.0
 11
88.909037
 21
158.708831
 31
0.0
  0
LINE
  5
3BE
330
74
100
AcDbEntity
  8
Layer 1
100
AcDbLine
 10
88.909037
 20
158.708831
 30
0.0
 11
89.193218
 21
159.311849
 31
0.0
  0
LINE
  5
3BF
330
74
100
AcDbEntity
  8
Layer 1
100
AcDbLine
 10
89.193218
 20
159.311849
 30
0.0
 11
89.06629999999999
 21
159.946365
 31
0.0
  0
LINE
  5
3C0
330
74
100
AcDbEntity
  8
Layer 1
100
AcDbLine
 10
89.06629999999999
 20
159.946365
 30
0.0
 11
88.64687899999999
 21
160.4383639999999
 31
0.0
  0
LINE
  5
3C1
330
74
100
AcDbEntity
  8
Layer 1
100
AcDbLine
 10
88.64687899999999
 20
160.4383639999999
 30
0.0
 11
88.05355099999999
 21
160.613831
 31
0.0
  0
LINE
  5
3C2
330
74
100
AcDbEntity
  8
Layer 1
100
AcDbLine
 10
88.05355099999999
 20
160.613831
 30
0.0
 11
88.05355099999999
 21
160.613831
 31
0.0
  0
LINE
  5
3C3
330
74
100
AcDbEntity
  8
Layer 1
100
AcDbLine
 10
97.13757800000001
 20
150.744872
 30
0.0
 11
97.32278700000001
 21
150.683136
 31
0.0
  0
LINE
  5
3C4
330
74
100
AcDbEntity
  8
Layer 1
100
AcDbLine
 10
97.32278700000001
 20
150.683136
 30
0.0
 11
97.54037199999999
 21
150.462497
 31
0.0
  0
LINE
  5
3C5
330
74
100
AcDbEntity
  8
Layer 1
100
AcDbLine
 10
97.54037199999999
 20
150.462497
 30
0.0
 11
97.471855
 21
150.102388
 31
0.0
  0
LINE
  5
3C6
330
74
100
AcDbEntity
  8
Layer 1
100
AcDbLine
 10
97.471855
 20
150.102388
 30
0.0
 11
96.149801
 21
148.301886
 31
0.0
  0
LINE
  5
3C7
330
74
100
AcDbEntity
  8
Layer 1
100
AcDbLine
 10
96.149801
 20
148.301886
 30
0.0
 11
93.89948000000002
 21
145.085297
 31
0.0
  0
LINE
  5
3C8
330
74
100
AcDbEntity
  8
Layer 1
100
AcDbLine
 10
93.89948000000002
 20
145.085297
 30
0.0
 11
91.193273
 21
140.205636
 31
0.0
  0
LINE
  5
3C9
330
74
100
AcDbEntity
  8
Layer 1
100
AcDbLine
 10
91.193273
 20
140.205636
 30
0.0
 11
89.68394700000001
 21
137.394412
 31
0.0
  0
LINE
  5
3CA
330
74
100
AcDbEntity
  8
Layer 1
100
AcDbLine
 10
89.68394700000001
 20
137.394412
 30
0.0
 11
88.398009
 21
135.274342
 31
0.0
  0
LINE
  5
3CB
330
74
100
AcDbEntity
  8
Layer 1
100
AcDbLine
 10
88.398009
 20
135.274342
 30
0.0
 11
84.57869
 21
130.213206
 31
0.0
  0
LINE
  5
3CC
330
74
100
AcDbEntity
  8
Layer 1
100
AcDbLine
 10
84.57869
 20
130.213206
 30
0.0
 11
80.68931500000001
 21
124.868622
 31
0.0
  0
LINE
  5
3CD
330
74
100
AcDbEntity
  8
Layer 1
100
AcDbLine
 10
80.68931500000001
 20
124.868622
 30
0.0
 11
78.991277
 21
122.139937
 31
0.0
  0
LINE
  5
3CE
330
74
100
AcDbEntity
  8
Layer 1
100
AcDbLine
 10
78.991277
 20
122.139937
 30
0.0
 11
78.798793
 21
121.40321
 31
0.0
  0
LINE
  5
3CF
330
74
100
AcDbEntity
  8
Layer 1
100
AcDbLine
 10
78.798793
 20
121.40321
 30
0.0
 11
78.828412
 21
120.591192
 31
0.0
  0
LINE
  5
3D0
330
74
100
AcDbEntity
  8
Layer 1
100
AcDbLine
 10
78.828412
 20
120.591192
 30
0.0
 11
79.533967
 21
117.380914
 31
0.0
  0
LINE
  5
3D1
330
74
100
AcDbEntity
  8
Layer 1
100
AcDbLine
 10
79.533967
 20
117.380914
 30
0.0
 11
79.909356
 21
115.931914
 31
0.0
  0
LINE
  5
3D2
330
74
100
AcDbEntity
  8
Layer 1
100
AcDbLine
 10
79.909356
 20
115.931914
 30
0.0
 11
79.97494
 21
115.087859
 31
0.0
  0
LINE
  5
3D3
330
74
100
AcDbEntity
  8
Layer 1
100
AcDbLine
 10
79.97494
 20
115.087859
 30
0.0
 11
79.790685
 21
114.822487
 31
0.0
  0
LINE
  5
3D4
330
74
100
AcDbEntity
  8
Layer 1
100
AcDbLine
 10
79.790685
 20
114.822487
 30
0.0
 11
79.51961800000001
 21
114.715545
 31
0.0
  0
LINE
  5
3D5
330
74
100
AcDbEntity
  8
Layer 1
100
AcDbLine
 10
79.51961800000001
 20
114.715545
 30
0.0
 11
78.801304
 21
114.927015
 31
0.0
  0
LINE
  5
3D6
330
74
100
AcDbEntity
  8
Layer 1
100
AcDbLine
 10
78.801304
 20
114.927015
 30
0.0
 11
77.988505
 21
115.622397
 31
0.0
  0
LINE
  5
3D7
330
74
100
AcDbEntity
  8
Layer 1
100
AcDbLine
 10
77.988505
 20
115.622397
 30
0.0
 11
77.24973100000001
 21
116.701817
 31
0.0
  0
LINE
  5
3D8
330
74
100
AcDbEntity
  8
Layer 1
100
AcDbLine
 10
77.24973100000001
 20
116.701817
 30
0.0
 11
76.27077299999999
 21
118.56272
 31
0.0
  0
LINE
  5
3D9
330
74
100
AcDbEntity
  8
Layer 1
100
AcDbLine
 10
76.27077299999999
 20
118.56272
 30
0.0
 11
75.920018
 21
119.681743
 31
0.0
  0
LINE
  5
3DA
330
74
100
AcDbEntity
  8
Layer 1
100
AcDbLine
 10
75.920018
 20
119.681743
 30
0.0
 11
75.803342
 21
121.314386
 31
0.0
  0
LINE
  5
3DB
330
74
100
AcDbEntity
  8
Layer 1
100
AcDbLine
 10
75.803342
 20
121.314386
 30
0.0
 11
76.05686099999999
 21
123.46934
 31
0.0
  0
LINE
  5
3DC
330
74
100
AcDbEntity
  8
Layer 1
100
AcDbLine
 10
76.05686099999999
 20
123.46934
 30
0.0
 11
76.418722
 21
124.535249
 31
0.0
  0
LINE
  5
3DD
330
74
100
AcDbEntity
  8
Layer 1
100
AcDbLine
 10
76.418722
 20
124.535249
 30
0.0
 11
76.973625
 21
125.658303
 31
0.0
  0
LINE
  5
3DE
330
74
100
AcDbEntity
  8
Layer 1
100
AcDbLine
 10
76.973625
 20
125.658303
 30
0.0
 11
78.77148100000001
 21
128.27043
 31
0.0
  0
LINE
  5
3DF
330
74
100
AcDbEntity
  8
Layer 1
100
AcDbLine
 10
78.77148100000001
 20
128.27043
 30
0.0
 11
81.66827299999999
 21
131.694872
 31
0.0
  0
LINE
  5
3E0
330
74
100
AcDbEntity
  8
Layer 1
100
AcDbLine
 10
81.66827299999999
 20
131.694872
 30
0.0
 11
84.182407
 21
134.799527
 31
0.0
  0
LINE
  5
3E1
330
74
100
AcDbEntity
  8
Layer 1
100
AcDbLine
 10
84.182407
 20
134.799527
 30
0.0
 11
87.12750900000001
 21
138.768067
 31
0.0
  0
LINE
  5
3E2
330
74
100
AcDbEntity
  8
Layer 1
100
AcDbLine
 10
87.12750900000001
 20
138.768067
 30
0.0
 11
91.168633
 21
144.344395
 31
0.0
  0
LINE
  5
3E3
330
74
100
AcDbEntity
  8
Layer 1
100
AcDbLine
 10
91.168633
 20
144.344395
 30
0.0
 11
94.072072
 21
148.068322
 31
0.0
  0
LINE
  5
3E4
330
74
100
AcDbEntity
  8
Layer 1
100
AcDbLine
 10
94.072072
 20
148.068322
 30
0.0
 11
96.00574700000001
 21
150.136322
 31
0.0
  0
LINE
  5
3E5
330
74
100
AcDbEntity
  8
Layer 1
100
AcDbLine
 10
96.00574700000001
 20
150.136322
 30
0.0
 11
96.66139799999999
 21
150.610749
 31
0.0
  0
LINE
  5
3E6
330
74
100
AcDbEntity
  8
Layer 1
100
AcDbLine
 10
96.66139799999999
 20
150.610749
 30
0.0
 11
97.13757800000001
 21
150.744872
 31
0.0
  0
LINE
  5
3E7
330
74
100
AcDbEntity
  8
Layer 1
100
AcDbLine
 10
97.13757800000001
 20
150.744872
 30
0.0
 11
97.13757800000001
 21
150.744872
 31
0.0
  0
LINE
  5
3E8
330
74
100
AcDbEntity
  8
Layer 1
100
AcDbLine
 10
34.687092
 20
122.125775
 30
0.0
 11
33.86688400000001
 21
122.072859
 31
0.0
  0
LINE
  5
3E9
330
74
100
AcDbEntity
  8
Layer 1
100
AcDbLine
 10
33.86688400000001
 20
122.072859
 30
0.0
 11
33.229976
 21
121.816834
 31
0.0
  0
LINE
  5
3EA
330
74
100
AcDbEntity
  8
Layer 1
100
AcDbLine
 10
33.229976
 20
121.816834
 30
0.0
 11
32.640981
 21
121.376122
 31
0.0
  0
LINE
  5
3EB
330
74
100
AcDbEntity
  8
Layer 1
100
AcDbLine
 10
32.640981
 20
121.376122
 30
0.0
 11
32.257095
 21
120.887257
 31
0.0
  0
LINE
  5
3EC
330
74
100
AcDbEntity
  8
Layer 1
100
AcDbLine
 10
32.257095
 20
120.887257
 30
0.0
 11
31.832446
 21
120.061884
 31
0.0
  0
LINE
  5
3ED
330
74
100
AcDbEntity
  8
Layer 1
100
AcDbLine
 10
31.832446
 20
120.061884
 30
0.0
 11
30.28619
 21
116.119734
 31
0.0
  0
LINE
  5
3EE
330
74
100
AcDbEntity
  8
Layer 1
100
AcDbLine
 10
30.28619
 20
116.119734
 30
0.0
 11
28.384742
 21
111.47196
 31
0.0
  0
LINE
  5
3EF
330
74
100
AcDbEntity
  8
Layer 1
100
AcDbLine
 10
28.384742
 20
111.47196
 30
0.0
 11
25.911306
 21
106.044647
 31
0.0
  0
LINE
  5
3F0
330
74
100
AcDbEntity
  8
Layer 1
100
AcDbLine
 10
25.911306
 20
106.044647
 30
0.0
 11
23.069878
 21
100.268402
 31
0.0
  0
LINE
  5
3F1
330
74
100
AcDbEntity
  8
Layer 1
100
AcDbLine
 10
23.069878
 20
100.268402
 30
0.0
 11
20.064455
 21
94.57383100000001
 31
0.0
  0
LINE
  5
3F2
330
74
100
AcDbEntity
  8
Layer 1
100
AcDbLine
 10
20.064455
 20
94.57383100000001
 30
0.0
 11
18.163705
 21
90.84756400000001
 31
0.0
  0
LINE
  5
3F3
330
74
100
AcDbEntity
  8
Layer 1
100
AcDbLine
 10
18.163705
 20
90.84756400000001
 30
0.0
 11
17.215774
 21
88.303206
 31
0.0
  0
LINE
  5
3F4
330
74
100
AcDbEntity
  8
Layer 1
100
AcDbLine
 10
17.215774
 20
88.303206
 30
0.0
 11
16.769985
 21
86.88311999999999
 31
0.0
  0
LINE
  5
3F5
330
74
100
AcDbEntity
  8
Layer 1
100
AcDbLine
 10
16.769985
 20
86.88311999999999
 30
0.0
 11
16.248461
 21
85.89604599999999
 31
0.0
  0
LINE
  5
3F6
330
74
100
AcDbEntity
  8
Layer 1
100
AcDbLine
 10
16.248461
 20
85.89604599999999
 30
0.0
 11
15.602052
 21
85.27470500000001
 31
0.0
  0
LINE
  5
3F7
330
74
100
AcDbEntity
  8
Layer 1
100
AcDbLine
 10
15.602052
 20
85.27470500000001
 30
0.0
 11
14.781608
 21
84.95181700000001
 31
0.0
  0
LINE
  5
3F8
330
74
100
AcDbEntity
  8
Layer 1
100
AcDbLine
 10
14.781608
 20
84.95181700000001
 30
0.0
 11
13.959113
 21
84.671137
 31
0.0
  0
LINE
  5
3F9
330
74
100
AcDbEntity
  8
Layer 1
100
AcDbLine
 10
13.959113
 20
84.671137
 30
0.0
 11
13.299877
 21
84.21156600000001
 31
0.0
  0
LINE
  5
3FA
330
74
100
AcDbEntity
  8
Layer 1
100
AcDbLine
 10
13.299877
 20
84.21156600000001
 30
0.0
 11
12.80339
 21
83.570983
 31
0.0
  0
LINE
  5
3FB
330
74
100
AcDbEntity
  8
Layer 1
100
AcDbLine
 10
12.80339
 20
83.570983
 30
0.0
 11
12.469141
 21
82.74727099999999
 31
0.0
  0
LINE
  5
3FC
330
74
100
AcDbEntity
  8
Layer 1
100
AcDbLine
 10
12.469141
 20
82.74727099999999
 30
0.0
 11
12.296619
 21
81.73831099999999
 31
0.0
  0
LINE
  5
3FD
330
74
100
AcDbEntity
  8
Layer 1
100
AcDbLine
 10
12.296619
 20
81.73831099999999
 30
0.0
 11
12.285315
 21
80.54198599999999
 31
0.0
  0
LINE
  5
3FE
330
74
100
AcDbEntity
  8
Layer 1
100
AcDbLine
 10
12.285315
 20
80.54198599999999
 30
0.0
 11
12.744316
 21
77.578761
 31
0.0
  0
LINE
  5
3FF
330
74
100
AcDbEntity
  8
Layer 1
100
AcDbLine
 10
12.744316
 20
77.578761
 30
0.0
 11
13.30876
 21
74.34202500000001
 31
0.0
  0
LINE
  5
400
330
74
100
AcDbEntity
  8
Layer 1
100
AcDbLine
 10
13.30876
 20
74.34202500000001
 30
0.0
 11
13.398874
 21
73.843238
 31
0.0
  0
LINE
  5
401
330
74
100
AcDbEntity
  8
Layer 1
100
AcDbLine
 10
13.398874
 20
73.843238
 30
0.0
 11
13.730597
 21
73.24964200000001
 31
0.0
  0
LINE
  5
402
330
74
100
AcDbEntity
  8
Layer 1
100
AcDbLine
 10
13.730597
 20
73.24964200000001
 30
0.0
 11
15.487163
 21
71.26403899999999
 31
0.0
  0
LINE
  5
403
330
74
100
AcDbEntity
  8
Layer 1
100
AcDbLine
 10
15.487163
 20
71.26403899999999
 30
0.0
 11
17.235056
 21
69.36340600000001
 31
0.0
  0
LINE
  5
404
330
74
100
AcDbEntity
  8
Layer 1
100
AcDbLine
 10
17.235056
 20
69.36340600000001
 30
0.0
 11
18.183868
 21
67.92851500000001
 31
0.0
  0
LINE
  5
405
330
74
100
AcDbEntity
  8
Layer 1
100
AcDbLine
 10
18.183868
 20
67.92851500000001
 30
0.0
 11
18.591307
 21
66.39529300000001
 31
0.0
  0
LINE
  5
406
330
74
100
AcDbEntity
  8
Layer 1
100
AcDbLine
 10
18.591307
 20
66.39529300000001
 30
0.0
 11
18.71508
 21
64.19966399999999
 31
0.0
  0
LINE
  5
407
330
74
100
AcDbEntity
  8
Layer 1
100
AcDbLine
 10
18.71508
 20
64.19966399999999
 30
0.0
 11
18.906736
 21
61.450186
 31
0.0
  0
LINE
  5
408
330
74
100
AcDbEntity
  8
Layer 1
100
AcDbLine
 10
18.906736
 20
61.450186
 30
0.0
 11
19.166825
 21
60.611029
 31
0.0
  0
LINE
  5
409
330
74
100
AcDbEntity
  8
Layer 1
100
AcDbLine
 10
19.166825
 20
60.611029
 30
0.0
 11
19.623483
 21
59.684109
 31
0.0
  0
LINE
  5
40A
330
74
100
AcDbEntity
  8
Layer 1
100
AcDbLine
 10
19.623483
 20
59.684109
 30
0.0
 11
20.424183
 21
58.429281
 31
0.0
  0
LINE
  5
40B
330
74
100
AcDbEntity
  8
Layer 1
100
AcDbLine
 10
20.424183
 20
58.429281
 30
0.0
 11
21.351617
 21
57.61207800000001
 31
0.0
  0
LINE
  5
40C
330
74
100
AcDbEntity
  8
Layer 1
100
AcDbLine
 10
21.351617
 20
57.61207800000001
 30
0.0
 11
22.616634
 21
57.10769599999999
 31
0.0
  0
LINE
  5
40D
330
74
100
AcDbEntity
  8
Layer 1
100
AcDbLine
 10
22.616634
 20
57.10769599999999
 30
0.0
 11
24.43008
 21
56.79133100000001
 31
0.0
  0
LINE
  5
40E
330
74
100
AcDbEntity
  8
Layer 1
100
AcDbLine
 10
24.43008
 20
56.79133100000001
 30
0.0
 11
26.554469
 21
56.390375
 31
0.0
  0
LINE
  5
40F
330
74
100
AcDbEntity
  8
Layer 1
100
AcDbLine
 10
26.554469
 20
56.390375
 30
0.0
 11
28.398828
 21
55.759456
 31
0.0
  0
LINE
  5
410
330
74
100
AcDbEntity
  8
Layer 1
100
AcDbLine
 10
28.398828
 20
55.759456
 30
0.0
 11
32.49987
 21
54.17195600000001
 31
0.0
  0
LINE
  5
411
330
74
100
AcDbEntity
  8
Layer 1
100
AcDbLine
 10
32.49987
 20
54.17195600000001
 30
0.0
 11
33.90860100000001
 21
53.718912
 31
0.0
  0
LINE
  5
412
330
74
100
AcDbEntity
  8
Layer 1
100
AcDbLine
 10
33.90860100000001
 20
53.718912
 30
0.0
 11
35.12207700000001
 21
53.458766
 31
0.0
  0
LINE
  5
413
330
74
100
AcDbEntity
  8
Layer 1
100
AcDbLine
 10
35.12207700000001
 20
53.458766
 30
0.0
 11
38.69994000000001
 21
53.263553
 31
0.0
  0
LINE
  5
414
330
74
100
AcDbEntity
  8
Layer 1
100
AcDbLine
 10
38.69994000000001
 20
53.263553
 30
0.0
 11
42.58725499999999
 21
53.35655
 31
0.0
  0
LINE
  5
415
330
74
100
AcDbEntity
  8
Layer 1
100
AcDbLine
 10
42.58725499999999
 20
53.35655
 30
0.0
 11
43.921444
 21
53.636783
 31
0.0
  0
LINE
  5
416
330
74
100
AcDbEntity
  8
Layer 1
100
AcDbLine
 10
43.921444
 20
53.636783
 30
0.0
 11
44.96239099999999
 21
54.153032
 31
0.0
  0
LINE
  5
417
330
74
100
AcDbEntity
  8
Layer 1
100
AcDbLine
 10
44.96239099999999
 20
54.153032
 30
0.0
 11
45.79489699999999
 21
54.96544499999999
 31
0.0
  0
LINE
  5
418
330
74
100
AcDbEntity
  8
Layer 1
100
AcDbLine
 10
45.79489699999999
 20
54.96544499999999
 30
0.0
 11
46.503766
 21
56.13416700000001
 31
0.0
  0
LINE
  5
419
330
74
100
AcDbEntity
  8
Layer 1
100
AcDbLine
 10
46.503766
 20
56.13416700000001
 30
0.0
 11
47.88980099999999
 21
59.78112199999999
 31
0.0
  0
LINE
  5
41A
330
74
100
AcDbEntity
  8
Layer 1
100
AcDbLine
 10
47.88980099999999
 20
59.78112199999999
 30
0.0
 11
48.9507
 21
62.57649699999999
 31
0.0
  0
LINE
  5
41B
330
74
100
AcDbEntity
  8
Layer 1
100
AcDbLine
 10
48.9507
 20
62.57649699999999
 30
0.0
 11
50.015287
 21
64.80820600000001
 31
0.0
  0
LINE
  5
41C
330
74
100
AcDbEntity
  8
Layer 1
100
AcDbLine
 10
50.015287
 20
64.80820600000001
 30
0.0
 11
51.893828
 21
68.03612199999999
 31
0.0
  0
LINE
  5
41D
330
74
100
AcDbEntity
  8
Layer 1
100
AcDbLine
 10
51.893828
 20
68.03612199999999
 30
0.0
 11
52.94817
 21
69.48383199999999
 31
0.0
  0
LINE
  5
41E
330
74
100
AcDbEntity
  8
Layer 1
100
AcDbLine
 10
52.94817
 20
69.48383199999999
 30
0.0
 11
54.345634
 21
71.008275
 31
0.0
  0
LINE
  5
41F
330
74
100
AcDbEntity
  8
Layer 1
100
AcDbLine
 10
54.345634
 20
71.008275
 30
0.0
 11
55.598307
 21
72.34169699999999
 31
0.0
  0
LINE
  5
420
330
74
100
AcDbEntity
  8
Layer 1
100
AcDbLine
 10
55.598307
 20
72.34169699999999
 30
0.0
 11
55.76748900000001
 21
72.70139799999999
 31
0.0
  0
LINE
  5
421
330
74
100
AcDbEntity
  8
Layer 1
100
AcDbLine
 10
55.76748900000001
 20
72.70139799999999
 30
0.0
 11
55.695009
 21
72.948553
 31
0.0
  0
LINE
  5
422
330
74
100
AcDbEntity
  8
Layer 1
100
AcDbLine
 10
55.695009
 20
72.948553
 30
0.0
 11
55.444183
 21
73.87674100000001
 31
0.0
  0
LINE
  5
423
330
74
100
AcDbEntity
  8
Layer 1
100
AcDbLine
 10
55.444183
 20
73.87674100000001
 30
0.0
 11
55.26285600000001
 21
75.603206
 31
0.0
  0
LINE
  5
424
330
74
100
AcDbEntity
  8
Layer 1
100
AcDbLine
 10
55.26285600000001
 20
75.603206
 30
0.0
 11
55.028463
 21
77.664203
 31
0.0
  0
LINE
  5
425
330
74
100
AcDbEntity
  8
Layer 1
100
AcDbLine
 10
55.028463
 20
77.664203
 30
0.0
 11
54.442648
 21
78.945775
 31
0.0
  0
LINE
  5
426
330
74
100
AcDbEntity
  8
Layer 1
100
AcDbLine
 10
54.442648
 20
78.945775
 30
0.0
 11
54.061926
 21
79.59689200000001
 31
0.0
  0
LINE
  5
427
330
74
100
AcDbEntity
  8
Layer 1
100
AcDbLine
 10
54.061926
 20
79.59689200000001
 30
0.0
 11
53.855812
 21
80.28541099999999
 31
0.0
  0
LINE
  5
428
330
74
100
AcDbEntity
  8
Layer 1
100
AcDbLine
 10
53.855812
 20
80.28541099999999
 30
0.0
 11
53.754731
 21
83.00271999999999
 31
0.0
  0
LINE
  5
429
330
74
100
AcDbEntity
  8
Layer 1
100
AcDbLine
 10
53.754731
 20
83.00271999999999
 30
0.0
 11
53.754731
 21
86.01015
 31
0.0
  0
LINE
  5
42A
330
74
100
AcDbEntity
  8
Layer 1
100
AcDbLine
 10
53.754731
 20
86.01015
 30
0.0
 11
54.98063399999999
 21
88.52369200000001
 31
0.0
  0
LINE
  5
42B
330
74
100
AcDbEntity
  8
Layer 1
100
AcDbLine
 10
54.98063399999999
 20
88.52369200000001
 30
0.0
 11
55.91816
 21
90.23773400000001
 31
0.0
  0
LINE
  5
42C
330
74
100
AcDbEntity
  8
Layer 1
100
AcDbLine
 10
55.91816
 20
90.23773400000001
 30
0.0
 11
56.96277399999999
 21
91.774988
 31
0.0
  0
LINE
  5
42D
330
74
100
AcDbEntity
  8
Layer 1
100
AcDbLine
 10
56.96277399999999
 20
91.774988
 30
0.0
 11
58.106065
 21
93.128443
 31
0.0
  0
LINE
  5
42E
330
74
100
AcDbEntity
  8
Layer 1
100
AcDbLine
 10
58.106065
 20
93.128443
 30
0.0
 11
59.339624
 21
94.29108900000001
 31
0.0
  0
LINE
  5
42F
330
74
100
AcDbEntity
  8
Layer 1
100
AcDbLine
 10
59.339624
 20
94.29108900000001
 30
0.0
 11
60.655042
 21
95.25591199999999
 31
0.0
  0
LINE
  5
430
330
74
100
AcDbEntity
  8
Layer 1
100
AcDbLine
 10
60.655042
 20
95.25591199999999
 30
0.0
 11
62.043907
 21
96.015904
 31
0.0
  0
LINE
  5
431
330
74
100
AcDbEntity
  8
Layer 1
100
AcDbLine
 10
62.043907
 20
96.015904
 30
0.0
 11
63.49781
 21
96.564051
 31
0.0
  0
LINE
  5
432
330
74
100
AcDbEntity
  8
Layer 1
100
AcDbLine
 10
63.49781
 20
96.564051
 30
0.0
 11
65.00834199999999
 21
96.89334500000001
 31
0.0
  0
LINE
  5
433
330
74
100
AcDbEntity
  8
Layer 1
100
AcDbLine
 10
65.00834199999999
 20
96.89334500000001
 30
0.0
 11
66.886884
 21
97.23730299999999
 31
0.0
  0
LINE
  5
434
330
74
100
AcDbEntity
  8
Layer 1
100
AcDbLine
 10
66.886884
 20
97.23730299999999
 30
0.0
 11
65.85409799999999
 21
98.737735
 31
0.0
  0
LINE
  5
435
330
74
100
AcDbEntity
  8
Layer 1
100
AcDbLine
 10
65.85409799999999
 20
98.737735
 30
0.0
 11
63.15396299999999
 21
102.053653
 31
0.0
  0
LINE
  5
436
330
74
100
AcDbEntity
  8
Layer 1
100
AcDbLine
 10
63.15396299999999
 20
102.053653
 30
0.0
 11
59.868483
 21
105.891657
 31
0.0
  0
LINE
  5
437
330
74
100
AcDbEntity
  8
Layer 1
100
AcDbLine
 10
59.868483
 20
105.891657
 30
0.0
 11
57.079662
 21
108.958345
 31
0.0
  0
LINE
  5
438
330
74
100
AcDbEntity
  8
Layer 1
100
AcDbLine
 10
57.079662
 20
108.958345
 30
0.0
 11
52.925066
 21
112.923409
 31
0.0
  0
LINE
  5
439
330
74
100
AcDbEntity
  8
Layer 1
100
AcDbLine
 10
52.925066
 20
112.923409
 30
0.0
 11
48.876939
 21
116.129995
 31
0.0
  0
LINE
  5
43A
330
74
100
AcDbEntity
  8
Layer 1
100
AcDbLine
 10
48.876939
 20
116.129995
 30
0.0
 11
44.921736
 21
118.588413
 31
0.0
  0
LINE
  5
43B
330
74
100
AcDbEntity
  8
Layer 1
100
AcDbLine
 10
44.921736
 20
118.588413
 30
0.0
 11
42.97474799999999
 21
119.54028
 31
0.0
  0
LINE
  5
43C
330
74
100
AcDbEntity
  8
Layer 1
100
AcDbLine
 10
42.97474799999999
 20
119.54028
 30
0.0
 11
41.045912
 21
120.30897
 31
0.0
  0
LINE
  5
43D
330
74
100
AcDbEntity
  8
Layer 1
100
AcDbLine
 10
41.045912
 20
120.30897
 30
0.0
 11
40.02285599999999
 21
120.670567
 31
0.0
  0
LINE
  5
43E
330
74
100
AcDbEntity
  8
Layer 1
100
AcDbLine
 10
40.02285599999999
 20
120.670567
 30
0.0
 11
38.735217
 21
118.130567
 31
0.0
  0
LINE
  5
43F
330
74
100
AcDbEntity
  8
Layer 1
100
AcDbLine
 10
38.735217
 20
118.130567
 30
0.0
 11
35.304453
 21
111.948136
 31
0.0
  0
LINE
  5
440
330
74
100
AcDbEntity
  8
Layer 1
100
AcDbLine
 10
35.304453
 20
111.948136
 30
0.0
 11
31.737543
 21
105.437069
 31
0.0
  0
LINE
  5
441
330
74
100
AcDbEntity
  8
Layer 1
100
AcDbLine
 10
31.737543
 20
105.437069
 30
0.0
 11
30.410593
 21
102.665562
 31
0.0
  0
LINE
  5
442
330
74
100
AcDbEntity
  8
Layer 1
100
AcDbLine
 10
30.410593
 20
102.665562
 30
0.0
 11
29.554176
 21
100.544595
 31
0.0
  0
LINE
  5
443
330
74
100
AcDbEntity
  8
Layer 1
100
AcDbLine
 10
29.554176
 20
100.544595
 30
0.0
 11
29.120248
 21
99.42996700000001
 31
0.0
  0
LINE
  5
444
330
74
100
AcDbEntity
  8
Layer 1
100
AcDbLine
 10
29.120248
 20
99.42996700000001
 30
0.0
 11
28.685037
 21
98.703476
 31
0.0
  0
LINE
  5
445
330
74
100
AcDbEntity
  8
Layer 1
100
AcDbLine
 10
28.685037
 20
98.703476
 30
0.0
 11
28.20153
 21
98.30884499999999
 31
0.0
  0
LINE
  5
446
330
74
100
AcDbEntity
  8
Layer 1
100
AcDbLine
 10
28.20153
 20
98.30884499999999
 30
0.0
 11
27.622719
 21
98.18980299999999
 31
0.0
  0
LINE
  5
447
330
74
100
AcDbEntity
  8
Layer 1
100
AcDbLine
 10
27.622719
 20
98.18980299999999
 30
0.0
 11
27.355148
 21
98.235609
 31
0.0
  0
LINE
  5
448
330
74
100
AcDbEntity
  8
Layer 1
100
AcDbLine
 10
27.355148
 20
98.235609
 30
0.0
 11
27.216619
 21
98.439835
 31
0.0
  0
LINE
  5
449
330
74
100
AcDbEntity
  8
Layer 1
100
AcDbLine
 10
27.216619
 20
98.439835
 30
0.0
 11
27.225844
 21
99.724386
 31
0.0
  0
LINE
  5
44A
330
74
100
AcDbEntity
  8
Layer 1
100
AcDbLine
 10
27.225844
 20
99.724386
 30
0.0
 11
27.367404
 21
100.670287
 31
0.0
  0
LINE
  5
44B
330
74
100
AcDbEntity
  8
Layer 1
100
AcDbLine
 10
27.367404
 20
100.670287
 30
0.0
 11
27.721111
 21
101.77926
 31
0.0
  0
LINE
  5
44C
330
74
100
AcDbEntity
  8
Layer 1
100
AcDbLine
 10
27.721111
 20
101.77926
 30
0.0
 11
29.465981
 21
105.54522
 31
0.0
  0
LINE
  5
44D
330
74
100
AcDbEntity
  8
Layer 1
100
AcDbLine
 10
29.465981
 20
105.54522
 30
0.0
 11
32.552787
 21
111.930497
 31
0.0
  0
LINE
  5
44E
330
74
100
AcDbEntity
  8
Layer 1
100
AcDbLine
 10
32.552787
 20
111.930497
 30
0.0
 11
34.56362
 21
116.252025
 31
0.0
  0
LINE
  5
44F
330
74
100
AcDbEntity
  8
Layer 1
100
AcDbLine
 10
34.56362
 20
116.252025
 30
0.0
 11
36.141213
 21
119.810467
 31
0.0
  0
LINE
  5
450
330
74
100
AcDbEntity
  8
Layer 1
100
AcDbLine
 10
36.141213
 20
119.810467
 30
0.0
 11
36.865495
 21
121.755359
 31
0.0
  0
LINE
  5
451
330
74
100
AcDbEntity
  8
Layer 1
100
AcDbLine
 10
36.865495
 20
121.755359
 30
0.0
 11
36.13655700000001
 21
122.006841
 31
0.0
  0
LINE
  5
452
330
74
100
AcDbEntity
  8
Layer 1
100
AcDbLine
 10
36.13655700000001
 20
122.006841
 30
0.0
 11
34.687092
 21
122.125775
 31
0.0
  0
LINE
  5
453
330
74
100
AcDbEntity
  8
Layer 1
100
AcDbLine
 10
34.687092
 20
122.125775
 30
0.0
 11
34.687092
 21
122.125775
 31
0.0
  0
LINE
  5
454
330
74
100
AcDbEntity
  8
Layer 1
100
AcDbLine
 10
46.15236999999999
 20
92.598275
 30
0.0
 11
46.92536099999999
 21
92.298811
 31
0.0
  0
LINE
  5
455
330
74
100
AcDbEntity
  8
Layer 1
100
AcDbLine
 10
46.92536099999999
 20
92.298811
 30
0.0
 11
47.97453299999999
 21
91.475029
 31
0.0
  0
LINE
  5
456
330
74
100
AcDbEntity
  8
Layer 1
100
AcDbLine
 10
47.97453299999999
 20
91.475029
 30
0.0
 11
49.043075
 21
90.35297400000001
 31
0.0
  0
LINE
  5
457
330
74
100
AcDbEntity
  8
Layer 1
100
AcDbLine
 10
49.043075
 20
90.35297400000001
 30
0.0
 11
49.874176
 21
89.15869200000001
 31
0.0
  0
LINE
  5
458
330
74
100
AcDbEntity
  8
Layer 1
100
AcDbLine
 10
49.874176
 20
89.15869200000001
 30
0.0
 11
50.356183
 21
88.013446
 31
0.0
  0
LINE
  5
459
330
74
100
AcDbEntity
  8
Layer 1
100
AcDbLine
 10
50.356183
 20
88.013446
 30
0.0
 11
50.7079
 21
86.629374
 31
0.0
  0
LINE
  5
45A
330
74
100
AcDbEntity
  8
Layer 1
100
AcDbLine
 10
50.7079
 20
86.629374
 30
0.0
 11
51.01758
 21
83.360236
 31
0.0
  0
LINE
  5
45B
330
74
100
AcDbEntity
  8
Layer 1
100
AcDbLine
 10
51.01758
 20
83.360236
 30
0.0
 11
50.797449
 21
79.782253
 31
0.0
  0
LINE
  5
45C
330
74
100
AcDbEntity
  8
Layer 1
100
AcDbLine
 10
50.797449
 20
79.782253
 30
0.0
 11
50.48690399999999
 21
78.012125
 31
0.0
  0
LINE
  5
45D
330
74
100
AcDbEntity
  8
Layer 1
100
AcDbLine
 10
50.48690399999999
 20
78.012125
 30
0.0
 11
50.041745
 21
76.32640000000001
 31
0.0
  0
LINE
  5
45E
330
74
100
AcDbEntity
  8
Layer 1
100
AcDbLine
 10
50.041745
 20
76.32640000000001
 30
0.0
 11
49.230356
 21
74.562511
 31
0.0
  0
LINE
  5
45F
330
74
100
AcDbEntity
  8
Layer 1
100
AcDbLine
 10
49.230356
 20
74.562511
 30
0.0
 11
48.839299
 21
74.23872
 31
0.0
  0
LINE
  5
460
330
74
100
AcDbEntity
  8
Layer 1
100
AcDbLine
 10
48.839299
 20
74.23872
 30
0.0
 11
48.463065
 21
74.10389999999999
 31
0.0
  0
LINE
  5
461
330
74
100
AcDbEntity
  8
Layer 1
100
AcDbLine
 10
48.463065
 20
74.10389999999999
 30
0.0
 11
48.280994
 21
74.349259
 31
0.0
  0
LINE
  5
462
330
74
100
AcDbEntity
  8
Layer 1
100
AcDbLine
 10
48.280994
 20
74.349259
 30
0.0
 11
48.179097
 21
75.276332
 31
0.0
  0
LINE
  5
463
330
74
100
AcDbEntity
  8
Layer 1
100
AcDbLine
 10
48.179097
 20
75.276332
 30
0.0
 11
48.163203
 21
80.32160899999999
 31
0.0
  0
LINE
  5
464
330
74
100
AcDbEntity
  8
Layer 1
100
AcDbLine
 10
48.163203
 20
80.32160899999999
 30
0.0
 11
48.13846999999999
 21
85.823654
 31
0.0
  0
LINE
  5
465
330
74
100
AcDbEntity
  8
Layer 1
100
AcDbLine
 10
48.13846999999999
 20
85.823654
 30
0.0
 11
47.976182
 21
86.94899799999999
 31
0.0
  0
LINE
  5
466
330
74
100
AcDbEntity
  8
Layer 1
100
AcDbLine
 10
47.976182
 20
86.94899799999999
 30
0.0
 11
47.660495
 21
87.782859
 31
0.0
  0
LINE
  5
467
330
74
100
AcDbEntity
  8
Layer 1
100
AcDbLine
 10
47.660495
 20
87.782859
 30
0.0
 11
46.425773
 21
90.005359
 31
0.0
  0
LINE
  5
468
330
74
100
AcDbEntity
  8
Layer 1
100
AcDbLine
 10
46.425773
 20
90.005359
 30
0.0
 11
46.011551
 21
90.783743
 31
0.0
  0
LINE
  5
469
330
74
100
AcDbEntity
  8
Layer 1
100
AcDbLine
 10
46.011551
 20
90.783743
 30
0.0
 11
45.795522
 21
91.54746199999999
 31
0.0
  0
LINE
  5
46A
330
74
100
AcDbEntity
  8
Layer 1
100
AcDbLine
 10
45.795522
 20
91.54746199999999
 30
0.0
 11
45.79539899999999
 21
92.179538
 31
0.0
  0
LINE
  5
46B
330
74
100
AcDbEntity
  8
Layer 1
100
AcDbLine
 10
45.79539899999999
 20
92.179538
 30
0.0
 11
46.02889799999999
 21
92.56299699999999
 31
0.0
  0
LINE
  5
46C
330
74
100
AcDbEntity
  8
Layer 1
100
AcDbLine
 10
46.02889799999999
 20
92.56299699999999
 30
0.0
 11
46.15236999999999
 21
92.598275
 31
0.0
  0
LINE
  5
46D
330
74
100
AcDbEntity
  8
Layer 1
100
AcDbLine
 10
46.15236999999999
 20
92.598275
 30
0.0
 11
46.15236999999999
 21
92.598275
 31
0.0
  0
LINE
  5
46E
330
74
100
AcDbEntity
  8
Layer 1
100
AcDbLine
 10
68.18334200000001
 20
91.86626099999999
 30
0.0
 11
67.31021700000001
 21
91.830984
 31
0.0
  0
LINE
  5
46F
330
74
100
AcDbEntity
  8
Layer 1
100
AcDbLine
 10
67.31021700000001
 20
91.830984
 30
0.0
 11
65.93711
 21
91.46833599999999
 31
0.0
  0
LINE
  5
470
330
74
100
AcDbEntity
  8
Layer 1
100
AcDbLine
 10
65.93711
 20
91.46833599999999
 30
0.0
 11
64.246639
 21
90.74658799999999
 31
0.0
  0
LINE
  5
471
330
74
100
AcDbEntity
  8
Layer 1
100
AcDbLine
 10
64.246639
 20
90.74658799999999
 30
0.0
 11
62.608496
 21
89.84604799999999
 31
0.0
  0
LINE
  5
472
330
74
100
AcDbEntity
  8
Layer 1
100
AcDbLine
 10
62.608496
 20
89.84604799999999
 30
0.0
 11
61.39236999999999
 21
88.94702499999999
 31
0.0
  0
LINE
  5
473
330
74
100
AcDbEntity
  8
Layer 1
100
AcDbLine
 10
61.39236999999999
 20
88.94702499999999
 30
0.0
 11
60.540093
 21
87.86045899999999
 31
0.0
  0
LINE
  5
474
330
74
100
AcDbEntity
  8
Layer 1
100
AcDbLine
 10
60.540093
 20
87.86045899999999
 30
0.0
 11
59.869578
 21
86.42535200000001
 31
0.0
  0
LINE
  5
475
330
74
100
AcDbEntity
  8
Layer 1
100
AcDbLine
 10
59.869578
 20
86.42535200000001
 30
0.0
 11
59.40704
 21
84.71429300000002
 31
0.0
  0
LINE
  5
476
330
74
100
AcDbEntity
  8
Layer 1
100
AcDbLine
 10
59.40704
 20
84.71429300000002
 30
0.0
 11
59.17869
 21
82.79987199999998
 31
0.0
  0
LINE
  5
477
330
74
100
AcDbEntity
  8
Layer 1
100
AcDbLine
 10
59.17869
 20
82.79987199999998
 30
0.0
 11
59.16667
 21
81.06380300000001
 31
0.0
  0
LINE
  5
478
330
74
100
AcDbEntity
  8
Layer 1
100
AcDbLine
 10
59.16667
 20
81.06380300000001
 30
0.0
 11
59.359573
 21
79.91271199999999
 31
0.0
  0
LINE
  5
479
330
74
100
AcDbEntity
  8
Layer 1
100
AcDbLine
 10
59.359573
 20
79.91271199999999
 30
0.0
 11
59.78394399999999
 21
79.27475
 31
0.0
  0
LINE
  5
47A
330
74
100
AcDbEntity
  8
Layer 1
100
AcDbLine
 10
59.78394399999999
 20
79.27475
 30
0.0
 11
60.46632800000001
 21
79.078067
 31
0.0
  0
LINE
  5
47B
330
74
100
AcDbEntity
  8
Layer 1
100
AcDbLine
 10
60.46632800000001
 20
79.078067
 30
0.0
 11
60.90010899999999
 21
79.00920500000001
 31
0.0
  0
LINE
  5
47C
330
74
100
AcDbEntity
  8
Layer 1
100
AcDbLine
 10
60.90010899999999
 20
79.00920500000001
 30
0.0
 11
61.358798
 21
78.774638
 31
0.0
  0
LINE
  5
47D
330
74
100
AcDbEntity
  8
Layer 1
100
AcDbLine
 10
61.358798
 20
78.774638
 30
0.0
 11
62.591815
 21
77.640497
 31
0.0
  0
LINE
  5
47E
330
74
100
AcDbEntity
  8
Layer 1
100
AcDbLine
 10
62.591815
 20
77.640497
 30
0.0
 11
63.68206
 21
76.620339
 31
0.0
  0
LINE
  5
47F
330
74
100
AcDbEntity
  8
Layer 1
100
AcDbLine
 10
63.68206
 20
76.620339
 30
0.0
 11
64.39980099999999
 21
76.194109
 31
0.0
  0
LINE
  5
480
330
74
100
AcDbEntity
  8
Layer 1
100
AcDbLine
 10
64.39980099999999
 20
76.194109
 30
0.0
 11
64.927506
 21
76.39241
 31
0.0
  0
LINE
  5
481
330
74
100
AcDbEntity
  8
Layer 1
100
AcDbLine
 10
64.927506
 20
76.39241
 30
0.0
 11
65.563967
 21
76.86438599999999
 31
0.0
  0
LINE
  5
482
330
74
100
AcDbEntity
  8
Layer 1
100
AcDbLine
 10
65.563967
 20
76.86438599999999
 30
0.0
 11
66.98915799999999
 21
77.805498
 31
0.0
  0
LINE
  5
483
330
74
100
AcDbEntity
  8
Layer 1
100
AcDbLine
 10
66.98915799999999
 20
77.805498
 30
0.0
 11
69.409245
 21
79.139803
 31
0.0
  0
LINE
  5
484
330
74
100
AcDbEntity
  8
Layer 1
100
AcDbLine
 10
69.409245
 20
79.139803
 30
0.0
 11
72.089634
 21
80.681267
 31
0.0
  0
LINE
  5
485
330
74
100
AcDbEntity
  8
Layer 1
100
AcDbLine
 10
72.089634
 20
80.681267
 30
0.0
 11
73.94244
 21
82.085497
 31
0.0
  0
LINE
  5
486
330
74
100
AcDbEntity
  8
Layer 1
100
AcDbLine
 10
73.94244
 20
82.085497
 30
0.0
 11
75.353551
 21
83.41723399999999
 31
0.0
  0
LINE
  5
487
330
74
100
AcDbEntity
  8
Layer 1
100
AcDbLine
 10
75.353551
 20
83.41723399999999
 30
0.0
 11
74.70973100000001
 21
85.32223399999999
 31
0.0
  0
LINE
  5
488
330
74
100
AcDbEntity
  8
Layer 1
100
AcDbLine
 10
74.70973100000001
 20
85.32223399999999
 30
0.0
 11
73.236884
 21
88.664803
 31
0.0
  0
LINE
  5
489
330
74
100
AcDbEntity
  8
Layer 1
100
AcDbLine
 10
73.236884
 20
88.664803
 30
0.0
 11
72.271066
 21
89.959363
 31
0.0
  0
LINE
  5
48A
330
74
100
AcDbEntity
  8
Layer 1
100
AcDbLine
 10
72.271066
 20
89.959363
 30
0.0
 11
71.06137499999999
 21
90.94856599999999
 31
0.0
  0
LINE
  5
48B
330
74
100
AcDbEntity
  8
Layer 1
100
AcDbLine
 10
71.06137499999999
 20
90.94856599999999
 30
0.0
 11
69.67605299999999
 21
91.59625099999999
 31
0.0
  0
LINE
  5
48C
330
74
100
AcDbEntity
  8
Layer 1
100
AcDbLine
 10
69.67605299999999
 20
91.59625099999999
 30
0.0
 11
68.18334200000001
 21
91.86626099999999
 31
0.0
  0
LINE
  5
48D
330
74
100
AcDbEntity
  8
Layer 1
100
AcDbLine
 10
68.18334200000001
 20
91.86626099999999
 30
0.0
 11
68.18334200000001
 21
91.86626099999999
 31
0.0
  0
LINE
  5
48E
330
74
100
AcDbEntity
  8
Layer 1
100
AcDbLine
 10
33.813967
 20
86.38938600000001
 30
0.0
 11
34.228223
 21
86.17958900000001
 31
0.0
  0
LINE
  5
48F
330
74
100
AcDbEntity
  8
Layer 1
100
AcDbLine
 10
34.228223
 20
86.17958900000001
 30
0.0
 11
34.598898
 21
85.551539
 31
0.0
  0
LINE
  5
490
330
74
100
AcDbEntity
  8
Layer 1
100
AcDbLine
 10
34.598898
 20
85.551539
 30
0.0
 11
35.09522800000001
 21
84.73178799999999
 31
0.0
  0
LINE
  5
491
330
74
100
AcDbEntity
  8
Layer 1
100
AcDbLine
 10
35.09522800000001
 20
84.73178799999999
 30
0.0
 11
35.925183
 21
83.87176999999999
 31
0.0
  0
LINE
  5
492
330
74
100
AcDbEntity
  8
Layer 1
100
AcDbLine
 10
35.925183
 20
83.87176999999999
 30
0.0
 11
37.110642
 21
82.952054
 31
0.0
  0
LINE
  5
493
330
74
100
AcDbEntity
  8
Layer 1
100
AcDbLine
 10
37.110642
 20
82.952054
 30
0.0
 11
38.673481
 21
81.953206
 31
0.0
  0
LINE
  5
494
330
74
100
AcDbEntity
  8
Layer 1
100
AcDbLine
 10
38.673481
 20
81.953206
 30
0.0
 11
40.05120699999999
 21
81.08268100000001
 31
0.0
  0
LINE
  5
495
330
74
100
AcDbEntity
  8
Layer 1
100
AcDbLine
 10
40.05120699999999
 20
81.08268100000001
 30
0.0
 11
41.02361799999999
 21
80.297268
 31
0.0
  0
LINE
  5
496
330
74
100
AcDbEntity
  8
Layer 1
100
AcDbLine
 10
41.02361799999999
 20
80.297268
 30
0.0
 11
41.802124
 21
79.393937
 31
0.0
  0
LINE
  5
497
330
74
100
AcDbEntity
  8
Layer 1
100
AcDbLine
 10
41.802124
 20
79.393937
 30
0.0
 11
42.598134
 21
78.169664
 31
0.0
  0
LINE
  5
498
330
74
100
AcDbEntity
  8
Layer 1
100
AcDbLine
 10
42.598134
 20
78.169664
 30
0.0
 11
43.185817
 21
77.040261
 31
0.0
  0
LINE
  5
499
330
74
100
AcDbEntity
  8
Layer 1
100
AcDbLine
 10
43.185817
 20
77.040261
 30
0.0
 11
43.645908
 21
75.83175200000001
 31
0.0
  0
LINE
  5
49A
330
74
100
AcDbEntity
  8
Layer 1
100
AcDbLine
 10
43.645908
 20
75.83175200000001
 30
0.0
 11
44.170714
 21
73.30315999999999
 31
0.0
  0
LINE
  5
49B
330
74
100
AcDbEntity
  8
Layer 1
100
AcDbLine
 10
44.170714
 20
73.30315999999999
 30
0.0
 11
44.14735499999999
 21
70.83539
 31
0.0
  0
LINE
  5
49C
330
74
100
AcDbEntity
  8
Layer 1
100
AcDbLine
 10
44.14735499999999
 20
70.83539
 30
0.0
 11
43.922239
 21
69.70290699999999
 31
0.0
  0
LINE
  5
49D
330
74
100
AcDbEntity
  8
Layer 1
100
AcDbLine
 10
43.922239
 20
69.70290699999999
 30
0.0
 11
43.550634
 21
68.67994200000001
 31
0.0
  0
LINE
  5
49E
330
74
100
AcDbEntity
  8
Layer 1
100
AcDbLine
 10
43.550634
 20
68.67994200000001
 30
0.0
 11
42.472388
 21
66.95444599999999
 31
0.0
  0
LINE
  5
49F
330
74
100
AcDbEntity
  8
Layer 1
100
AcDbLine
 10
42.472388
 20
66.95444599999999
 30
0.0
 11
40.98609999999999
 21
65.489187
 31
0.0
  0
LINE
  5
4A0
330
74
100
AcDbEntity
  8
Layer 1
100
AcDbLine
 10
40.98609999999999
 20
65.489187
 30
0.0
 11
39.141662
 21
64.325052
 31
0.0
  0
LINE
  5
4A1
330
74
100
AcDbEntity
  8
Layer 1
100
AcDbLine
 10
39.141662
 20
64.325052
 30
0.0
 11
36.988967
 21
63.502928
 31
0.0
  0
LINE
  5
4A2
330
74
100
AcDbEntity
  8
Layer 1
100
AcDbLine
 10
36.988967
 20
63.502928
 30
0.0
 11
35.399382
 21
63.254634
 31
0.0
  0
LINE
  5
4A3
330
74
100
AcDbEntity
  8
Layer 1
100
AcDbLine
 10
35.399382
 20
63.254634
 30
0.0
 11
33.893342
 21
63.61758100000001
 31
0.0
  0
LINE
  5
4A4
330
74
100
AcDbEntity
  8
Layer 1
100
AcDbLine
 10
33.893342
 20
63.61758100000001
 30
0.0
 11
33.358753
 21
63.883551
 31
0.0
  0
LINE
  5
4A5
330
74
100
AcDbEntity
  8
Layer 1
100
AcDbLine
 10
33.358753
 20
63.883551
 30
0.0
 11
33.08217800000001
 21
64.213008
 31
0.0
  0
LINE
  5
4A6
330
74
100
AcDbEntity
  8
Layer 1
100
AcDbLine
 10
33.08217800000001
 20
64.213008
 30
0.0
 11
33.037
 21
64.67029000000001
 31
0.0
  0
LINE
  5
4A7
330
74
100
AcDbEntity
  8
Layer 1
100
AcDbLine
 10
33.037
 20
64.67029000000001
 30
0.0
 11
33.19660600000001
 21
65.319734
 31
0.0
  0
LINE
  5
4A8
330
74
100
AcDbEntity
  8
Layer 1
100
AcDbLine
 10
33.19660600000001
 20
65.319734
 30
0.0
 11
33.514309
 21
65.994339
 31
0.0
  0
LINE
  5
4A9
330
74
100
AcDbEntity
  8
Layer 1
100
AcDbLine
 10
33.514309
 20
65.994339
 30
0.0
 11
34.022594
 21
66.51818100000001
 31
0.0
  0
LINE
  5
4AA
330
74
100
AcDbEntity
  8
Layer 1
100
AcDbLine
 10
34.022594
 20
66.51818100000001
 30
0.0
 11
34.821235
 21
66.965351
 31
0.0
  0
LINE
  5
4AB
330
74
100
AcDbEntity
  8
Layer 1
100
AcDbLine
 10
34.821235
 20
66.965351
 30
0.0
 11
36.01000900000001
 21
67.409942
 31
0.0
  0
LINE
  5
4AC
330
74
100
AcDbEntity
  8
Layer 1
100
AcDbLine
 10
36.01000900000001
 20
67.409942
 30
0.0
 11
36.954138
 21
67.84586800000001
 31
0.0
  0
LINE
  5
4AD
330
74
100
AcDbEntity
  8
Layer 1
100
AcDbLine
 10
36.954138
 20
67.84586800000001
 30
0.0
 11
37.8206
 21
68.45228099999999
 31
0.0
  0
LINE
  5
4AE
330
74
100
AcDbEntity
  8
Layer 1
100
AcDbLine
 10
37.8206
 20
68.45228099999999
 30
0.0
 11
38.454249
 21
69.099763
 31
0.0
  0
LINE
  5
4AF
330
74
100
AcDbEntity
  8
Layer 1
100
AcDbLine
 10
38.454249
 20
69.099763
 30
0.0
 11
38.69994000000001
 21
69.6589
 31
0.0
  0
LINE
  5
4B0
330
74
100
AcDbEntity
  8
Layer 1
100
AcDbLine
 10
38.69994000000001
 20
69.6589
 30
0.0
 11
38.48139600000001
 21
70.06852399999999
 31
0.0
  0
LINE
  5
4B1
330
74
100
AcDbEntity
  8
Layer 1
100
AcDbLine
 10
38.48139600000001
 20
70.06852399999999
 30
0.0
 11
37.881237
 21
70.398818
 31
0.0
  0
LINE
  5
4B2
330
74
100
AcDbEntity
  8
Layer 1
100
AcDbLine
 10
37.881237
 20
70.398818
 30
0.0
 11
36.982669
 21
70.61932699999999
 31
0.0
  0
LINE
  5
4B3
330
74
100
AcDbEntity
  8
Layer 1
100
AcDbLine
 10
36.982669
 20
70.61932699999999
 30
0.0
 11
35.868898
 21
70.699595
 31
0.0
  0
LINE
  5
4B4
330
74
100
AcDbEntity
  8
Layer 1
100
AcDbLine
 10
35.868898
 20
70.699595
 30
0.0
 11
34.53257
 21
70.586528
 31
0.0
  0
LINE
  5
4B5
330
74
100
AcDbEntity
  8
Layer 1
100
AcDbLine
 10
34.53257
 20
70.586528
 30
0.0
 11
33.522621
 21
70.199646
 31
0.0
  0
LINE
  5
4B6
330
74
100
AcDbEntity
  8
Layer 1
100
AcDbLine
 10
33.522621
 20
70.199646
 30
0.0
 11
32.722287
 21
69.467426
 31
0.0
  0
LINE
  5
4B7
330
74
100
AcDbEntity
  8
Layer 1
100
AcDbLine
 10
32.722287
 20
69.467426
 30
0.0
 11
32.014801
 21
68.31834499999999
 31
0.0
  0
LINE
  5
4B8
330
74
100
AcDbEntity
  8
Layer 1
100
AcDbLine
 10
32.014801
 20
68.31834499999999
 30
0.0
 11
31.449404
 21
67.409296
 31
0.0
  0
LINE
  5
4B9
330
74
100
AcDbEntity
  8
Layer 1
100
AcDbLine
 10
31.449404
 20
67.409296
 30
0.0
 11
31.009384
 21
67.03070600000001
 31
0.0
  0
LINE
  5
4BA
330
74
100
AcDbEntity
  8
Layer 1
100
AcDbLine
 10
31.009384
 20
67.03070600000001
 30
0.0
 11
30.56665300000001
 21
67.19619200000001
 31
0.0
  0
LINE
  5
4BB
330
74
100
AcDbEntity
  8
Layer 1
100
AcDbLine
 10
30.56665300000001
 20
67.19619200000001
 30
0.0
 11
30.12194
 21
67.68734399999999
 31
0.0
  0
LINE
  5
4BC
330
74
100
AcDbEntity
  8
Layer 1
100
AcDbLine
 10
30.12194
 20
67.68734399999999
 30
0.0
 11
29.245495
 21
69.61480300000001
 31
0.0
  0
LINE
  5
4BD
330
74
100
AcDbEntity
  8
Layer 1
100
AcDbLine
 10
29.245495
 20
69.61480300000001
 30
0.0
 11
28.830121
 21
71.261285
 31
0.0
  0
LINE
  5
4BE
330
74
100
AcDbEntity
  8
Layer 1
100
AcDbLine
 10
28.830121
 20
71.261285
 30
0.0
 11
29.139662
 21
73.05438599999999
 31
0.0
  0
LINE
  5
4BF
330
74
100
AcDbEntity
  8
Layer 1
100
AcDbLine
 10
29.139662
 20
73.05438599999999
 30
0.0
 11
29.630226
 21
74.538973
 31
0.0
  0
LINE
  5
4C0
330
74
100
AcDbEntity
  8
Layer 1
100
AcDbLine
 10
29.630226
 20
74.538973
 30
0.0
 11
30.33597800000001
 21
76.07060699999999
 31
0.0
  0
LINE
  5
4C1
330
74
100
AcDbEntity
  8
Layer 1
100
AcDbLine
 10
30.33597800000001
 20
76.07060699999999
 30
0.0
 11
31.116054
 21
77.379565
 31
0.0
  0
LINE
  5
4C2
330
74
100
AcDbEntity
  8
Layer 1
100
AcDbLine
 10
31.116054
 20
77.379565
 30
0.0
 11
31.829592
 21
78.196122
 31
0.0
  0
LINE
  5
4C3
330
74
100
AcDbEntity
  8
Layer 1
100
AcDbLine
 10
31.829592
 20
78.196122
 30
0.0
 11
33.08195300000001
 21
78.928136
 31
0.0
  0
LINE
  5
4C4
330
74
100
AcDbEntity
  8
Layer 1
100
AcDbLine
 10
33.08195300000001
 20
78.928136
 30
0.0
 11
34.598898
 21
79.97765
 31
0.0
  0
LINE
  5
4C5
330
74
100
AcDbEntity
  8
Layer 1
100
AcDbLine
 10
34.598898
 20
79.97765
 30
0.0
 11
35.313273
 21
80.63910899999999
 31
0.0
  0
LINE
  5
4C6
330
74
100
AcDbEntity
  8
Layer 1
100
AcDbLine
 10
35.313273
 20
80.63910899999999
 30
0.0
 11
34.122648
 21
82.37653900000001
 31
0.0
  0
LINE
  5
4C7
330
74
100
AcDbEntity
  8
Layer 1
100
AcDbLine
 10
34.122648
 20
82.37653900000001
 30
0.0
 11
33.381542
 21
83.615878
 31
0.0
  0
LINE
  5
4C8
330
74
100
AcDbEntity
  8
Layer 1
100
AcDbLine
 10
33.381542
 20
83.615878
 30
0.0
 11
32.986797
 21
84.65717899999999
 31
0.0
  0
LINE
  5
4C9
330
74
100
AcDbEntity
  8
Layer 1
100
AcDbLine
 10
32.986797
 20
84.65717899999999
 30
0.0
 11
32.941696
 21
85.48640799999999
 31
0.0
  0
LINE
  5
4CA
330
74
100
AcDbEntity
  8
Layer 1
100
AcDbLine
 10
32.941696
 20
85.48640799999999
 30
0.0
 11
33.249523
 21
86.08952499999999
 31
0.0
  0
LINE
  5
4CB
330
74
100
AcDbEntity
  8
Layer 1
100
AcDbLine
 10
33.249523
 20
86.08952499999999
 30
0.0
 11
33.813967
 21
86.38938600000001
 31
0.0
  0
LINE
  5
4CC
330
74
100
AcDbEntity
  8
Layer 1
100
AcDbLine
 10
33.813967
 20
86.38938600000001
 30
0.0
 11
33.813967
 21
86.38938600000001
 31
0.0
  0
LINE
  5
4CD
330
74
100
AcDbEntity
  8
Layer 1
100
AcDbLine
 10
73.88952299999999
 20
77.420011
 30
0.0
 11
71.38480099999999
 21
76.608622
 31
0.0
  0
LINE
  5
4CE
330
74
100
AcDbEntity
  8
Layer 1
100
AcDbLine
 10
71.38480099999999
 20
76.608622
 30
0.0
 11
67.23084200000001
 21
75.153414
 31
0.0
  0
LINE
  5
4CF
330
74
100
AcDbEntity
  8
Layer 1
100
AcDbLine
 10
67.23084200000001
 20
75.153414
 30
0.0
 11
65.460487
 21
74.43260999999999
 31
0.0
  0
LINE
  5
4D0
330
74
100
AcDbEntity
  8
Layer 1
100
AcDbLine
 10
65.460487
 20
74.43260999999999
 30
0.0
 11
64.545635
 21
73.71205500000001
 31
0.0
  0
LINE
  5
4D1
330
74
100
AcDbEntity
  8
Layer 1
100
AcDbLine
 10
64.545635
 20
73.71205500000001
 30
0.0
 11
64.43170699999999
 21
73.385458
 31
0.0
  0
LINE
  5
4D2
330
74
100
AcDbEntity
  8
Layer 1
100
AcDbLine
 10
64.43170699999999
 20
73.385458
 30
0.0
 11
64.55887299999999
 21
73.09922799999999
 31
0.0
  0
LINE
  5
4D3
330
74
100
AcDbEntity
  8
Layer 1
100
AcDbLine
 10
64.55887299999999
 20
73.09922799999999
 30
0.0
 11
64.93620899999999
 21
72.8668
 31
0.0
  0
LINE
  5
4D4
330
74
100
AcDbEntity
  8
Layer 1
100
AcDbLine
 10
64.93620899999999
 20
72.8668
 30
0.0
 11
65.57278700000001
 21
72.70160899999999
 31
0.0
  0
LINE
  5
4D5
330
74
100
AcDbEntity
  8
Layer 1
100
AcDbLine
 10
65.57278700000001
 20
72.70160899999999
 30
0.0
 11
66.904262
 21
72.571987
 31
0.0
  0
LINE
  5
4D6
330
74
100
AcDbEntity
  8
Layer 1
100
AcDbLine
 10
66.904262
 20
72.571987
 30
0.0
 11
68.148065
 21
72.78098400000001
 31
0.0
  0
LINE
  5
4D7
330
74
100
AcDbEntity
  8
Layer 1
100
AcDbLine
 10
68.148065
 20
72.78098400000001
 30
0.0
 11
70.37121500000001
 21
73.630992
 31
0.0
  0
LINE
  5
4D8
330
74
100
AcDbEntity
  8
Layer 1
100
AcDbLine
 10
70.37121500000001
 20
73.630992
 30
0.0
 11
72.30202299999999
 21
74.88883100000001
 31
0.0
  0
LINE
  5
4D9
330
74
100
AcDbEntity
  8
Layer 1
100
AcDbLine
 10
72.30202299999999
 20
74.88883100000001
 30
0.0
 11
73.576465
 21
76.37183399999999
 31
0.0
  0
LINE
  5
4DA
330
74
100
AcDbEntity
  8
Layer 1
100
AcDbLine
 10
73.576465
 20
76.37183399999999
 30
0.0
 11
73.935633
 21
77.032662
 31
0.0
  0
LINE
  5
4DB
330
74
100
AcDbEntity
  8
Layer 1
100
AcDbLine
 10
73.935633
 20
77.032662
 30
0.0
 11
73.96007799999999
 21
77.41119199999999
 31
0.0
  0
LINE
  5
4DC
330
74
100
AcDbEntity
  8
Layer 1
100
AcDbLine
 10
73.96007799999999
 20
77.41119199999999
 30
0.0
 11
73.88952299999999
 21
77.420011
 31
0.0
  0
LINE
  5
4DD
330
74
100
AcDbEntity
  8
Layer 1
100
AcDbLine
 10
73.88952299999999
 20
77.420011
 30
0.0
 11
73.88952299999999
 21
77.420011
 31
0.0
  0
LINE
  5
4DE
330
74
100
AcDbEntity
  8
Layer 1
100
AcDbLine
 10
58.526051
 20
70.71723399999999
 30
0.0
 11
57.95174499999999
 21
70.557926
 31
0.0
  0
LINE
  5
4DF
330
74
100
AcDbEntity
  8
Layer 1
100
AcDbLine
 10
57.95174499999999
 20
70.557926
 30
0.0
 11
57.23517199999999
 21
70.084907
 31
0.0
  0
LINE
  5
4E0
330
74
100
AcDbEntity
  8
Layer 1
100
AcDbLine
 10
57.23517199999999
 20
70.084907
 30
0.0
 11
55.510425
 21
68.344818
 31
0.0
  0
LINE
  5
4E1
330
74
100
AcDbEntity
  8
Layer 1
100
AcDbLine
 10
55.510425
 20
68.344818
 30
0.0
 11
53.622206
 21
65.791127
 31
0.0
  0
LINE
  5
4E2
330
74
100
AcDbEntity
  8
Layer 1
100
AcDbLine
 10
53.622206
 20
65.791127
 30
0.0
 11
51.84091200000001
 21
62.71799699999999
 31
0.0
  0
LINE
  5
4E3
330
74
100
AcDbEntity
  8
Layer 1
100
AcDbLine
 10
51.84091200000001
 20
62.71799699999999
 30
0.0
 11
49.983832
 21
58.610604
 31
0.0
  0
LINE
  5
4E4
330
74
100
AcDbEntity
  8
Layer 1
100
AcDbLine
 10
49.983832
 20
58.610604
 30
0.0
 11
48.904037
 21
55.724178
 31
0.0
  0
LINE
  5
4E5
330
74
100
AcDbEntity
  8
Layer 1
100
AcDbLine
 10
48.904037
 20
55.724178
 30
0.0
 11
48.961961
 21
55.575652
 31
0.0
  0
LINE
  5
4E6
330
74
100
AcDbEntity
  8
Layer 1
100
AcDbLine
 10
48.961961
 20
55.575652
 30
0.0
 11
49.330434
 21
55.618708
 31
0.0
  0
LINE
  5
4E7
330
74
100
AcDbEntity
  8
Layer 1
100
AcDbLine
 10
49.330434
 20
55.618708
 30
0.0
 11
52.167231
 21
56.579664
 31
0.0
  0
LINE
  5
4E8
330
74
100
AcDbEntity
  8
Layer 1
100
AcDbLine
 10
52.167231
 20
56.579664
 30
0.0
 11
54.91907499999999
 21
57.68279
 31
0.0
  0
LINE
  5
4E9
330
74
100
AcDbEntity
  8
Layer 1
100
AcDbLine
 10
54.91907499999999
 20
57.68279
 30
0.0
 11
55.84842
 21
58.220193
 31
0.0
  0
LINE
  5
4EA
330
74
100
AcDbEntity
  8
Layer 1
100
AcDbLine
 10
55.84842
 20
58.220193
 30
0.0
 11
56.52946299999999
 21
58.80176999999999
 31
0.0
  0
LINE
  5
4EB
330
74
100
AcDbEntity
  8
Layer 1
100
AcDbLine
 10
56.52946299999999
 20
58.80176999999999
 30
0.0
 11
56.999263
 21
59.467733
 31
0.0
  0
LINE
  5
4EC
330
74
100
AcDbEntity
  8
Layer 1
100
AcDbLine
 10
56.999263
 20
59.467733
 30
0.0
 11
57.29488199999999
 21
60.258291
 31
0.0
  0
LINE
  5
4ED
330
74
100
AcDbEntity
  8
Layer 1
100
AcDbLine
 10
57.29488199999999
 20
60.258291
 30
0.0
 11
57.51181500000001
 21
62.374039
 31
0.0
  0
LINE
  5
4EE
330
74
100
AcDbEntity
  8
Layer 1
100
AcDbLine
 10
57.51181500000001
 20
62.374039
 30
0.0
 11
57.770081
 21
66.247156
 31
0.0
  0
LINE
  5
4EF
330
74
100
AcDbEntity
  8
Layer 1
100
AcDbLine
 10
57.770081
 20
66.247156
 30
0.0
 11
58.06522
 21
67.627374
 31
0.0
  0
LINE
  5
4F0
330
74
100
AcDbEntity
  8
Layer 1
100
AcDbLine
 10
58.06522
 20
67.627374
 30
0.0
 11
58.499592
 21
68.82987199999999
 31
0.0
  0
LINE
  5
4F1
330
74
100
AcDbEntity
  8
Layer 1
100
AcDbLine
 10
58.499592
 20
68.82987199999999
 30
0.0
 11
58.890337
 21
69.891171
 31
0.0
  0
LINE
  5
4F2
330
74
100
AcDbEntity
  8
Layer 1
100
AcDbLine
 10
58.890337
 20
69.891171
 30
0.0
 11
58.967023
 21
70.470289
 31
0.0
  0
LINE
  5
4F3
330
74
100
AcDbEntity
  8
Layer 1
100
AcDbLine
 10
58.967023
 20
70.470289
 30
0.0
 11
58.526051
 21
70.71723399999999
 31
0.0
  0
LINE
  5
4F4
330
74
100
AcDbEntity
  8
Layer 1
100
AcDbLine
 10
58.526051
 20
70.71723399999999
 30
0.0
 11
58.526051
 21
70.71723399999999
 31
0.0
  0
ENDSEC
  0
SECTION
  2
OBJECTS
  0
DICTIONARY
  5
C
330
0
100
AcDbDictionary
281
     1
  3
ACAD_COLOR
350
6A
  3
ACAD_GROUP
350
D
  3
ACAD_LAYOUT
350
69
  3
ACAD_MATERIAL
350
10
  3
ACAD_MLEADERSTYLE
350
6D
  3
ACAD_MLINESTYLE
350
66
  3
ACAD_PLOTSETTINGS
350
68
  3
ACAD_PLOTSTYLENAME
350
E
  3
ACAD_SCALELIST
350
3A
  3
ACAD_TABLESTYLE
350
6B
  3
ACAD_VISUALSTYLE
350
29
  3
ACDB_RECOMPOSE_DATA
350
4FE
  3
AcDbVariableDictionary
350
4FF
  3
DWGPROPS
350
50F
  0
DICTIONARY
  5
4F8
330
5C
100
AcDbDictionary
280
     1
281
     1
  3
ADSK_XREC_LAYER_RECONCILED
360
4F9
  0
DICTIONARY
  5
4FA
330
78
100
AcDbDictionary
280
     1
281
     1
  3
ADSK_XREC_LAYER_RECONCILED
360
4FB
  0
DICTIONARY
  5
6A
102
{ACAD_REACTORS
330
C
102
}
330
C
100
AcDbDictionary
281
     1
  0
DICTIONARY
  5
D
102
{ACAD_REACTORS
330
C
102
}
330
C
100
AcDbDictionary
281
     1
  0
DICTIONARY
  5
69
102
{ACAD_REACTORS
330
C
102
}
330
C
100
AcDbDictionary
281
     1
  3
Model
350
77
  3
Présentation1
350
73
  0
DICTIONARY
  5
10
102
{ACAD_REACTORS
330
C
102
}
330
C
100
AcDbDictionary
281
     1
  3
ByBlock
350
19
  3
ByLayer
350
11
  3
Global
350
21
  0
DICTIONARY
  5
6D
102
{ACAD_REACTORS
330
C
102
}
330
C
100
AcDbDictionary
281
     1
  3
Standard
350
6E
  0
DICTIONARY
  5
66
102
{ACAD_REACTORS
330
C
102
}
330
C
100
AcDbDictionary
281
     1
  3
Standard
350
67
  0
DICTIONARY
  5
68
102
{ACAD_REACTORS
330
C
102
}
330
C
100
AcDbDictionary
281
     1
  0
ACDBDICTIONARYWDFLT
  5
E
102
{ACAD_REACTORS
330
C
102
}
330
C
100
AcDbDictionary
281
     1
  3
Normal
350
F
100
AcDbDictionaryWithDefault
340
F
  0
DICTIONARY
  5
3A
102
{ACAD_REACTORS
330
C
102
}
330
C
100
AcDbDictionary
281
     1
  3
A0
350
3B
  3
A1
350
3C
  3
A2
350
3D
  3
A3
350
3E
  3
A4
350
3F
  3
A5
350
40
  3
A6
350
41
  3
A7
350
42
  3
A8
350
43
  3
A9
350
44
  3
B0
350
45
  3
B1
350
46
  3
B2
350
47
  3
B3
350
48
  3
B4
350
49
  3
B5
350
4A
  3
B6
350
4B
  3
B7
350
4C
  3
B8
350
4D
  3
B9
350
4E
  3
C0
350
4F
  3
C1
350
50
  3
C2
350
51
  3
C3
350
52
  3
C4
350
53
  3
C5
350
54
  3
C6
350
55
  3
C7
350
56
  3
C8
350
57
  3
C9
350
58
  3
D0
350
59
  3
D1
350
5A
  3
D2
350
5B
  0
DICTIONARY
  5
6B
102
{ACAD_REACTORS
330
C
102
}
330
C
100
AcDbDictionary
281
     1
  3
Standard
350
6C
  0
DICTIONARY
  5
29
102
{ACAD_REACTORS
330
C
102
}
330
C
100
AcDbDictionary
281
     1
  3
2dWireframe
350
2F
  3
3D Hidden
350
31
  3
3dWireframe
350
30
  3
Basic
350
2E
  3
Brighten
350
35
  3
ColorChange
350
39
  3
Conceptual
350
32
  3
Dim
350
34
  3
Facepattern
350
38
  3
Flat
350
2A
  3
FlatWithEdges
350
2B
  3
Gouraud
350
2C
  3
GouraudWithEdges
350
2D
  3
Linepattern
350
37
  3
Realistic
350
33
  3
Thicken
350
36
  0
XRECORD
  5
4FE
102
{ACAD_REACTORS
330
C
102
}
330
C
100
AcDbXrecord
280
     1
 90
        1
330
6C
  0
DICTIONARY
  5
4FF
102
{ACAD_REACTORS
330
C
102
}
330
C
100
AcDbDictionary
281
     1
  3
CANNOSCALE
350
503
  3
CMLEADERSTYLE
350
501
  3
CTABLESTYLE
350
500
  3
DIMASSOC
350
50D
  3
INDEXCTL
350
50C
  3
LAYEREVAL
350
505
  3
LAYERNOTIFY
350
506
  3
LIGHTINGUNITS
350
504
  3
MSLTSCALE
350
502
  3
SORTENTS
350
50B
  0
XRECORD
  5
50F
102
{ACAD_REACTORS
330
C
102
}
330
C
100
AcDbXrecord
280
     1
  1
DWGPROPS COOKIE
  2

  3

  4

  6

  7

  8
Administrateur
  9

300
=
301
=
302
=
303
=
304
=
305
=
306
=
307
=
308
=
309
=
 40
0.0007869097222222
 41
2454940.561001563
 42
2454951.910801528
  1

 90
        0
  0
XRECORD
  5
4F9
102
{ACAD_REACTORS
330
4F8
102
}
330
4F8
100
AcDbXrecord
280
     1
290
     1
  0
XRECORD
  5
4FB
102
{ACAD_REACTORS
330
4FA
102
}
330
4FA
100
AcDbXrecord
280
     1
290
     1
  0
LAYOUT
  5
77
102
{ACAD_XDICTIONARY
360
516
102
}
102
{ACAD_REACTORS
330
69
102
}
330
69
100
AcDbPlotSettings
  1

  2
Canon PIXMA iP1500
  4

  6

 40
0.0
 41
0.0
 42
0.0
 43
0.0
 44
0.0
 45
0.0
 46
0.0
 47
0.0
 48
0.0
 49
0.0
140
0.0
141
0.0
142
1.0
143
1.0
 70
  1712
 72
     0
 73
     0
 74
     0
  7

 75
     0
147
1.0
148
0.0
149
0.0
100
AcDbLayout
  1
Model
 70
     1
 71
     0
 10
0.0
 20
0.0
 11
12.0
 21
9.0
 12
0.0
 22
0.0
 32
0.0
 14
0.0
 24
0.0
 34
0.0
 15
0.0
 25
0.0
 35
0.0
146
0.0
 13
0.0
 23
0.0
 33
0.0
 16
1.0
 26
0.0
 36
0.0
 17
0.0
 27
1.0
 37
0.0
 76
     0
330
74
331
4F7
  0
LAYOUT
  5
73
102
{ACAD_XDICTIONARY
360
514
102
}
102
{ACAD_REACTORS
330
69
102
}
330
69
100
AcDbPlotSettings
  1

  2
Canon PIXMA iP1500
  4

  6

 40
0.0
 41
0.0
 42
0.0
 43
0.0
 44
0.0
 45
0.0
 46
0.0
 47
0.0
 48
0.0
 49
0.0
140
0.0
141
0.0
142
1.0
143
1.0
 70
   688
 72
     0
 73
     0
 74
     5
  7

 75
    16
147
1.0
148
0.0
149
0.0
100
AcDbLayout
  1
Présentation1
 70
     1
 71
     1
 10
0.0
 20
0.0
 11
12.0
 21
9.0
 12
0.0
 22
0.0
 32
0.0
 14
1.000000000000000E+20
 24
1.000000000000000E+20
 34
1.000000000000000E+20
 15
-1.000000000000000E+20
 25
-1.000000000000000E+20
 35
-1.000000000000000E+20
146
0.0
 13
0.0
 23
0.0
 33
0.0
 16
1.0
 26
0.0
 36
0.0
 17
0.0
 27
1.0
 37
0.0
 76
     0
330
70
  0
MATERIAL
  5
19
102
{ACAD_XDICTIONARY
360
1A
102
}
102
{ACAD_REACTORS
330
10
102
}
330
10
100
AcDbMaterial
  1
ByBlock
 72
     0
 43
0.0208333333333333
 43
0.0
 43
0.0
 43
0.0
 43
0.0
 43
0.0208333333333333
 43
0.0
 43
0.0
 43
0.0
 43
0.0
 43
1.0
 43
0.0
 43
0.0
 43
0.0
 43
0.0
 43
1.0
 77
     0
 47
0.0208333333333333
 47
0.0
 47
0.0
 47
0.0
 47
0.0
 47
0.0208333333333333
 47
0.0
 47
0.0
 47
0.0
 47
0.0
 47
1.0
 47
0.0
 47
0.0
 47
0.0
 47
0.0
 47
1.0
171
     0
 49
0.0208333333333333
 49
0.0
 49
0.0
 49
0.0
 49
0.0
 49
0.0208333333333333
 49
0.0
 49
0.0
 49
0.0
 49
0.0
 49
1.0
 49
0.0
 49
0.0
 49
0.0
 49
0.0
 49
1.0
175
     0
142
0.0208333333333333
142
0.0
142
0.0
142
0.0
142
0.0
142
0.0208333333333333
142
0.0
142
0.0
142
0.0
142
0.0
142
1.0
142
0.0
142
0.0
142
0.0
142
0.0
142
1.0
179
     0
144
0.0208333333333333
144
0.0
144
0.0
144
0.0
144
0.0
144
0.0208333333333333
144
0.0
144
0.0
144
0.0
144
0.0
144
1.0
144
0.0
144
0.0
144
0.0
144
0.0
144
1.0
147
0.0208333333333333
147
0.0
147
0.0
147
0.0
147
0.0
147
0.0208333333333333
147
0.0
147
0.0
147
0.0
147
0.0
147
1.0
147
0.0
147
0.0
147
0.0
147
0.0
147
1.0
  0
MATERIAL
  5
11
102
{ACAD_XDICTIONARY
360
12
102
}
102
{ACAD_REACTORS
330
10
102
}
330
10
100
AcDbMaterial
  1
ByLayer
 72
     0
 43
0.0208333333333333
 43
0.0
 43
0.0
 43
0.0
 43
0.0
 43
0.0208333333333333
 43
0.0
 43
0.0
 43
0.0
 43
0.0
 43
1.0
 43
0.0
 43
0.0
 43
0.0
 43
0.0
 43
1.0
 77
     0
 47
0.0208333333333333
 47
0.0
 47
0.0
 47
0.0
 47
0.0
 47
0.0208333333333333
 47
0.0
 47
0.0
 47
0.0
 47
0.0
 47
1.0
 47
0.0
 47
0.0
 47
0.0
 47
0.0
 47
1.0
171
     0
 49
0.0208333333333333
 49
0.0
 49
0.0
 49
0.0
 49
0.0
 49
0.0208333333333333
 49
0.0
 49
0.0
 49
0.0
 49
0.0
 49
1.0
 49
0.0
 49
0.0
 49
0.0
 49
0.0
 49
1.0
175
     0
142
0.0208333333333333
142
0.0
142
0.0
142
0.0
142
0.0
142
0.0208333333333333
142
0.0
142
0.0
142
0.0
142
0.0
142
1.0
142
0.0
142
0.0
142
0.0
142
0.0
142
1.0
179
     0
144
0.0208333333333333
144
0.0
144
0.0
144
0.0
144
0.0
144
0.0208333333333333
144
0.0
144
0.0
144
0.0
144
0.0
144
1.0
144
0.0
144
0.0
144
0.0
144
0.0
144
1.0
147
0.0208333333333333
147
0.0
147
0.0
147
0.0
147
0.0
147
0.0208333333333333
147
0.0
147
0.0
147
0.0
147
0.0
147
1.0
147
0.0
147
0.0
147
0.0
147
0.0
147
1.0
  0
MATERIAL
  5
21
102
{ACAD_XDICTIONARY
360
22
102
}
102
{ACAD_REACTORS
330
10
102
}
330
10
100
AcDbMaterial
  1
Global
 72
     0
 43
0.0208333333333333
 43
0.0
 43
0.0
 43
0.0
 43
0.0
 43
0.0208333333333333
 43
0.0
 43
0.0
 43
0.0
 43
0.0
 43
1.0
 43
0.0
 43
0.0
 43
0.0
 43
0.0
 43
1.0
 77
     0
 47
0.0208333333333333
 47
0.0
 47
0.0
 47
0.0
 47
0.0
 47
0.0208333333333333
 47
0.0
 47
0.0
 47
0.0
 47
0.0
 47
1.0
 47
0.0
 47
0.0
 47
0.0
 47
0.0
 47
1.0
171
     0
 49
0.0208333333333333
 49
0.0
 49
0.0
 49
0.0
 49
0.0
 49
0.0208333333333333
 49
0.0
 49
0.0
 49
0.0
 49
0.0
 49
1.0
 49
0.0
 49
0.0
 49
0.0
 49
0.0
 49
1.0
175
     0
142
0.0208333333333333
142
0.0
142
0.0
142
0.0
142
0.0
142
0.0208333333333333
142
0.0
142
0.0
142
0.0
142
0.0
142
1.0
142
0.0
142
0.0
142
0.0
142
0.0
142
1.0
179
     0
144
0.0208333333333333
144
0.0
144
0.0
144
0.0
144
0.0
144
0.0208333333333333
144
0.0
144
0.0
144
0.0
144
0.0
144
1.0
144
0.0
144
0.0
144
0.0
144
0.0
144
1.0
147
0.0208333333333333
147
0.0
147
0.0
147
0.0
147
0.0
147
0.0208333333333333
147
0.0
147
0.0
147
0.0
147
0.0
147
1.0
147
0.0
147
0.0
147
0.0
147
0.0
147
1.0
  0
MLEADERSTYLE
  5
6E
102
{ACAD_REACTORS
330
6D
102
}
330
6D
100
AcDbMLeaderStyle
170
     2
171
     1
172
     0
 90
        2
 40
0.0
 41
0.0
173
     1
 91
-1056964608
340
62
 92
       -2
290
     1
 42
0.09
291
     1
 43
0.36
  3
Standard
 44
0.18
300

342
5D
174
     1
178
     6
175
     1
176
     0
 93
-1056964608
 45
0.18
292
     0
297
     0
 46
0.18
 94
-1056964608
 47
1.0
 49
1.0
140
1.0
293
     1
141
0.0
294
     1
177
     0
142
1.0
295
     0
296
     0
143
0.125
1001
ACAD_MLEADERVER
1070
     2
  0
MLINESTYLE
  5
67
102
{ACAD_REACTORS
330
66
102
}
330
66
100
AcDbMlineStyle
  2
STANDARD
 70
     0
  3

 62
   256
 51
90.0
 52
90.0
 71
     2
 49
0.5
 62
   256
  6
BYLAYER
 49
-0.5
 62
   256
  6
BYLAYER
  0
ACDBPLACEHOLDER
  5
F
102
{ACAD_REACTORS
330
E
102
}
330
E
  0
SCALE
  5
3B
102
{ACAD_REACTORS
330
3A
102
}
330
3A
100
AcDbScale
 70
     0
300
1:1
140
1.0
141
1.0
290
     1
  0
SCALE
  5
3C
102
{ACAD_REACTORS
330
3A
102
}
330
3A
100
AcDbScale
 70
     0
300
1:2
140
1.0
141
2.0
290
     0
  0
SCALE
  5
3D
102
{ACAD_REACTORS
330
3A
102
}
330
3A
100
AcDbScale
 70
     0
300
1:4
140
1.0
141
4.0
290
     0
  0
SCALE
  5
3E
102
{ACAD_REACTORS
330
3A
102
}
330
3A
100
AcDbScale
 70
     0
300
1:5
140
1.0
141
5.0
290
     0
  0
SCALE
  5
3F
102
{ACAD_REACTORS
330
3A
102
}
330
3A
100
AcDbScale
 70
     0
300
1:8
140
1.0
141
8.0
290
     0
  0
SCALE
  5
40
102
{ACAD_REACTORS
330
3A
102
}
330
3A
100
AcDbScale
 70
     0
300
1:10
140
1.0
141
10.0
290
     0
  0
SCALE
  5
41
102
{ACAD_REACTORS
330
3A
102
}
330
3A
100
AcDbScale
 70
     0
300
1:16
140
1.0
141
16.0
290
     0
  0
SCALE
  5
42
102
{ACAD_REACTORS
330
3A
102
}
330
3A
100
AcDbScale
 70
     0
300
1:20
140
1.0
141
20.0
290
     0
  0
SCALE
  5
43
102
{ACAD_REACTORS
330
3A
102
}
330
3A
100
AcDbScale
 70
     0
300
1:30
140
1.0
141
30.0
290
     0
  0
SCALE
  5
44
102
{ACAD_REACTORS
330
3A
102
}
330
3A
100
AcDbScale
 70
     0
300
1:40
140
1.0
141
40.0
290
     0
  0
SCALE
  5
45
102
{ACAD_REACTORS
330
3A
102
}
330
3A
100
AcDbScale
 70
     0
300
1:50
140
1.0
141
50.0
290
     0
  0
SCALE
  5
46
102
{ACAD_REACTORS
330
3A
102
}
330
3A
100
AcDbScale
 70
     0
300
1:100
140
1.0
141
100.0
290
     0
  0
SCALE
  5
47
102
{ACAD_REACTORS
330
3A
102
}
330
3A
100
AcDbScale
 70
     0
300
2:1
140
2.0
141
1.0
290
     0
  0
SCALE
  5
48
102
{ACAD_REACTORS
330
3A
102
}
330
3A
100
AcDbScale
 70
     0
300
4:1
140
4.0
141
1.0
290
     0
  0
SCALE
  5
49
102
{ACAD_REACTORS
330
3A
102
}
330
3A
100
AcDbScale
 70
     0
300
8:1
140
8.0
141
1.0
290
     0
  0
SCALE
  5
4A
102
{ACAD_REACTORS
330
3A
102
}
330
3A
100
AcDbScale
 70
     0
300
10:1
140
10.0
141
1.0
290
     0
  0
SCALE
  5
4B
102
{ACAD_REACTORS
330
3A
102
}
330
3A
100
AcDbScale
 70
     0
300
100:1
140
100.0
141
1.0
290
     0
  0
SCALE
  5
4C
102
{ACAD_REACTORS
330
3A
102
}
330
3A
100
AcDbScale
 70
     0
300
1/128" = 1'-0"
140
0.0078125
141
12.0
290
     0
  0
SCALE
  5
4D
102
{ACAD_REACTORS
330
3A
102
}
330
3A
100
AcDbScale
 70
     0
300
1/64" = 1'-0"
140
0.015625
141
12.0
290
     0
  0
SCALE
  5
4E
102
{ACAD_REACTORS
330
3A
102
}
330
3A
100
AcDbScale
 70
     0
300
1/32" = 1'-0"
140
0.03125
141
12.0
290
     0
  0
SCALE
  5
4F
102
{ACAD_REACTORS
330
3A
102
}
330
3A
100
AcDbScale
 70
     0
300
1/16" = 1'-0"
140
0.0625
141
12.0
290
     0
  0
SCALE
  5
50
102
{ACAD_REACTORS
330
3A
102
}
330
3A
100
AcDbScale
 70
     0
300
3/32" = 1'-0"
140
0.09375
141
12.0
290
     0
  0
SCALE
  5
51
102
{ACAD_REACTORS
330
3A
102
}
330
3A
100
AcDbScale
 70
     0
300
1/8" = 1'-0"
140
0.125
141
12.0
290
     0
  0
SCALE
  5
52
102
{ACAD_REACTORS
330
3A
102
}
330
3A
100
AcDbScale
 70
     0
300
3/16" = 1'-0"
140
0.1875
141
12.0
290
     0
  0
SCALE
  5
53
102
{ACAD_REACTORS
330
3A
102
}
330
3A
100
AcDbScale
 70
     0
300
1/4" = 1'-0"
140
0.25
141
12.0
290
     0
  0
SCALE
  5
54
102
{ACAD_REACTORS
330
3A
102
}
330
3A
100
AcDbScale
 70
     0
300
3/8" = 1'-0"
140
0.375
141
12.0
290
     0
  0
SCALE
  5
55
102
{ACAD_REACTORS
330
3A
102
}
330
3A
100
AcDbScale
 70
     0
300
1/2" = 1'-0"
140
0.5
141
12.0
290
     0
  0
SCALE
  5
56
102
{ACAD_REACTORS
330
3A
102
}
330
3A
100
AcDbScale
 70
     0
300
3/4" = 1'-0"
140
0.75
141
12.0
290
     0
  0
SCALE
  5
57
102
{ACAD_REACTORS
330
3A
102
}
330
3A
100
AcDbScale
 70
     0
300
1" = 1'-0"
140
1.0
141
12.0
290
     0
  0
SCALE
  5
58
102
{ACAD_REACTORS
330
3A
102
}
330
3A
100
AcDbScale
 70
     0
300
1-1/2" = 1'-0"
140
1.5
141
12.0
290
     0
  0
SCALE
  5
59
102
{ACAD_REACTORS
330
3A
102
}
330
3A
100
AcDbScale
 70
     0
300
3" = 1'-0"
140
3.0
141
12.0
290
     0
  0
SCALE
  5
5A
102
{ACAD_REACTORS
330
3A
102
}
330
3A
100
AcDbScale
 70
     0
300
6" = 1'-0"
140
6.0
141
12.0
290
     0
  0
SCALE
  5
5B
102
{ACAD_REACTORS
330
3A
102
}
330
3A
100
AcDbScale
 70
     0
300
1'-0" = 1'-0"
140
12.0
141
12.0
290
     0
  0
TABLESTYLE
  5
6C
102
{ACAD_XDICTIONARY
360
4FC
102
}
102
{ACAD_REACTORS
330
6B
102
}
330
6B
100
AcDbTableStyle
  3
Standard
 70
     0
 71
     0
 40
0.06
 41
0.06
280
     0
281
     0
  7
Standard
140
0.18
170
     2
 62
     0
 63
     7
283
     0
274
    -2
284
     1
 64
     0
275
    -2
285
     1
 65
     0
276
    -2
286
     1
 66
     0
277
    -2
287
     1
 67
     0
278
    -2
288
     1
 68
     0
279
    -2
289
     1
 69
     0
  7
Standard
140
0.25
170
     5
 62
     0
 63
     7
283
     0
274
    -2
284
     1
 64
     0
275
    -2
285
     1
 65
     0
276
    -2
286
     1
 66
     0
277
    -2
287
     1
 67
     0
278
    -2
288
     1
 68
     0
279
    -2
289
     1
 69
     0
  7
Standard
140
0.18
170
     5
 62
     0
 63
     7
283
     0
274
    -2
284
     1
 64
     0
275
    -2
285
     1
 65
     0
276
    -2
286
     1
 66
     0
277
    -2
287
     1
 67
     0
278
    -2
288
     1
 68
     0
279
    -2
289
     1
 69
     0
  0
VISUALSTYLE
  5
2F
102
{ACAD_REACTORS
330
29
102
}
330
29
100
AcDbVisualStyle
  2
2dWireframe
 70
     4
 71
     0
 72
     2
 73
     0
 90
        0
 40
-0.6
 41
-30.0
 62
     5
 63
     7
 74
     1
 91
        4
 64
     7
 65
   257
 75
     1
175
     1
 42
1.0
 92
        0
 66
   257
 43
1.0
 76
     1
 77
     6
 78
     2
 67
     7
 79
     5
170
     0
171
     0
290
     0
174
     0
 93
        1
 44
0.0
173
     0
291
     0
 45
0.0
1001
ACAD
1000
AcDbSavedByObjectVersion
1070
     0
  0
VISUALSTYLE
  5
31
102
{ACAD_REACTORS
330
29
102
}
330
29
100
AcDbVisualStyle
  2
3D Hidden
 70
     6
 71
     1
 72
     2
 73
     2
 90
        0
 40
-0.6
 41
-30.0
 62
     5
 63
     7
 74
     2
 91
        2
 64
     7
 65
   257
 75
     2
175
     1
 42
40.0
 92
        0
 66
   257
 43
1.0
 76
     1
 77
     6
 78
     2
 67
     7
 79
     3
170
     0
171
     0
290
     0
174
     0
 93
        1
 44
0.0
173
     0
291
     0
 45
0.0
1001
ACAD
1000
AcDbSavedByObjectVersion
1070
     0
  0
VISUALSTYLE
  5
30
102
{ACAD_REACTORS
330
29
102
}
330
29
100
AcDbVisualStyle
  2
3dWireframe
 70
     5
 71
     0
 72
     2
 73
     0
 90
        0
 40
-0.6
 41
-30.0
 62
     5
 63
     7
 74
     1
 91
        4
 64
     7
 65
   257
 75
     1
175
     1
 42
1.0
 92
        0
 66
   257
 43
1.0
 76
     1
 77
     6
 78
     2
 67
     7
 79
     5
170
     0
171
     0
290
     0
174
     0
 93
        1
 44
0.0
173
     0
291
     0
 45
0.0
1001
ACAD
1000
AcDbSavedByObjectVersion
1070
     0
  0
VISUALSTYLE
  5
2E
102
{ACAD_REACTORS
330
29
102
}
330
29
100
AcDbVisualStyle
  2
Basic
 70
     7
 71
     1
 72
     0
 73
     1
 90
        0
 40
-0.6
 41
-30.0
 62
     5
 63
     7
 74
     0
 91
        4
 64
     7
 65
   257
 75
     1
175
     1
 42
1.0
 92
        8
 66
     7
 43
1.0
 76
     1
 77
     6
 78
     2
 67
     7
 79
     5
170
     0
171
     0
290
     0
174
     0
 93
        1
 44
0.0
173
     0
291
     1
 45
0.0
1001
ACAD
1000
AcDbSavedByObjectVersion
1070
     0
  0
VISUALSTYLE
  5
35
102
{ACAD_REACTORS
330
29
102
}
330
29
100
AcDbVisualStyle
  2
Brighten
 70
    12
 71
     2
 72
     2
 73
     0
 90
        0
 40
-0.6
 41
-30.0
 62
     5
 63
     7
 74
     1
 91
        4
 64
     7
 65
   257
 75
     1
175
     1
 42
1.0
 92
        8
 66
     7
 43
1.0
 76
     1
 77
     6
 78
     2
 67
     7
 79
     5
170
     0
171
     0
290
     0
174
     0
 93
        1
 44
50.0
173
     0
291
     1
 45
0.0
1001
ACAD
1000
AcDbSavedByObjectVersion
1070
     0
  0
VISUALSTYLE
  5
39
102
{ACAD_REACTORS
330
29
102
}
330
29
100
AcDbVisualStyle
  2
ColorChange
 70
    16
 71
     2
 72
     2
 73
     3
 90
        0
 40
-0.6
 41
-30.0
 62
     5
 63
     8
 74
     1
 91
        4
 64
     7
 65
   257
 75
     1
175
     1
 42
1.0
 92
        8
 66
     8
 43
1.0
 76
     1
 77
     6
 78
     2
 67
     7
 79
     5
170
     0
171
     0
290
     0
174
     0
 93
        1
 44
0.0
173
     0
291
     1
 45
0.0
1001
ACAD
1000
AcDbSavedByObjectVersion
1070
     0
  0
VISUALSTYLE
  5
32
102
{ACAD_REACTORS
330
29
102
}
330
29
100
AcDbVisualStyle
  2
Conceptual
 70
     9
 71
     3
 72
     2
 73
     0
 90
        0
 40
-0.6
 41
-30.0
 62
     5
 63
     7
 74
     2
 91
        2
 64
     7
 65
   257
 75
     1
175
     1
 42
40.0
 92
        8
 66
     7
 43
1.0
 76
     1
 77
     6
 78
     2
 67
     7
 79
     3
170
     0
171
     0
290
     0
174
     0
 93
        1
 44
0.0
173
     0
291
     0
 45
0.0
1001
ACAD
1000
AcDbSavedByObjectVersion
1070
     0
  0
VISUALSTYLE
  5
34
102
{ACAD_REACTORS
330
29
102
}
330
29
100
AcDbVisualStyle
  2
Dim
 70
    11
 71
     2
 72
     2
 73
     0
 90
        0
 40
-0.6
 41
-30.0
 62
     5
 63
     7
 74
     1
 91
        4
 64
     7
 65
   257
 75
     1
175
     1
 42
1.0
 92
        8
 66
     7
 43
1.0
 76
     1
 77
     6
 78
     2
 67
     7
 79
     5
170
     0
171
     0
290
     0
174
     0
 93
        1
 44
-50.0
173
     0
291
     1
 45
0.0
1001
ACAD
1000
AcDbSavedByObjectVersion
1070
     0
  0
VISUALSTYLE
  5
38
102
{ACAD_REACTORS
330
29
102
}
330
29
100
AcDbVisualStyle
  2
Facepattern
 70
    15
 71
     2
 72
     2
 73
     0
 90
        0
 40
-0.6
 41
-30.0
 62
     5
 63
     7
 74
     1
 91
        4
 64
     7
 65
   257
 75
     1
175
     1
 42
1.0
 92
        8
 66
     7
 43
1.0
 76
     1
 77
     6
 78
     2
 67
     7
 79
     5
170
     0
171
     0
290
     0
174
     0
 93
        1
 44
0.0
173
     0
291
     1
 45
0.0
1001
ACAD
1000
AcDbSavedByObjectVersion
1070
     0
  0
VISUALSTYLE
  5
2A
102
{ACAD_REACTORS
330
29
102
}
330
29
100
AcDbVisualStyle
  2
Flat
 70
     0
 71
     2
 72
     1
 73
     1
 90
        2
 40
-0.6
 41
30.0
 62
     5
 63
     7
 74
     0
 91
        4
 64
     7
 65
   257
 75
     1
175
     1
 42
1.0
 92
        8
 66
     7
 43
1.0
 76
     1
 77
     6
 78
     2
 67
     7
 79
     5
170
     0
171
     0
290
     0
174
     0
 93
       13
 44
0.0
173
     0
291
     1
 45
0.0
1001
ACAD
1000
AcDbSavedByObjectVersion
1070
     0
  0
VISUALSTYLE
  5
2B
102
{ACAD_REACTORS
330
29
102
}
330
29
100
AcDbVisualStyle
  2
FlatWithEdges
 70
     1
 71
     2
 72
     1
 73
     1
 90
        2
 40
-0.6
 41
30.0
 62
     5
 63
     7
 74
     1
 91
        4
 64
     7
 65
   257
 75
     1
175
     1
 42
1.0
 92
        0
 66
   257
 43
1.0
 76
     1
 77
     6
 78
     2
 67
     7
 79
     5
170
     0
171
     0
290
     0
174
     0
 93
       13
 44
0.0
173
     0
291
     1
 45
0.0
1001
ACAD
1000
AcDbSavedByObjectVersion
1070
     0
  0
VISUALSTYLE
  5
2C
102
{ACAD_REACTORS
330
29
102
}
330
29
100
AcDbVisualStyle
  2
Gouraud
 70
     2
 71
     2
 72
     2
 73
     1
 90
        2
 40
-0.6
 41
30.0
 62
     5
 63
     7
 74
     0
 91
        4
 64
     7
 65
   257
 75
     1
175
     1
 42
1.0
 92
        0
 66
     7
 43
1.0
 76
     1
 77
     6
 78
     2
 67
     7
 79
     5
170
     0
171
     0
290
     0
174
     0
 93
       13
 44
0.0
173
     0
291
     1
 45
0.0
1001
ACAD
1000
AcDbSavedByObjectVersion
1070
     0
  0
VISUALSTYLE
  5
2D
102
{ACAD_REACTORS
330
29
102
}
330
29
100
AcDbVisualStyle
  2
GouraudWithEdges
 70
     3
 71
     2
 72
     2
 73
     1
 90
        2
 40
-0.6
 41
30.0
 62
     5
 63
     7
 74
     1
 91
        4
 64
     7
 65
   257
 75
     1
175
     1
 42
1.0
 92
        0
 66
   257
 43
1.0
 76
     1
 77
     6
 78
     2
 67
     7
 79
     5
170
     0
171
     0
290
     0
174
     0
 93
       13
 44
0.0
173
     0
291
     1
 45
0.0
1001
ACAD
1000
AcDbSavedByObjectVersion
1070
     0
  0
VISUALSTYLE
  5
37
102
{ACAD_REACTORS
330
29
102
}
330
29
100
AcDbVisualStyle
  2
Linepattern
 70
    14
 71
     2
 72
     2
 73
     0
 90
        0
 40
-0.6
 41
-30.0
 62
     5
 63
     7
 74
     1
 91
        4
 64
     7
 65
   257
 75
     7
175
     7
 42
1.0
 92
        8
 66
     7
 43
1.0
 76
     1
 77
     6
 78
     2
 67
     7
 79
     5
170
     0
171
     0
290
     0
174
     0
 93
        1
 44
0.0
173
     0
291
     1
 45
0.0
1001
ACAD
1000
AcDbSavedByObjectVersion
1070
     0
  0
VISUALSTYLE
  5
33
102
{ACAD_REACTORS
330
29
102
}
330
29
100
AcDbVisualStyle
  2
Realistic
 70
     8
 71
     2
 72
     2
 73
     0
 90
        0
 40
-0.6
 41
-30.0
 62
     5
 63
     7
 74
     1
 91
        0
 64
     7
 65
   257
 75
     1
175
     1
 42
1.0
 92
        8
 66
     8
 43
1.0
 76
     1
 77
     6
 78
     2
 67
     7
 79
     5
170
     0
171
     0
290
     0
174
     0
 93
       13
 44
0.0
173
     0
291
     0
 45
0.0
1001
ACAD
1000
AcDbSavedByObjectVersion
1070
     0
  0
VISUALSTYLE
  5
36
102
{ACAD_REACTORS
330
29
102
}
330
29
100
AcDbVisualStyle
  2
Thicken
 70
    13
 71
     2
 72
     2
 73
     0
 90
        0
 40
-0.6
 41
-30.0
 62
     5
 63
     7
 74
     1
 91
        4
 64
     7
 65
   257
 75
     1
175
     1
 42
1.0
 92
       12
 66
     7
 43
1.0
 76
     1
 77
     6
 78
     2
 67
     7
 79
     5
170
     0
171
     0
290
     0
174
     0
 93
        1
 44
0.0
173
     0
291
     1
 45
0.0
1001
ACAD
1000
AcDbSavedByObjectVersion
1070
     0
  0
DICTIONARYVAR
  5
503
102
{ACAD_REACTORS
330
4FF
102
}
330
4FF
100
DictionaryVariables
280
     0
  1
1:1
  0
DICTIONARYVAR
  5
501
102
{ACAD_REACTORS
330
4FF
102
}
330
4FF
100
DictionaryVariables
280
     0
  1
STANDARD
  0
DICTIONARYVAR
  5
500
102
{ACAD_REACTORS
330
4FF
102
}
330
4FF
100
DictionaryVariables
280
     0
  1
STANDARD
  0
DICTIONARYVAR
  5
50D
102
{ACAD_REACTORS
330
4FF
102
}
330
4FF
100
DictionaryVariables
280
     0
  1
1
  0
DICTIONARYVAR
  5
50C
102
{ACAD_REACTORS
330
4FF
102
}
330
4FF
100
DictionaryVariables
280
     0
  1
0
  0
DICTIONARYVAR
  5
505
102
{ACAD_REACTORS
330
4FF
102
}
330
4FF
100
DictionaryVariables
280
     0
  1
1
  0
DICTIONARYVAR
  5
506
102
{ACAD_REACTORS
330
4FF
102
}
330
4FF
100
DictionaryVariables
280
     0
  1
15
  0
DICTIONARYVAR
  5
504
102
{ACAD_REACTORS
330
4FF
102
}
330
4FF
100
DictionaryVariables
280
     0
  1
0
  0
DICTIONARYVAR
  5
502
102
{ACAD_REACTORS
330
4FF
102
}
330
4FF
100
DictionaryVariables
280
     0
  1
0
  0
DICTIONARYVAR
  5
50B
102
{ACAD_REACTORS
330
4FF
102
}
330
4FF
100
DictionaryVariables
280
     0
  1
127
  0
DICTIONARY
  5
516
330
77
100
AcDbDictionary
280
     1
281
     1
  3
ACAD_XREC_ROUNDTRIP
360
517
  0
DICTIONARY
  5
514
330
73
100
AcDbDictionary
280
     1
281
     1
  3
ACAD_XREC_ROUNDTRIP
360
515
  0
DICTIONARY
  5
1A
330
19
100
AcDbDictionary
280
     1
281
     1
  3
ACAD_XREC_ROUNDTRIP
360
511
  3
BUMPTILE
360
1C
  3
DIFFUSETILE
360
1B
  3
OPACITYTILE
360
1F
  3
REFLECTIONTILE
360
1E
  3
REFRACTIONTILE
360
20
  3
SPECULARTILE
360
1D
  0
DICTIONARY
  5
12
330
11
100
AcDbDictionary
280
     1
281
     1
  3
ACAD_XREC_ROUNDTRIP
360
510
  3
BUMPTILE
360
14
  3
DIFFUSETILE
360
13
  3
OPACITYTILE
360
17
  3
REFLECTIONTILE
360
16
  3
REFRACTIONTILE
360
18
  3
SPECULARTILE
360
15
  0
DICTIONARY
  5
22
330
21
100
AcDbDictionary
280
     1
281
     1
  3
ACAD_XREC_ROUNDTRIP
360
512
  3
BUMPTILE
360
24
  3
DIFFUSETILE
360
23
  3
OPACITYTILE
360
27
  3
REFLECTIONTILE
360
26
  3
REFRACTIONTILE
360
28
  3
SPECULARTILE
360
25
  0
DICTIONARY
  5
4FC
330
6C
100
AcDbDictionary
280
     1
281
     1
  3
ACAD_ROUNDTRIP_2008_TABLESTYLE_CELLSTYLEMAP
360
50E
  3
ACAD_XREC_ROUNDTRIP
360
513
  0
XRECORD
  5
517
102
{ACAD_REACTORS
330
516
102
}
330
516
100
AcDbXrecord
280
     1
102
SHADEPLOT
 70
     0
102
SHADEPLOTRESLEVEL
 70
     2
102
SHADEPLOTCUSTOMDPI
 70
   300
  0
XRECORD
  5
515
102
{ACAD_REACTORS
330
514
102
}
330
514
100
AcDbXrecord
280
     1
102
SHADEPLOT
 70
     0
102
SHADEPLOTRESLEVEL
 70
     2
102
SHADEPLOTCUSTOMDPI
 70
   300
  0
XRECORD
  5
511
102
{ACAD_REACTORS
330
1A
102
}
330
1A
100
AcDbXrecord
280
     1
102
MATERIAL
148
0.0
149
0.0
149
0.0
 93
        0
 94
      127
282
     0
 72
     0
 77
     0
171
     0
175
     0
179
     0
273
     0
  0
XRECORD
  5
1C
102
{ACAD_REACTORS
330
1A
102
}
330
1A
100
AcDbXrecord
280
     1
270
     1
271
     1
  0
XRECORD
  5
1B
102
{ACAD_REACTORS
330
1A
102
}
330
1A
100
AcDbXrecord
280
     1
270
     1
271
     1
  0
XRECORD
  5
1F
102
{ACAD_REACTORS
330
1A
102
}
330
1A
100
AcDbXrecord
280
     1
270
     1
271
     1
  0
XRECORD
  5
1E
102
{ACAD_REACTORS
330
1A
102
}
330
1A
100
AcDbXrecord
280
     1
270
     1
271
     1
  0
XRECORD
  5
20
102
{ACAD_REACTORS
330
1A
102
}
330
1A
100
AcDbXrecord
280
     1
270
     1
271
     1
  0
XRECORD
  5
1D
102
{ACAD_REACTORS
330
1A
102
}
330
1A
100
AcDbXrecord
280
     1
270
     1
271
     1
  0
XRECORD
  5
510
102
{ACAD_REACTORS
330
12
102
}
330
12
100
AcDbXrecord
280
     1
102
MATERIAL
148
0.0
149
0.0
149
0.0
 93
        0
 94
      127
282
     0
 72
     0
 77
     0
171
     0
175
     0
179
     0
273
     0
  0
XRECORD
  5
14
102
{ACAD_REACTORS
330
12
102
}
330
12
100
AcDbXrecord
280
     1
270
     1
271
     1
  0
XRECORD
  5
13
102
{ACAD_REACTORS
330
12
102
}
330
12
100
AcDbXrecord
280
     1
270
     1
271
     1
  0
XRECORD
  5
17
102
{ACAD_REACTORS
330
12
102
}
330
12
100
AcDbXrecord
280
     1
270
     1
271
     1
  0
XRECORD
  5
16
102
{ACAD_REACTORS
330
12
102
}
330
12
100
AcDbXrecord
280
     1
270
     1
271
     1
  0
XRECORD
  5
18
102
{ACAD_REACTORS
330
12
102
}
330
12
100
AcDbXrecord
280
     1
270
     1
271
     1
  0
XRECORD
  5
15
102
{ACAD_REACTORS
330
12
102
}
330
12
100
AcDbXrecord
280
     1
270
     1
271
     1
  0
XRECORD
  5
512
102
{ACAD_REACTORS
330
22
102
}
330
22
100
AcDbXrecord
280
     1
102
MATERIAL
148
0.0
149
0.0
149
0.0
 93
        0
 94
      127
282
     0
 72
     0
 77
     0
171
     0
175
     0
179
     0
273
     0
  0
XRECORD
  5
24
102
{ACAD_REACTORS
330
22
102
}
330
22
100
AcDbXrecord
280
     1
270
     1
271
     1
  0
XRECORD
  5
23
102
{ACAD_REACTORS
330
22
102
}
330
22
100
AcDbXrecord
280
     1
270
     1
271
     1
  0
XRECORD
  5
27
102
{ACAD_REACTORS
330
22
102
}
330
22
100
AcDbXrecord
280
     1
270
     1
271
     1
  0
XRECORD
  5
26
102
{ACAD_REACTORS
330
22
102
}
330
22
100
AcDbXrecord
280
     1
270
     1
271
     1
  0
XRECORD
  5
28
102
{ACAD_REACTORS
330
22
102
}
330
22
100
AcDbXrecord
280
     1
270
     1
271
     1
  0
XRECORD
  5
25
102
{ACAD_REACTORS
330
22
102
}
330
22
100
AcDbXrecord
280
     1
270
     1
271
     1
  0
CELLSTYLEMAP
  5
50E
102
{ACAD_REACTORS
330
4FC
102
}
330
4FC
100
AcDbCellStyleMap
 90
        3
300
CELLSTYLE
  1
TABLEFORMAT_BEGIN
 90
        5
170
     1
 91
        0
 92
    32768
 62
   257
 93
        1
300
CONTENTFORMAT
  1
CONTENTFORMAT_BEGIN
 90
        0
 91
        0
 92
      512
 93
        0
300

 40
0.0
140
1.0
 94
        5
 62
     0
340
5D
144
0.25
309
CONTENTFORMAT_END
171
     0
 94
        0
309
TABLEFORMAT_END
  1
CELLSTYLE_BEGIN
 90
        1
 91
        1
300
_TITLE
309
CELLSTYLE_END
300
CELLSTYLE
  1
TABLEFORMAT_BEGIN
 90
        5
170
     1
 91
        0
 92
        0
 62
   257
 93
        1
300
CONTENTFORMAT
  1
CONTENTFORMAT_BEGIN
 90
        0
 91
        0
 92
      512
 93
        0
300

 40
0.0
140
1.0
 94
        5
 62
     0
340
5D
144
0.18
309
CONTENTFORMAT_END
171
     0
 94
        0
309
TABLEFORMAT_END
  1
CELLSTYLE_BEGIN
 90
        2
 91
        1
300
_HEADER
309
CELLSTYLE_END
300
CELLSTYLE
  1
TABLEFORMAT_BEGIN
 90
        5
170
     1
 91
        0
 92
        0
 62
   257
 93
        1
300
CONTENTFORMAT
  1
CONTENTFORMAT_BEGIN
 90
        0
 91
        0
 92
      512
 93
        0
300

 40
0.0
140
1.0
 94
        2
 62
     0
340
5D
144
0.18
309
CONTENTFORMAT_END
171
     0
 94
        0
309
TABLEFORMAT_END
  1
CELLSTYLE_BEGIN
 90
        3
 91
        2
300
_DATA
309
CELLSTYLE_END
  0
XRECORD
  5
513
102
{ACAD_REACTORS
330
4FC
102
}
330
4FC
100
AcDbXrecord
280
     1
102
ACAD_ROUNDTRIP_PRE2007_TABLESTYLE
 90
      512
 91
        0
  1

 92
      512
 93
        0
  2

 94
      512
 95
        0
  3

  0
ENDSEC
  0
EOF
