  0
SECTION
  2
HEADER
  9
$ACADVER
  1
AC1021
  9
$ACADMAINTVER
 70
    25
  9
$DWGCODEPAGE
  3
ANSI_1252
  9
$INSBASE
 10
0.0
 20
0.0
 30
0.0
  9
$EXTMIN
 10
-85.2999
 20
-112.3458
 30
0.0
  9
$EXTMAX
 10
85.4805
 20
111.5265
 30
0.0
  9
$LIMMIN
 10
0.0
 20
0.0
  9
$LIMMAX
 10
12.0
 20
9.0
  9
$ORTHOMODE
 70
     0
  9
$REGENMODE
 70
     1
  9
$FILLMODE
 70
     1
  9
$QTEXTMODE
 70
     0
  9
$MIRRTEXT
 70
     1
  9
$LTSCALE
 40
1.0
  9
$ATTMODE
 70
     1
  9
$TEXTSIZE
 40
0.2
  9
$TRACEWID
 40
0.05
  9
$TEXTSTYLE
  7
Standard
  9
$CLAYER
  8
0
  9
$CELTYPE
  6
ByLayer
  9
$CECOLOR
 62
   256
  9
$CELTSCALE
 40
1.0
  9
$DISPSILH
 70
     0
  9
$DIMSCALE
 40
1.0
  9
$DIMASZ
 40
0.18
  9
$DIMEXO
 40
0.0625
  9
$DIMDLI
 40
0.38
  9
$DIMRND
 40
0.0
  9
$DIMDLE
 40
0.0
  9
$DIMEXE
 40
0.18
  9
$DIMTP
 40
0.0
  9
$DIMTM
 40
0.0
  9
$DIMTXT
 40
0.18
  9
$DIMCEN
 40
0.09
  9
$DIMTSZ
 40
0.0
  9
$DIMTOL
 70
     0
  9
$DIMLIM
 70
     0
  9
$DIMTIH
 70
     1
  9
$DIMTOH
 70
     1
  9
$DIMSE1
 70
     0
  9
$DIMSE2
 70
     0
  9
$DIMTAD
 70
     0
  9
$DIMZIN
 70
     0
  9
$DIMBLK
  1

  9
$DIMASO
 70
     1
  9
$DIMSHO
 70
     1
  9
$DIMPOST
  1

  9
$DIMAPOST
  1

  9
$DIMALT
 70
     0
  9
$DIMALTD
 70
     2
  9
$DIMALTF
 40
25.4
  9
$DIMLFAC
 40
1.0
  9
$DIMTOFL
 70
     0
  9
$DIMTVP
 40
0.0
  9
$DIMTIX
 70
     0
  9
$DIMSOXD
 70
     0
  9
$DIMSAH
 70
     0
  9
$DIMBLK1
  1

  9
$DIMBLK2
  1

  9
$DIMSTYLE
  2
Standard
  9
$DIMCLRD
 70
     0
  9
$DIMCLRE
 70
     0
  9
$DIMCLRT
 70
     0
  9
$DIMTFAC
 40
1.0
  9
$DIMGAP
 40
0.09
  9
$DIMJUST
 70
     0
  9
$DIMSD1
 70
     0
  9
$DIMSD2
 70
     0
  9
$DIMTOLJ
 70
     1
  9
$DIMTZIN
 70
     0
  9
$DIMALTZ
 70
     0
  9
$DIMALTTZ
 70
     0
  9
$DIMUPT
 70
     0
  9
$DIMDEC
 70
     4
  9
$DIMTDEC
 70
     4
  9
$DIMALTU
 70
     2
  9
$DIMALTTD
 70
     2
  9
$DIMTXSTY
  7
Standard
  9
$DIMAUNIT
 70
     0
  9
$DIMADEC
 70
     0
  9
$DIMALTRND
 40
0.0
  9
$DIMAZIN
 70
     0
  9
$DIMDSEP
 70
    46
  9
$DIMATFIT
 70
     3
  9
$DIMFRAC
 70
     0
  9
$DIMLDRBLK
  1

  9
$DIMLUNIT
 70
     2
  9
$DIMLWD
 70
    -2
  9
$DIMLWE
 70
    -2
  9
$DIMTMOVE
 70
     0
  9
$DIMFXL
 40
1.0
  9
$DIMFXLON
 70
     0
  9
$DIMJOGANG
 40
0.7853981633974483
  9
$DIMTFILL
 70
     0
  9
$DIMTFILLCLR
 70
     0
  9
$DIMARCSYM
 70
     0
  9
$DIMLTYPE
  6

  9
$DIMLTEX1
  6

  9
$DIMLTEX2
  6

  9
$LUNITS
 70
     2
  9
$LUPREC
 70
     4
  9
$SKETCHINC
 40
0.1
  9
$FILLETRAD
 40
0.5
  9
$AUNITS
 70
     0
  9
$AUPREC
 70
     0
  9
$MENU
  1
.
  9
$ELEVATION
 40
0.0
  9
$PELEVATION
 40
0.0
  9
$THICKNESS
 40
0.0
  9
$LIMCHECK
 70
     0
  9
$CHAMFERA
 40
0.5
  9
$CHAMFERB
 40
0.5
  9
$CHAMFERC
 40
1.0
  9
$CHAMFERD
 40
0.0
  9
$SKPOLY
 70
     0
  9
$TDCREATE
 40
2454953.099662766
  9
$TDUCREATE
 40
2454953.224662766
  9
$TDUPDATE
 40
2454953.099662778
  9
$TDUUPDATE
 40
2454953.224662778
  9
$TDINDWG
 40
0.0000000116
  9
$TDUSRTIMER
 40
0.0000000116
  9
$USRTIMER
 70
     1
  9
$ANGBASE
 50
0.0
  9
$ANGDIR
 70
     0
  9
$PDMODE
 70
     0
  9
$PDSIZE
 40
0.0
  9
$PLINEWID
 40
0.0
  9
$SPLFRAME
 70
     0
  9
$SPLINETYPE
 70
     6
  9
$SPLINESEGS
 70
     8
  9
$HANDSEED
  5
91
  9
$SURFTAB1
 70
     6
  9
$SURFTAB2
 70
     6
  9
$SURFTYPE
 70
     6
  9
$SURFU
 70
     6
  9
$SURFV
 70
     6
  9
$UCSBASE
  2

  9
$UCSNAME
  2

  9
$UCSORG
 10
0.0
 20
0.0
 30
0.0
  9
$UCSXDIR
 10
1.0
 20
0.0
 30
0.0
  9
$UCSYDIR
 10
0.0
 20
1.0
 30
0.0
  9
$UCSORTHOREF
  2

  9
$UCSORTHOVIEW
 70
     0
  9
$UCSORGTOP
 10
0.0
 20
0.0
 30
0.0
  9
$UCSORGBOTTOM
 10
0.0
 20
0.0
 30
0.0
  9
$UCSORGLEFT
 10
0.0
 20
0.0
 30
0.0
  9
$UCSORGRIGHT
 10
0.0
 20
0.0
 30
0.0
  9
$UCSORGFRONT
 10
0.0
 20
0.0
 30
0.0
  9
$UCSORGBACK
 10
0.0
 20
0.0
 30
0.0
  9
$PUCSBASE
  2

  9
$PUCSNAME
  2

  9
$PUCSORG
 10
0.0
 20
0.0
 30
0.0
  9
$PUCSXDIR
 10
1.0
 20
0.0
 30
0.0
  9
$PUCSYDIR
 10
0.0
 20
1.0
 30
0.0
  9
$PUCSORTHOREF
  2

  9
$PUCSORTHOVIEW
 70
     0
  9
$PUCSORGTOP
 10
0.0
 20
0.0
 30
0.0
  9
$PUCSORGBOTTOM
 10
0.0
 20
0.0
 30
0.0
  9
$PUCSORGLEFT
 10
0.0
 20
0.0
 30
0.0
  9
$PUCSORGRIGHT
 10
0.0
 20
0.0
 30
0.0
  9
$PUCSORGFRONT
 10
0.0
 20
0.0
 30
0.0
  9
$PUCSORGBACK
 10
0.0
 20
0.0
 30
0.0
  9
$USERI1
 70
     0
  9
$USERI2
 70
     0
  9
$USERI3
 70
     0
  9
$USERI4
 70
     0
  9
$USERI5
 70
     0
  9
$USERR1
 40
0.0
  9
$USERR2
 40
0.0
  9
$USERR3
 40
0.0
  9
$USERR4
 40
0.0
  9
$USERR5
 40
0.0
  9
$WORLDVIEW
 70
     1
  9
$SHADEDGE
 70
     3
  9
$SHADEDIF
 70
    70
  9
$TILEMODE
 70
     1
  9
$MAXACTVP
 70
    64
  9
$PINSBASE
 10
0.0
 20
0.0
 30
0.0
  9
$PLIMCHECK
 70
     0
  9
$PEXTMIN
 10
1.000000000000000E+20
 20
1.000000000000000E+20
 30
1.000000000000000E+20
  9
$PEXTMAX
 10
-1.000000000000000E+20
 20
-1.000000000000000E+20
 30
-1.000000000000000E+20
  9
$PLIMMIN
 10
0.0
 20
0.0
  9
$PLIMMAX
 10
12.0
 20
9.0
  9
$UNITMODE
 70
     0
  9
$VISRETAIN
 70
     1
  9
$PLINEGEN
 70
     0
  9
$PSLTSCALE
 70
     1
  9
$TREEDEPTH
 70
  3020
  9
$CMLSTYLE
  2
Standard
  9
$CMLJUST
 70
     0
  9
$CMLSCALE
 40
1.0
  9
$PROXYGRAPHICS
 70
     1
  9
$MEASUREMENT
 70
     0
  9
$CELWEIGHT
370
    -1
  9
$ENDCAPS
280
     0
  9
$JOINSTYLE
280
     0
  9
$LWDISPLAY
290
     0
  9
$INSUNITS
 70
     4
  9
$HYPERLINKBASE
  1

  9
$STYLESHEET
  1

  9
$XEDIT
290
     1
  9
$CEPSNTYPE
380
     0
  9
$PSTYLEMODE
290
     1
  9
$FINGERPRINTGUID
  2
{B97F0C02-7EF1-471A-8BD3-40E6CCBB4DBF}
  9
$VERSIONGUID
  2
{FAEB1C32-E019-11D5-929B-00C0DF256EC4}
  9
$EXTNAMES
290
     1
  9
$PSVPSCALE
 40
0.0
  9
$OLESTARTUP
290
     0
  9
$SORTENTS
280
   127
  9
$INDEXCTL
280
     0
  9
$HIDETEXT
280
     1
  9
$XCLIPFRAME
290
     0
  9
$HALOGAP
280
     0
  9
$OBSCOLOR
 70
   257
  9
$OBSLTYPE
280
     0
  9
$INTERSECTIONDISPLAY
280
     0
  9
$INTERSECTIONCOLOR
 70
   257
  9
$DIMASSOC
280
     2
  9
$PROJECTNAME
  1

  9
$CAMERADISPLAY
290
     0
  9
$LENSLENGTH
 40
50.0
  9
$CAMERAHEIGHT
 40
0.0
  9
$STEPSPERSEC
 40
2.0
  9
$STEPSIZE
 40
6.0
  9
$3DDWFPREC
 40
2.0
  9
$PSOLWIDTH
 40
0.25
  9
$PSOLHEIGHT
 40
4.0
  9
$LOFTANG1
 40
1.570796326794897
  9
$LOFTANG2
 40
1.570796326794897
  9
$LOFTMAG1
 40
0.0
  9
$LOFTMAG2
 40
0.0
  9
$LOFTPARAM
 70
     7
  9
$LOFTNORMALS
280
     1
  9
$LATITUDE
 40
37.795
  9
$LONGITUDE
 40
-122.394
  9
$NORTHDIRECTION
 40
0.0
  9
$TIMEZONE
 70
 -8000
  9
$LIGHTGLYPHDISPLAY
280
     1
  9
$TILEMODELIGHTSYNCH
280
     1
  9
$SOLIDHIST
280
     1
  9
$SHOWHIST
280
     1
  9
$DWFFRAME
280
     2
  9
$DGNFRAME
280
     2
  9
$REALWORLDSCALE
290
     1
  9
$INTERFERECOLOR
 62
   256
  9
$CSHADOW
280
     0
  9
$SHADOWPLANELOCATION
 40
0.0
  0
ENDSEC
  0
SECTION
  2
CLASSES
  0
CLASS
  1
ACDBDICTIONARYWDFLT
  2
AcDbDictionaryWithDefault
  3
ObjectDBX Classes
 90
        0
 91
        3
280
     0
281
     0
  0
CLASS
  1
VISUALSTYLE
  2
AcDbVisualStyle
  3
ObjectDBX Classes
 90
     4095
 91
        3
280
     0
281
     0
  0
CLASS
  1
SCALE
  2
AcDbScale
  3
ObjectDBX Classes
 90
     1153
 91
        3
280
     0
281
     0
  0
ENDSEC
  0
SECTION
  2
TABLES
  0
TABLE
  2
VPORT
  5
8
330
0
100
AcDbSymbolTable
 70
     1
  0
VPORT
  5
29
330
8
100
AcDbSymbolTableRecord
100
AcDbViewportTableRecord
  2
*Active
 70
     0
 10
0.0
 20
0.0
 11
1.0
 21
1.0
 12
10.42990654205607
 22
4.5
 13
0.0
 23
0.0
 14
0.5
 24
0.5
 15
0.5
 25
0.5
 16
0.0
 26
0.0
 36
1.0
 17
0.0
 27
0.0
 37
0.0
 40
9.0
 41
1.972972972850329
 42
50.0
 43
0.0
 44
0.0
 50
0.0
 51
0.0
 71
     0
 72
   100
 73
     1
 74
     3
 75
     0
 76
     0
 77
     0
 78
     0
281
     0
 65
     1
110
0.0
120
0.0
130
0.0
111
1.0
121
0.0
131
0.0
112
0.0
122
1.0
132
0.0
 79
     0
146
0.0
 60
     3
 61
     5
292
     1
282
     1
141
0.0
142
0.0
 63
   256
  0
ENDTAB
  0
TABLE
  2
LTYPE
  5
5
330
0
100
AcDbSymbolTable
 70
     1
  0
LTYPE
  5
14
330
5
100
AcDbSymbolTableRecord
100
AcDbLinetypeTableRecord
  2
ByBlock
 70
     0
  3

 72
    65
 73
     0
 40
0.0
  0
LTYPE
  5
15
330
5
100
AcDbSymbolTableRecord
100
AcDbLinetypeTableRecord
  2
ByLayer
 70
     0
  3

 72
    65
 73
     0
 40
0.0
  0
LTYPE
  5
16
330
5
100
AcDbSymbolTableRecord
100
AcDbLinetypeTableRecord
  2
Continuous
 70
     0
  3
Solid line
 72
    65
 73
     0
 40
0.0
  0
ENDTAB
  0
TABLE
  2
LAYER
  5
2
330
0
100
AcDbSymbolTable
 70
     2
  0
LAYER
  5
10
330
2
100
AcDbSymbolTableRecord
100
AcDbLayerTableRecord
  2
0
 70
     0
 62
     7
  6
Continuous
370
    -3
390
F
347
0
  0
LAYER
  5
5E
330
2
100
AcDbSymbolTableRecord
100
AcDbLayerTableRecord
  2
Capa 1
 70
     0
 62
     7
  6
Continuous
370
    -3
390
F
347
0
  0
ENDTAB
  0
TABLE
  2
STYLE
  5
3
330
0
100
AcDbSymbolTable
 70
     1
  0
STYLE
  5
11
330
3
100
AcDbSymbolTableRecord
100
AcDbTextStyleTableRecord
  2
Standard
 70
     0
 40
0.0
 41
1.0
 50
0.0
 71
     0
 42
0.2
  3
txt
  4

  0
ENDTAB
  0
TABLE
  2
VIEW
  5
6
330
0
100
AcDbSymbolTable
 70
     0
  0
ENDTAB
  0
TABLE
  2
UCS
  5
7
330
0
100
AcDbSymbolTable
 70
     0
  0
ENDTAB
  0
TABLE
  2
APPID
  5
9
330
0
100
AcDbSymbolTable
 70
     2
  0
APPID
  5
12
330
9
100
AcDbSymbolTableRecord
100
AcDbRegAppTableRecord
  2
ACAD
 70
     0
  0
APPID
  5
5D
330
9
100
AcDbSymbolTableRecord
100
AcDbRegAppTableRecord
  2
ODA
 70
     0
  0
ENDTAB
  0
TABLE
  2
DIMSTYLE
  5
A
330
0
100
AcDbSymbolTable
 70
     1
100
AcDbDimStyleTable
  0
DIMSTYLE
105
27
330
A
100
AcDbSymbolTableRecord
100
AcDbDimStyleTableRecord
  2
Standard
 70
     0
340
11
  0
ENDTAB
  0
TABLE
  2
BLOCK_RECORD
  5
1
330
0
100
AcDbSymbolTable
 70
     1
  0
BLOCK_RECORD
  5
1F
330
1
100
AcDbSymbolTableRecord
100
AcDbBlockTableRecord
  2
*Model_Space
340
22
 70
     0
280
     1
281
     0
  0
BLOCK_RECORD
  5
1B
330
1
100
AcDbSymbolTableRecord
100
AcDbBlockTableRecord
  2
*Paper_Space
340
1E
 70
     0
280
     1
281
     0
  0
BLOCK_RECORD
  5
23
330
1
100
AcDbSymbolTableRecord
100
AcDbBlockTableRecord
  2
*Paper_Space0
340
26
 70
     0
280
     1
281
     0
  0
ENDTAB
  0
ENDSEC
  0
SECTION
  2
BLOCKS
  0
BLOCK
  5
20
330
1F
100
AcDbEntity
  8
0
100
AcDbBlockBegin
  2
*Model_Space
 70
     0
 10
0.0
 20
0.0
 30
0.0
  3
*Model_Space
  1

  0
ENDBLK
  5
21
330
1F
100
AcDbEntity
  8
0
100
AcDbBlockEnd
  0
BLOCK
  5
1C
330
1B
100
AcDbEntity
 67
     1
  8
0
100
AcDbBlockBegin
  2
*Paper_Space
 70
     0
 10
0.0
 20
0.0
 30
0.0
  3
*Paper_Space
  1

  0
ENDBLK
  5
1D
330
1B
100
AcDbEntity
 67
     1
  8
0
100
AcDbBlockEnd
  0
BLOCK
  5
24
330
23
100
AcDbEntity
  8
0
100
AcDbBlockBegin
  2
*Paper_Space0
 70
     0
 10
0.0
 20
0.0
 30
0.0
  3
*Paper_Space0
  1

  0
ENDBLK
  5
25
330
23
100
AcDbEntity
  8
0
100
AcDbBlockEnd
  0
ENDSEC
  0
SECTION
  2
ENTITIES
  0
SPLINE
  5
5F
330
1F
100
AcDbEntity
  8
Capa 1
100
AcDbSpline
210
0.0
220
0.0
230
1.0
 70
    11
 71
     3
 72
   596
 73
   592
 74
     0
 42
0.0000000001
 43
0.0000000001
 40
0.0
 40
0.0
 40
0.0
 40
0.0
 40
0.0067567567567568
 40
0.0067567567567568
 40
0.0067567567567568
 40
0.0067567567567568
 40
0.0135135135135135
 40
0.0135135135135135
 40
0.0135135135135135
 40
0.0135135135135135
 40
0.0202702702702703
 40
0.0202702702702703
 40
0.0202702702702703
 40
0.0202702702702703
 40
0.027027027027027
 40
0.027027027027027
 40
0.027027027027027
 40
0.027027027027027
 40
0.0337837837837838
 40
0.0337837837837838
 40
0.0337837837837838
 40
0.0337837837837838
 40
0.0405405405405405
 40
0.0405405405405405
 40
0.0405405405405405
 40
0.0405405405405405
 40
0.0472972972972973
 40
0.0472972972972973
 40
0.0472972972972973
 40
0.0472972972972973
 40
0.0540540540540541
 40
0.0540540540540541
 40
0.0540540540540541
 40
0.0540540540540541
 40
0.0608108108108108
 40
0.0608108108108108
 40
0.0608108108108108
 40
0.0608108108108108
 40
0.0675675675675676
 40
0.0675675675675676
 40
0.0675675675675676
 40
0.0675675675675676
 40
0.0743243243243243
 40
0.0743243243243243
 40
0.0743243243243243
 40
0.0743243243243243
 40
0.0810810810810811
 40
0.0810810810810811
 40
0.0810810810810811
 40
0.0810810810810811
 40
0.0878378378378378
 40
0.0878378378378378
 40
0.0878378378378378
 40
0.0878378378378378
 40
0.0945945945945946
 40
0.0945945945945946
 40
0.0945945945945946
 40
0.0945945945945946
 40
0.1013513513513514
 40
0.1013513513513514
 40
0.1013513513513514
 40
0.1013513513513514
 40
0.1081081081081081
 40
0.1081081081081081
 40
0.1081081081081081
 40
0.1081081081081081
 40
0.1148648648648649
 40
0.1148648648648649
 40
0.1148648648648649
 40
0.1148648648648649
 40
0.1216216216216216
 40
0.1216216216216216
 40
0.1216216216216216
 40
0.1216216216216216
 40
0.1283783783783784
 40
0.1283783783783784
 40
0.1283783783783784
 40
0.1283783783783784
 40
0.1351351351351351
 40
0.1351351351351351
 40
0.1351351351351351
 40
0.1351351351351351
 40
0.1418918918918919
 40
0.1418918918918919
 40
0.1418918918918919
 40
0.1418918918918919
 40
0.1486486486486486
 40
0.1486486486486486
 40
0.1486486486486486
 40
0.1486486486486486
 40
0.1554054054054054
 40
0.1554054054054054
 40
0.1554054054054054
 40
0.1554054054054054
 40
0.1621621621621621
 40
0.1621621621621621
 40
0.1621621621621621
 40
0.1621621621621621
 40
0.1689189189189189
 40
0.1689189189189189
 40
0.1689189189189189
 40
0.1689189189189189
 40
0.1756756756756756
 40
0.1756756756756756
 40
0.1756756756756756
 40
0.1756756756756756
 40
0.1824324324324323
 40
0.1824324324324323
 40
0.1824324324324323
 40
0.1824324324324323
 40
0.1891891891891891
 40
0.1891891891891891
 40
0.1891891891891891
 40
0.1891891891891891
 40
0.1959459459459458
 40
0.1959459459459458
 40
0.1959459459459458
 40
0.1959459459459458
 40
0.2027027027027026
 40
0.2027027027027026
 40
0.2027027027027026
 40
0.2027027027027026
 40
0.2094594594594593
 40
0.2094594594594593
 40
0.2094594594594593
 40
0.2094594594594593
 40
0.2162162162162161
 40
0.2162162162162161
 40
0.2162162162162161
 40
0.2162162162162161
 40
0.2229729729729728
 40
0.2229729729729728
 40
0.2229729729729728
 40
0.2229729729729728
 40
0.2297297297297295
 40
0.2297297297297295
 40
0.2297297297297295
 40
0.2297297297297295
 40
0.2364864864864863
 40
0.2364864864864863
 40
0.2364864864864863
 40
0.2364864864864863
 40
0.243243243243243
 40
0.243243243243243
 40
0.243243243243243
 40
0.243243243243243
 40
0.2499999999999998
 40
0.2499999999999998
 40
0.2499999999999998
 40
0.2499999999999998
 40
0.2567567567567565
 40
0.2567567567567565
 40
0.2567567567567565
 40
0.2567567567567565
 40
0.2635135135135133
 40
0.2635135135135133
 40
0.2635135135135133
 40
0.2635135135135133
 40
0.27027027027027
 40
0.27027027027027
 40
0.27027027027027
 40
0.27027027027027
 40
0.2770270270270268
 40
0.2770270270270268
 40
0.2770270270270268
 40
0.2770270270270268
 40
0.2837837837837835
 40
0.2837837837837835
 40
0.2837837837837835
 40
0.2837837837837835
 40
0.2905405405405402
 40
0.2905405405405402
 40
0.2905405405405402
 40
0.2905405405405402
 40
0.297297297297297
 40
0.297297297297297
 40
0.297297297297297
 40
0.297297297297297
 40
0.3040540540540537
 40
0.3040540540540537
 40
0.3040540540540537
 40
0.3040540540540537
 40
0.3108108108108105
 40
0.3108108108108105
 40
0.3108108108108105
 40
0.3108108108108105
 40
0.3175675675675672
 40
0.3175675675675672
 40
0.3175675675675672
 40
0.3175675675675672
 40
0.324324324324324
 40
0.324324324324324
 40
0.324324324324324
 40
0.324324324324324
 40
0.3310810810810807
 40
0.3310810810810807
 40
0.3310810810810807
 40
0.3310810810810807
 40
0.3378378378378374
 40
0.3378378378378374
 40
0.3378378378378374
 40
0.3378378378378374
 40
0.3445945945945942
 40
0.3445945945945942
 40
0.3445945945945942
 40
0.3445945945945942
 40
0.3513513513513509
 40
0.3513513513513509
 40
0.3513513513513509
 40
0.3513513513513509
 40
0.3581081081081077
 40
0.3581081081081077
 40
0.3581081081081077
 40
0.3581081081081077
 40
0.3648648648648644
 40
0.3648648648648644
 40
0.3648648648648644
 40
0.3648648648648644
 40
0.3716216216216212
 40
0.3716216216216212
 40
0.3716216216216212
 40
0.3716216216216212
 40
0.3783783783783779
 40
0.3783783783783779
 40
0.3783783783783779
 40
0.3783783783783779
 40
0.3851351351351346
 40
0.3851351351351346
 40
0.3851351351351346
 40
0.3851351351351346
 40
0.3918918918918914
 40
0.3918918918918914
 40
0.3918918918918914
 40
0.3918918918918914
 40
0.3986486486486481
 40
0.3986486486486481
 40
0.3986486486486481
 40
0.3986486486486481
 40
0.4054054054054049
 40
0.4054054054054049
 40
0.4054054054054049
 40
0.4054054054054049
 40
0.4121621621621616
 40
0.4121621621621616
 40
0.4121621621621616
 40
0.4121621621621616
 40
0.4189189189189184
 40
0.4189189189189184
 40
0.4189189189189184
 40
0.4189189189189184
 40
0.4256756756756751
 40
0.4256756756756751
 40
0.4256756756756751
 40
0.4256756756756751
 40
0.4324324324324318
 40
0.4324324324324318
 40
0.4324324324324318
 40
0.4324324324324318
 40
0.4391891891891886
 40
0.4391891891891886
 40
0.4391891891891886
 40
0.4391891891891886
 40
0.4459459459459453
 40
0.4459459459459453
 40
0.4459459459459453
 40
0.4459459459459453
 40
0.4527027027027021
 40
0.4527027027027021
 40
0.4527027027027021
 40
0.4527027027027021
 40
0.4594594594594588
 40
0.4594594594594588
 40
0.4594594594594588
 40
0.4594594594594588
 40
0.4662162162162156
 40
0.4662162162162156
 40
0.4662162162162156
 40
0.4662162162162156
 40
0.4729729729729723
 40
0.4729729729729723
 40
0.4729729729729723
 40
0.4729729729729723
 40
0.479729729729729
 40
0.479729729729729
 40
0.479729729729729
 40
0.479729729729729
 40
0.4864864864864858
 40
0.4864864864864858
 40
0.4864864864864858
 40
0.4864864864864858
 40
0.4932432432432425
 40
0.4932432432432425
 40
0.4932432432432425
 40
0.4932432432432425
 40
0.4999999999999993
 40
0.4999999999999993
 40
0.4999999999999993
 40
0.4999999999999993
 40
0.506756756756756
 40
0.506756756756756
 40
0.506756756756756
 40
0.506756756756756
 40
0.5135135135135128
 40
0.5135135135135128
 40
0.5135135135135128
 40
0.5135135135135128
 40
0.5202702702702696
 40
0.5202702702702696
 40
0.5202702702702696
 40
0.5202702702702696
 40
0.5270270270270264
 40
0.5270270270270264
 40
0.5270270270270264
 40
0.5270270270270264
 40
0.5337837837837832
 40
0.5337837837837832
 40
0.5337837837837832
 40
0.5337837837837832
 40
0.54054054054054
 40
0.54054054054054
 40
0.54054054054054
 40
0.54054054054054
 40
0.5472972972972968
 40
0.5472972972972968
 40
0.5472972972972968
 40
0.5472972972972968
 40
0.5540540540540536
 40
0.5540540540540536
 40
0.5540540540540536
 40
0.5540540540540536
 40
0.5608108108108104
 40
0.5608108108108104
 40
0.5608108108108104
 40
0.5608108108108104
 40
0.5675675675675672
 40
0.5675675675675672
 40
0.5675675675675672
 40
0.5675675675675672
 40
0.574324324324324
 40
0.574324324324324
 40
0.574324324324324
 40
0.574324324324324
 40
0.5810810810810808
 40
0.5810810810810808
 40
0.5810810810810808
 40
0.5810810810810808
 40
0.5878378378378376
 40
0.5878378378378376
 40
0.5878378378378376
 40
0.5878378378378376
 40
0.5945945945945944
 40
0.5945945945945944
 40
0.5945945945945944
 40
0.5945945945945944
 40
0.6013513513513512
 40
0.6013513513513512
 40
0.6013513513513512
 40
0.6013513513513512
 40
0.608108108108108
 40
0.608108108108108
 40
0.608108108108108
 40
0.608108108108108
 40
0.6148648648648648
 40
0.6148648648648648
 40
0.6148648648648648
 40
0.6148648648648648
 40
0.6216216216216216
 40
0.6216216216216216
 40
0.6216216216216216
 40
0.6216216216216216
 40
0.6283783783783784
 40
0.6283783783783784
 40
0.6283783783783784
 40
0.6283783783783784
 40
0.6351351351351352
 40
0.6351351351351352
 40
0.6351351351351352
 40
0.6351351351351352
 40
0.641891891891892
 40
0.641891891891892
 40
0.641891891891892
 40
0.641891891891892
 40
0.6486486486486488
 40
0.6486486486486488
 40
0.6486486486486488
 40
0.6486486486486488
 40
0.6554054054054056
 40
0.6554054054054056
 40
0.6554054054054056
 40
0.6554054054054056
 40
0.6621621621621624
 40
0.6621621621621624
 40
0.6621621621621624
 40
0.6621621621621624
 40
0.6689189189189192
 40
0.6689189189189192
 40
0.6689189189189192
 40
0.6689189189189192
 40
0.675675675675676
 40
0.675675675675676
 40
0.675675675675676
 40
0.675675675675676
 40
0.6824324324324328
 40
0.6824324324324328
 40
0.6824324324324328
 40
0.6824324324324328
 40
0.6891891891891896
 40
0.6891891891891896
 40
0.6891891891891896
 40
0.6891891891891896
 40
0.6959459459459464
 40
0.6959459459459464
 40
0.6959459459459464
 40
0.6959459459459464
 40
0.7027027027027032
 40
0.7027027027027032
 40
0.7027027027027032
 40
0.7027027027027032
 40
0.70945945945946
 40
0.70945945945946
 40
0.70945945945946
 40
0.70945945945946
 40
0.7162162162162168
 40
0.7162162162162168
 40
0.7162162162162168
 40
0.7162162162162168
 40
0.7229729729729736
 40
0.7229729729729736
 40
0.7229729729729736
 40
0.7229729729729736
 40
0.7297297297297304
 40
0.7297297297297304
 40
0.7297297297297304
 40
0.7297297297297304
 40
0.7364864864864872
 40
0.7364864864864872
 40
0.7364864864864872
 40
0.7364864864864872
 40
0.743243243243244
 40
0.743243243243244
 40
0.743243243243244
 40
0.743243243243244
 40
0.7500000000000008
 40
0.7500000000000008
 40
0.7500000000000008
 40
0.7500000000000008
 40
0.7567567567567576
 40
0.7567567567567576
 40
0.7567567567567576
 40
0.7567567567567576
 40
0.7635135135135144
 40
0.7635135135135144
 40
0.7635135135135144
 40
0.7635135135135144
 40
0.7702702702702712
 40
0.7702702702702712
 40
0.7702702702702712
 40
0.7702702702702712
 40
0.777027027027028
 40
0.777027027027028
 40
0.777027027027028
 40
0.777027027027028
 40
0.7837837837837848
 40
0.7837837837837848
 40
0.7837837837837848
 40
0.7837837837837848
 40
0.7905405405405416
 40
0.7905405405405416
 40
0.7905405405405416
 40
0.7905405405405416
 40
0.7972972972972984
 40
0.7972972972972984
 40
0.7972972972972984
 40
0.7972972972972984
 40
0.8040540540540552
 40
0.8040540540540552
 40
0.8040540540540552
 40
0.8040540540540552
 40
0.810810810810812
 40
0.810810810810812
 40
0.810810810810812
 40
0.810810810810812
 40
0.8175675675675688
 40
0.8175675675675688
 40
0.8175675675675688
 40
0.8175675675675688
 40
0.8243243243243256
 40
0.8243243243243256
 40
0.8243243243243256
 40
0.8243243243243256
 40
0.8310810810810824
 40
0.8310810810810824
 40
0.8310810810810824
 40
0.8310810810810824
 40
0.8378378378378392
 40
0.8378378378378392
 40
0.8378378378378392
 40
0.8378378378378392
 40
0.844594594594596
 40
0.844594594594596
 40
0.844594594594596
 40
0.844594594594596
 40
0.8513513513513528
 40
0.8513513513513528
 40
0.8513513513513528
 40
0.8513513513513528
 40
0.8581081081081096
 40
0.8581081081081096
 40
0.8581081081081096
 40
0.8581081081081096
 40
0.8648648648648664
 40
0.8648648648648664
 40
0.8648648648648664
 40
0.8648648648648664
 40
0.8716216216216232
 40
0.8716216216216232
 40
0.8716216216216232
 40
0.8716216216216232
 40
0.87837837837838
 40
0.87837837837838
 40
0.87837837837838
 40
0.87837837837838
 40
0.8851351351351368
 40
0.8851351351351368
 40
0.8851351351351368
 40
0.8851351351351368
 40
0.8918918918918936
 40
0.8918918918918936
 40
0.8918918918918936
 40
0.8918918918918936
 40
0.8986486486486503
 40
0.8986486486486503
 40
0.8986486486486503
 40
0.8986486486486503
 40
0.9054054054054071
 40
0.9054054054054071
 40
0.9054054054054071
 40
0.9054054054054071
 40
0.912162162162164
 40
0.912162162162164
 40
0.912162162162164
 40
0.912162162162164
 40
0.9189189189189207
 40
0.9189189189189207
 40
0.9189189189189207
 40
0.9189189189189207
 40
0.9256756756756775
 40
0.9256756756756775
 40
0.9256756756756775
 40
0.9256756756756775
 40
0.9324324324324343
 40
0.9324324324324343
 40
0.9324324324324343
 40
0.9324324324324343
 40
0.9391891891891911
 40
0.9391891891891911
 40
0.9391891891891911
 40
0.9391891891891911
 40
0.9459459459459479
 40
0.9459459459459479
 40
0.9459459459459479
 40
0.9459459459459479
 40
0.9527027027027047
 40
0.9527027027027047
 40
0.9527027027027047
 40
0.9527027027027047
 40
0.9594594594594615
 40
0.9594594594594615
 40
0.9594594594594615
 40
0.9594594594594615
 40
0.9662162162162183
 40
0.9662162162162183
 40
0.9662162162162183
 40
0.9662162162162183
 40
0.9729729729729751
 40
0.9729729729729751
 40
0.9729729729729751
 40
0.9729729729729751
 40
0.9797297297297319
 40
0.9797297297297319
 40
0.9797297297297319
 40
0.9797297297297319
 40
0.9864864864864887
 40
0.9864864864864887
 40
0.9864864864864887
 40
0.9864864864864887
 40
0.9932432432432455
 40
0.9932432432432455
 40
0.9932432432432455
 40
0.9932432432432455
 40
1.0
 40
1.0
 40
1.0
 40
1.0
 10
27.2596
 20
-9.6778
 30
0.0
 10
25.6497
 20
-9.5329
 30
0.0
 10
20.6484
 20
-4.5909
 30
0.0
 10
19.4871
 20
-3.1026
 30
0.0
 10
19.4871
 20
-3.1026
 30
0.0
 10
18.8408
 20
-4.0829
 30
0.0
 10
20.3641
 20
-7.0178
 30
0.0
 10
20.9693
 20
-8.1786
 30
0.0
 10
20.9693
 20
-8.1786
 30
0.0
 10
21.8766
 20
-9.9184
 30
0.0
 10
23.5303
 20
-10.3887
 30
0.0
 10
25.1099
 20
-11.2119
 30
0.0
 10
25.1099
 20
-11.2119
 30
0.0
 10
29.2771
 20
-13.3836
 30
0.0
 10
27.5419
 20
-18.4984
 30
0.0
 10
27.4717
 20
-22.3861
 30
0.0
 10
27.4717
 20
-22.3861
 30
0.0
 10
27.4717
 20
-22.3861
 30
0.0
 10
27.0614
 20
-23.0048
 30
0.0
 10
27.0614
 20
-23.0048
 30
0.0
 10
27.0614
 20
-23.0048
 30
0.0
 10
26.9683
 20
-27.3716
 30
0.0
 10
23.8768
 20
-33.2445
 30
0.0
 10
19.9426
 20
-35.1517
 30
0.0
 10
19.9426
 20
-35.1517
 30
0.0
 10
17.6017
 20
-36.2866
 30
0.0
 10
15.2776
 20
-36.9054
 30
0.0
 10
12.7864
 20
-37.6298
 30
0.0
 10
12.7864
 20
-37.6298
 30
0.0
 10
10.8294
 20
-38.1988
 30
0.0
 10
5.9028
 20
-38.6228
 30
0.0
 10
4.5582
 20
-39.1305
 30
0.0
 10
4.5582
 20
-39.1305
 30
0.0
 10
4.5582
 20
-39.1305
 30
0.0
 10
4.4582
 20
-43.636
 30
0.0
 10
4.4582
 20
-43.636
 30
0.0
 10
4.4582
 20
-43.636
 30
0.0
 10
4.4582
 20
-43.636
 30
0.0
 10
3.9082
 20
-43.9208
 30
0.0
 10
3.9082
 20
-43.9208
 30
0.0
 10
3.9082
 20
-43.9208
 30
0.0
 10
2.9147
 20
-43.2491
 30
0.0
 10
-0.1336
 20
-41.8461
 30
0.0
 10
-1.4034
 20
-41.1991
 30
0.0
 10
-1.4034
 20
-41.1991
 30
0.0
 10
-3.0946
 20
-40.3375
 30
0.0
 10
-4.8295
 20
-39.1252
 30
0.0
 10
-6.5278
 20
-38.1245
 30
0.0
 10
-6.5278
 20
-38.1245
 30
0.0
 10
-8.89
 20
-36.7327
 30
0.0
 10
-13.5223
 20
-32.4745
 30
0.0
 10
-14.3834
 20
-29.7798
 30
0.0
 10
-14.3834
 20
-29.7798
 30
0.0
 10
-13.5529
 20
-28.5992
 30
0.0
 10
-13.6446
 20
-27.1971
 30
0.0
 10
-12.2545
 20
-25.7135
 30
0.0
 10
-12.2545
 20
-25.7135
 30
0.0
 10
-11.3584
 20
-24.7571
 30
0.0
 10
-9.6368
 20
-23.831
 30
0.0
 10
-9.2821
 20
-22.6113
 30
0.0
 10
-9.2821
 20
-22.6113
 30
0.0
 10
-9.2821
 20
-22.6113
 30
0.0
 10
-10.1572
 20
-22.6751
 30
0.0
 10
-10.1572
 20
-22.6751
 30
0.0
 10
-10.1572
 20
-22.6751
 30
0.0
 10
-10.1572
 20
-22.6751
 30
0.0
 10
-10.6659
 20
-20.334
 30
0.0
 10
-10.6659
 20
-20.334
 30
0.0
 10
-10.6659
 20
-20.334
 30
0.0
 10
-6.7648
 20
-20.0081
 30
0.0
 10
-3.0927
 20
-18.326
 30
0.0
 10
0.1202
 20
-16.1565
 30
0.0
 10
0.1202
 20
-16.1565
 30
0.0
 10
0.8905
 20
-15.6364
 30
0.0
 10
4.1264
 20
-13.4787
 30
0.0
 10
4.5433
 20
-12.9957
 30
0.0
 10
4.5433
 20
-12.9957
 30
0.0
 10
6.617
 20
-10.5933
 30
0.0
 10
3.9378
 20
-9.5565
 30
0.0
 10
4.2496
 20
-7.2111
 30
0.0
 10
4.2496
 20
-7.2111
 30
0.0
 10
4.2496
 20
-7.2111
 30
0.0
 10
4.4555
 20
-5.7887
 30
0.0
 10
4.4555
 20
-5.7887
 30
0.0
 10
4.4555
 20
-5.7887
 30
0.0
 10
1.0293
 20
-8.6658
 30
0.0
 10
1.5215
 20
-14.924
 30
0.0
 10
-4.6055
 20
-13.8504
 30
0.0
 10
-4.6055
 20
-13.8504
 30
0.0
 10
-6.6374
 20
-13.4943
 30
0.0
 10
-9.0581
 20
-15.2019
 30
0.0
 10
-10.4085
 20
-16.6977
 30
0.0
 10
-10.4085
 20
-16.6977
 30
0.0
 10
-12.6882
 20
-19.2229
 30
0.0
 10
-12.0306
 20
-20.3799
 30
0.0
 10
-12.3012
 20
-23.6949
 30
0.0
 10
-12.3012
 20
-23.6949
 30
0.0
 10
-12.3012
 20
-23.6949
 30
0.0
 10
-14.5041
 20
-24.5747
 30
0.0
 10
-14.5041
 20
-24.5747
 30
0.0
 10
-14.5041
 20
-24.5747
 30
0.0
 10
-14.5041
 20
-24.5747
 30
0.0
 10
-14.7338
 20
-24.551
 30
0.0
 10
-14.7338
 20
-24.551
 30
0.0
 10
-14.7338
 20
-24.551
 30
0.0
 10
-14.7338
 20
-24.551
 30
0.0
 10
-16.1692
 20
-22.1749
 30
0.0
 10
-16.1692
 20
-22.1749
 30
0.0
 10
-16.1692
 20
-22.1749
 30
0.0
 10
-16.1692
 20
-22.1749
 30
0.0
 10
-16.3642
 20
-21.1625
 30
0.0
 10
-16.3642
 20
-21.1625
 30
0.0
 10
-16.3642
 20
-21.1625
 30
0.0
 10
-16.3642
 20
-21.1625
 30
0.0
 10
-16.8357
 20
-23.8142
 30
0.0
 10
-16.8357
 20
-23.8142
 30
0.0
 10
-16.8357
 20
-23.8142
 30
0.0
 10
-16.8357
 20
-23.8142
 30
0.0
 10
-18.2511
 20
-24.6374
 30
0.0
 10
-18.2511
 20
-24.6374
 30
0.0
 10
-18.2511
 20
-24.6374
 30
0.0
 10
-18.2511
 20
-24.6374
 30
0.0
 10
-18.6611
 20
-24.6374
 30
0.0
 10
-18.6611
 20
-24.6374
 30
0.0
 10
-18.6611
 20
-24.6374
 30
0.0
 10
-18.6611
 20
-24.6374
 30
0.0
 10
-18.8661
 20
-24.6374
 30
0.0
 10
-18.8661
 20
-24.6374
 30
0.0
 10
-18.8661
 20
-24.6374
 30
0.0
 10
-20.0921
 20
-24.6374
 30
0.0
 10
-21.0879
 20
-24.23
 30
0.0
 10
-21.2928
 20
-22.9647
 30
0.0
 10
-21.2928
 20
-22.9647
 30
0.0
 10
-21.4464
 20
-22.0157
 30
0.0
 10
-21.6804
 20
-20.2737
 30
0.0
 10
-21.7888
 20
-19.3621
 30
0.0
 10
-21.7888
 20
-19.3621
 30
0.0
 10
-24.5205
 20
-16.5932
 30
0.0
 10
-25.8702
 20
-11.1177
 30
0.0
 10
-30.8909
 20
-13.3314
 30
0.0
 10
-30.8909
 20
-13.3314
 30
0.0
 10
-32.9137
 20
-11.3901
 30
0.0
 10
-32.9188
 20
-8.04
 30
0.0
 10
-33.8313
 20
-7.0138
 30
0.0
 10
-33.8313
 20
-7.0138
 30
0.0
 10
-33.3617
 20
-11.8063
 30
0.0
 10
-32.7913
 20
-14.3448
 30
0.0
 10
-28.7751
 20
-17.329
 30
0.0
 10
-28.7751
 20
-17.329
 30
0.0
 10
-27.2788
 20
-18.4409
 30
0.0
 10
-25.0778
 20
-18.8135
 30
0.0
 10
-23.6255
 20
-19.7636
 30
0.0
 10
-23.6255
 20
-19.7636
 30
0.0
 10
-21.2795
 20
-21.2982
 30
0.0
 10
-22.2963
 20
-22.5442
 30
0.0
 10
-20.9105
 20
-24.8528
 30
0.0
 10
-20.9105
 20
-24.8528
 30
0.0
 10
-20.4252
 20
-24.9785
 30
0.0
 10
-19.3138
 20
-26.0367
 30
0.0
 10
-18.3853
 20
-26.6156
 30
0.0
 10
-18.3853
 20
-26.6156
 30
0.0
 10
-17.0849
 20
-27.4265
 30
0.0
 10
-16.4651
 20
-28.2873
 30
0.0
 10
-16.6455
 20
-29.9091
 30
0.0
 10
-16.6455
 20
-29.9091
 30
0.0
 10
-17.0627
 20
-33.6598
 30
0.0
 10
-17.2036
 20
-34.314
 30
0.0
 10
-19.7518
 20
-37.0723
 30
0.0
 10
-19.7518
 20
-37.0723
 30
0.0
 10
-24.0124
 20
-41.6842
 30
0.0
 10
-29.8105
 20
-41.2305
 30
0.0
 10
-35.0336
 20
-38.7496
 30
0.0
 10
-35.0336
 20
-38.7496
 30
0.0
 10
-46.0163
 20
-33.5328
 30
0.0
 10
-50.5213
 20
-23.7863
 30
0.0
 10
-47.7715
 20
-11.932
 30
0.0
 10
-47.7715
 20
-11.932
 30
0.0
 10
-49.1068
 20
-12.8083
 30
0.0
 10
-50.4184
 20
-17.0409
 30
0.0
 10
-50.2346
 20
-18.4901
 30
0.0
 10
-50.2346
 20
-18.4901
 30
0.0
 10
-50.2346
 20
-18.4901
 30
0.0
 10
-49.6165
 20
-22.7931
 30
0.0
 10
-49.6165
 20
-22.7931
 30
0.0
 10
-49.6165
 20
-22.7931
 30
0.0
 10
-55.4435
 20
-22.7931
 30
0.0
 10
-58.59
 20
-22.7908
 30
0.0
 10
-63.9518
 20
-23.8326
 30
0.0
 10
-63.9518
 20
-23.8326
 30
0.0
 10
-65.6861
 20
-24.1696
 30
0.0
 10
-74.7109
 20
-26.6773
 30
0.0
 10
-75.4608
 20
-27.6616
 30
0.0
 10
-75.4608
 20
-27.6616
 30
0.0
 10
-75.4608
 20
-27.6616
 30
0.0
 10
-65.2486
 20
-24.8049
 30
0.0
 10
-65.2486
 20
-24.8049
 30
0.0
 10
-65.2486
 20
-24.8049
 30
0.0
 10
-65.2486
 20
-24.8049
 30
0.0
 10
-65.164
 20
-25.0816
 30
0.0
 10
-65.164
 20
-25.0816
 30
0.0
 10
-65.164
 20
-25.0816
 30
0.0
 10
-65.164
 20
-25.0816
 30
0.0
 10
-64.5968
 20
-24.6934
 30
0.0
 10
-64.5968
 20
-24.6934
 30
0.0
 10
-64.5968
 20
-24.6934
 30
0.0
 10
-64.5968
 20
-24.6934
 30
0.0
 10
-61.7117
 20
-24.4325
 30
0.0
 10
-61.7117
 20
-24.4325
 30
0.0
 10
-61.7117
 20
-24.4325
 30
0.0
 10
-61.7117
 20
-24.4325
 30
0.0
 10
-53.717
 20
-24.4382
 30
0.0
 10
-53.717
 20
-24.4382
 30
0.0
 10
-53.717
 20
-24.4382
 30
0.0
 10
-53.717
 20
-24.4382
 30
0.0
 10
-49.7554
 20
-24.9084
 30
0.0
 10
-49.7554
 20
-24.9084
 30
0.0
 10
-49.7554
 20
-24.9084
 30
0.0
 10
-49.7554
 20
-24.9084
 30
0.0
 10
-49.4115
 20
-24.2276
 30
0.0
 10
-49.4115
 20
-24.2276
 30
0.0
 10
-49.4115
 20
-24.2276
 30
0.0
 10
-49.0656
 20
-24.7819
 30
0.0
 10
-47.3807
 20
-28.6702
 30
0.0
 10
-47.8421
 20
-29.3338
 30
0.0
 10
-47.8421
 20
-29.3338
 30
0.0
 10
-47.8421
 20
-29.3338
 30
0.0
 10
-48.379
 20
-28.9402
 30
0.0
 10
-48.379
 20
-28.9402
 30
0.0
 10
-48.379
 20
-28.9402
 30
0.0
 10
-51.7048
 20
-28.9343
 30
0.0
 10
-54.4847
 20
-28.3915
 30
0.0
 10
-57.9451
 20
-29.0174
 30
0.0
 10
-57.9451
 20
-29.0174
 30
0.0
 10
-60.9834
 20
-29.567
 30
0.0
 10
-63.3357
 20
-30.3024
 30
0.0
 10
-66.2465
 20
-31.3753
 30
0.0
 10
-66.2465
 20
-31.3753
 30
0.0
 10
-68.6397
 20
-32.2574
 30
0.0
 10
-78.6116
 20
-37.2375
 30
0.0
 10
-79.6935
 20
-39.0833
 30
0.0
 10
-79.6935
 20
-39.0833
 30
0.0
 10
-79.6935
 20
-39.0833
 30
0.0
 10
-74.982
 20
-36.1682
 30
0.0
 10
-74.982
 20
-36.1682
 30
0.0
 10
-74.982
 20
-36.1682
 30
0.0
 10
-72.9413
 20
-35.8663
 30
0.0
 10
-67.9783
 20
-32.9966
 30
0.0
 10
-64.5726
 20
-32.2289
 30
0.0
 10
-64.5726
 20
-32.2289
 30
0.0
 10
-61.0826
 20
-31.4421
 30
0.0
 10
-55.5785
 20
-30.5803
 30
0.0
 10
-52.0766
 20
-30.5803
 30
0.0
 10
-52.0766
 20
-30.5803
 30
0.0
 10
-52.0766
 20
-30.5803
 30
0.0
 10
-47.9765
 20
-30.5837
 30
0.0
 10
-47.9765
 20
-30.5837
 30
0.0
 10
-47.9765
 20
-30.5837
 30
0.0
 10
-47.9765
 20
-30.5837
 30
0.0
 10
-46.7277
 20
-30.5627
 30
0.0
 10
-46.7277
 20
-30.5627
 30
0.0
 10
-46.7277
 20
-30.5627
 30
0.0
 10
-46.7277
 20
-30.5627
 30
0.0
 10
-45.0822
 20
-33.2647
 30
0.0
 10
-45.0822
 20
-33.2647
 30
0.0
 10
-45.0822
 20
-33.2647
 30
0.0
 10
-45.0822
 20
-33.2647
 30
0.0
 10
-45.5683
 20
-33.7943
 30
0.0
 10
-45.5683
 20
-33.7943
 30
0.0
 10
-45.5683
 20
-33.7943
 30
0.0
 10
-45.5683
 20
-33.7943
 30
0.0
 10
-48.7972
 20
-34.0634
 30
0.0
 10
-48.7972
 20
-34.0634
 30
0.0
 10
-48.7972
 20
-34.0634
 30
0.0
 10
-49.7191
 20
-34.6725
 30
0.0
 10
-54.341
 20
-36.1801
 30
0.0
 10
-56.181
 20
-37.1335
 30
0.0
 10
-56.181
 20
-37.1335
 30
0.0
 10
-58.4276
 20
-38.2977
 30
0.0
 10
-60.853
 20
-39.4787
 30
0.0
 10
-62.8158
 20
-40.9525
 30
0.0
 10
-62.8158
 20
-40.9525
 30
0.0
 10
-63.9742
 20
-41.8225
 30
0.0
 10
-75.1282
 20
-49.6703
 30
0.0
 10
-75.1947
 20
-49.6856
 30
0.0
 10
-75.1947
 20
-49.6856
 30
0.0
 10
-75.1947
 20
-49.6856
 30
0.0
 10
-75.0498
 20
-49.8636
 30
0.0
 10
-75.0498
 20
-49.8636
 30
0.0
 10
-75.0498
 20
-49.8636
 30
0.0
 10
-75.0498
 20
-49.8636
 30
0.0
 10
-77.702
 20
-52.0975
 30
0.0
 10
-77.702
 20
-52.0975
 30
0.0
 10
-77.702
 20
-52.0975
 30
0.0
 10
-76.9713
 20
-51.9001
 30
0.0
 10
-71.1886
 20
-47.8136
 30
0.0
 10
-70.2715
 20
-47.0247
 30
0.0
 10
-70.2715
 20
-47.0247
 30
0.0
 10
-67.6462
 20
-44.7665
 30
0.0
 10
-65.7482
 20
-43.5176
 30
0.0
 10
-62.8024
 20
-41.7856
 30
0.0
 10
-62.8024
 20
-41.7856
 30
0.0
 10
-57.1538
 20
-38.4642
 30
0.0
 10
-50.421
 20
-36.9923
 30
0.0
 10
-44.1748
 20
-34.7405
 30
0.0
 10
-44.1748
 20
-34.7405
 30
0.0
 10
-44.1748
 20
-34.7405
 30
0.0
 10
-41.6249
 20
-38.1392
 30
0.0
 10
-41.6249
 20
-38.1392
 30
0.0
 10
-41.6249
 20
-38.1392
 30
0.0
 10
-41.6249
 20
-38.1392
 30
0.0
 10
-47.181
 20
-38.9577
 30
0.0
 10
-47.181
 20
-38.9577
 30
0.0
 10
-47.181
 20
-38.9577
 30
0.0
 10
-47.9278
 20
-39.5563
 30
0.0
 10
-50.5727
 20
-40.1295
 30
0.0
 10
-51.7926
 20
-40.9056
 30
0.0
 10
-51.7926
 20
-40.9056
 30
0.0
 10
-53.1046
 20
-41.7402
 30
0.0
 10
-54.428
 20
-42.5566
 30
0.0
 10
-55.7638
 20
-43.4935
 30
0.0
 10
-55.7638
 20
-43.4935
 30
0.0
 10
-57.7985
 20
-44.9207
 30
0.0
 10
-61.2546
 20
-48.0998
 30
0.0
 10
-62.5317
 20
-50.0483
 30
0.0
 10
-62.5317
 20
-50.0483
 30
0.0
 10
-62.2759
 20
-49.98
 30
0.0
 10
-56.9214
 20
-45.433
 30
0.0
 10
-55.8529
 20
-44.634
 30
0.0
 10
-55.8529
 20
-44.634
 30
0.0
 10
-54.4916
 20
-43.6161
 30
0.0
 10
-48.7187
 20
-41.2068
 30
0.0
 10
-47.1409
 20
-41.2521
 30
0.0
 10
-47.1409
 20
-41.2521
 30
0.0
 10
-47.1409
 20
-41.2521
 30
0.0
 10
-47.1954
 20
-41.0243
 30
0.0
 10
-47.1954
 20
-41.0243
 30
0.0
 10
-47.1954
 20
-41.0243
 30
0.0
 10
-47.1954
 20
-41.0243
 30
0.0
 10
-40.3914
 20
-39.5971
 30
0.0
 10
-40.3914
 20
-39.5971
 30
0.0
 10
-40.3914
 20
-39.5971
 30
0.0
 10
-35.7437
 20
-44.8653
 30
0.0
 10
-36.8207
 20
-47.1665
 30
0.0
 10
-36.0707
 20
-53.9263
 30
0.0
 10
-36.0707
 20
-53.9263
 30
0.0
 10
-35.8414
 20
-55.9932
 30
0.0
 10
-34.3961
 20
-70.0221
 30
0.0
 10
-34.0091
 20
-70.7482
 30
0.0
 10
-34.0091
 20
-70.7482
 30
0.0
 10
-34.9614
 20
-72.3895
 30
0.0
 10
-36.8302
 20
-74.6458
 30
0.0
 10
-33.9124
 20
-75.9506
 30
0.0
 10
-33.9124
 20
-75.9506
 30
0.0
 10
-32.4249
 20
-76.6159
 30
0.0
 10
-28.6125
 20
-75.2057
 30
0.0
 10
-26.9949
 20
-74.7107
 30
0.0
 10
-26.9949
 20
-74.7107
 30
0.0
 10
-23.0052
 20
-73.4897
 30
0.0
 10
-16.1273
 20
-73.0
 30
0.0
 10
-11.896
 20
-73.0
 30
0.0
 10
-11.896
 20
-73.0
 30
0.0
 10
-11.896
 20
-73.0
 30
0.0
 10
-8.4109
 20
-73.0
 30
0.0
 10
-8.4109
 20
-73.0
 30
0.0
 10
-8.4109
 20
-73.0
 30
0.0
 10
-4.9148
 20
-73.0
 30
0.0
 10
-0.9323
 20
-73.34
 30
0.0
 10
1.9894
 20
-75.3091
 30
0.0
 10
1.9894
 20
-75.3091
 30
0.0
 10
4.1908
 20
-76.7927
 30
0.0
 10
8.3682
 20
-79.4569
 30
0.0
 10
10.9944
 20
-79.0892
 30
0.0
 10
10.9944
 20
-79.0892
 30
0.0
 10
12.5952
 20
-77.6334
 30
0.0
 10
12.4994
 20
-75.6135
 30
0.0
 10
12.4994
 20
-73.6148
 30
0.0
 10
12.4994
 20
-73.6148
 30
0.0
 10
12.4994
 20
-73.6148
 30
0.0
 10
12.5644
 20
-68.0769
 30
0.0
 10
12.5644
 20
-68.0769
 30
0.0
 10
12.5644
 20
-68.0769
 30
0.0
 10
12.5644
 20
-68.0769
 30
0.0
 10
11.8844
 20
-57.8354
 30
0.0
 10
11.8844
 20
-57.8354
 30
0.0
 10
11.8844
 20
-57.8354
 30
0.0
 10
11.8844
 20
-57.8354
 30
0.0
 10
11.8844
 20
-55.7862
 30
0.0
 10
11.8844
 20
-55.7862
 30
0.0
 10
11.8844
 20
-55.7862
 30
0.0
 10
11.8844
 20
-51.8274
 30
0.0
 10
12.4645
 20
-51.9105
 30
0.0
 10
13.3194
 20
-48.6138
 30
0.0
 10
13.3194
 20
-48.6138
 30
0.0
 10
13.3194
 20
-48.6138
 30
0.0
 10
14.0273
 20
-48.5665
 30
0.0
 10
14.0273
 20
-48.5665
 30
0.0
 10
14.0273
 20
-48.5665
 30
0.0
 10
14.0273
 20
-48.5665
 30
0.0
 10
19.0595
 20
-58.2454
 30
0.0
 10
19.0595
 20
-58.2454
 30
0.0
 10
19.0595
 20
-58.2454
 30
0.0
 10
18.4216
 20
-55.5985
 30
0.0
 10
14.3522
 20
-48.9126
 30
0.0
 10
14.6018
 20
-46.8218
 30
0.0
 10
14.6018
 20
-46.8218
 30
0.0
 10
14.6018
 20
-46.8218
 30
0.0
 10
16.6522
 20
-44.7755
 30
0.0
 10
16.6522
 20
-44.7755
 30
0.0
 10
16.6522
 20
-44.7755
 30
0.0
 10
16.6522
 20
-44.7755
 30
0.0
 10
18.0324
 20
-44.7626
 30
0.0
 10
18.0324
 20
-44.7626
 30
0.0
 10
18.0324
 20
-44.7626
 30
0.0
 10
18.0324
 20
-44.7626
 30
0.0
 10
17.9369
 20
-45.4442
 30
0.0
 10
17.9369
 20
-45.4442
 30
0.0
 10
17.9369
 20
-45.4442
 30
0.0
 10
17.9369
 20
-45.4442
 30
0.0
 10
19.096
 20
-46.3403
 30
0.0
 10
19.096
 20
-46.3403
 30
0.0
 10
19.096
 20
-46.3403
 30
0.0
 10
19.096
 20
-46.3403
 30
0.0
 10
23.8765
 20
-50.5744
 30
0.0
 10
23.8765
 20
-50.5744
 30
0.0
 10
23.8765
 20
-50.5744
 30
0.0
 10
23.8765
 20
-50.5744
 30
0.0
 10
24.0157
 20
-50.4226
 30
0.0
 10
24.0157
 20
-50.4226
 30
0.0
 10
24.0157
 20
-50.4226
 30
0.0
 10
24.0157
 20
-50.4226
 30
0.0
 10
17.6069
 20
-43.9181
 30
0.0
 10
17.6069
 20
-43.9181
 30
0.0
 10
17.6069
 20
-43.9181
 30
0.0
 10
18.6565
 20
-42.3647
 30
0.0
 10
21.2009
 20
-41.2794
 30
0.0
 10
22.9723
 20
-41.2187
 30
0.0
 10
22.9723
 20
-41.2187
 30
0.0
 10
24.0327
 20
-42.5927
 30
0.0
 10
32.4102
 20
-47.567
 30
0.0
 10
34.0247
 20
-47.999
 30
0.0
 10
34.0247
 20
-47.999
 30
0.0
 10
32.5683
 20
-45.7985
 30
0.0
 10
24.7818
 20
-40.5048
 30
0.0
 10
24.5946
 20
-38.7774
 30
0.0
 10
24.5946
 20
-38.7774
 30
0.0
 10
24.5946
 20
-38.7774
 30
0.0
 10
25.6196
 20
-38.7774
 30
0.0
 10
25.6196
 20
-38.7774
 30
0.0
 10
25.6196
 20
-38.7774
 30
0.0
 10
27.363
 20
-38.7774
 30
0.0
 10
28.9364
 20
-39.5956
 30
0.0
 10
30.5362
 20
-39.6074
 30
0.0
 10
30.5362
 20
-39.6074
 30
0.0
 10
30.5362
 20
-39.6074
 30
0.0
 10
33.8886
 20
-40.5173
 30
0.0
 10
33.8886
 20
-40.5173
 30
0.0
 10
33.8886
 20
-40.5173
 30
0.0
 10
33.8886
 20
-40.5173
 30
0.0
 10
26.5318
 20
-35.6697
 30
0.0
 10
26.5318
 20
-35.6697
 30
0.0
 10
26.5318
 20
-35.6697
 30
0.0
 10
26.5318
 20
-35.6697
 30
0.0
 10
26.6446
 20
-35.4985
 30
0.0
 10
26.6446
 20
-35.4985
 30
0.0
 10
26.6446
 20
-35.4985
 30
0.0
 10
26.6683
 20
-35.5094
 30
0.0
 10
33.3746
 20
-36.6495
 30
0.0
 10
33.8411
 20
-36.7067
 30
0.0
 10
33.8411
 20
-36.7067
 30
0.0
 10
35.9764
 20
-36.9688
 30
0.0
 10
39.0521
 20
-38.4343
 30
0.0
 10
40.5848
 20
-38.5724
 30
0.0
 10
40.5848
 20
-38.5724
 30
0.0
 10
40.246
 20
-38.0973
 30
0.0
 10
36.3157
 20
-36.0309
 30
0.0
 10
35.5277
 20
-35.6355
 30
0.0
 10
35.5277
 20
-35.6355
 30
0.0
 10
33.6681
 20
-34.7024
 30
0.0
 10
30.7605
 20
-33.8456
 30
0.0
 10
29.7021
 20
-33.2619
 30
0.0
 10
29.7021
 20
-33.2619
 30
0.0
 10
29.7021
 20
-33.2619
 30
0.0
 10
29.6637
 20
-33.0329
 30
0.0
 10
29.6637
 20
-33.0329
 30
0.0
 10
29.6637
 20
-33.0329
 30
0.0
 10
29.6637
 20
-33.0329
 30
0.0
 10
31.3946
 20
-32.7983
 30
0.0
 10
31.3946
 20
-32.7983
 30
0.0
 10
31.3946
 20
-32.7983
 30
0.0
 10
31.3946
 20
-32.7983
 30
0.0
 10
31.9756
 20
-33.1199
 30
0.0
 10
31.9756
 20
-33.1199
 30
0.0
 10
31.9756
 20
-33.1199
 30
0.0
 10
31.9756
 20
-33.1199
 30
0.0
 10
37.9546
 20
-34.0278
 30
0.0
 10
37.9546
 20
-34.0278
 30
0.0
 10
37.9546
 20
-34.0278
 30
0.0
 10
37.9546
 20
-34.0278
 30
0.0
 10
38.5103
 20
-34.4984
 30
0.0
 10
38.5103
 20
-34.4984
 30
0.0
 10
38.5103
 20
-34.4984
 30
0.0
 10
41.8579
 20
-34.3416
 30
0.0
 10
49.0351
 20
-37.4635
 30
0.0
 10
51.4079
 20
-39.3801
 30
0.0
 10
51.4079
 20
-39.3801
 30
0.0
 10
51.4079
 20
-39.3801
 30
0.0
 10
52.1736
 20
-38.8933
 30
0.0
 10
52.1736
 20
-38.8933
 30
0.0
 10
52.1736
 20
-38.8933
 30
0.0
 10
52.1736
 20
-38.8933
 30
0.0
 10
52.3309
 20
-39.0562
 30
0.0
 10
52.3309
 20
-39.0562
 30
0.0
 10
52.3309
 20
-39.0562
 30
0.0
 10
52.3309
 20
-39.0562
 30
0.0
 10
51.7959
 20
-39.8166
 30
0.0
 10
51.7959
 20
-39.8166
 30
0.0
 10
51.7959
 20
-39.8166
 30
0.0
 10
51.7959
 20
-39.8166
 30
0.0
 10
54.525
 20
-42.466
 30
0.0
 10
54.525
 20
-42.466
 30
0.0
 10
54.525
 20
-42.466
 30
0.0
 10
53.4246
 20
-40.3202
 30
0.0
 10
52.7162
 20
-38.8794
 30
0.0
 10
51.1638
 20
-36.8093
 30
0.0
 10
51.1638
 20
-36.8093
 30
0.0
 10
49.4499
 20
-34.524
 30
0.0
 10
47.8683
 20
-34.1712
 30
0.0
 10
45.6716
 20
-33.0778
 30
0.0
 10
45.6716
 20
-33.0778
 30
0.0
 10
43.3809
 20
-31.9375
 30
0.0
 10
32.9115
 20
-28.7568
 30
0.0
 10
32.1621
 20
-28.1036
 30
0.0
 10
32.1621
 20
-28.1036
 30
0.0
 10
32.1621
 20
-28.1036
 30
0.0
 10
32.1099
 20
-27.9044
 30
0.0
 10
32.1099
 20
-27.9044
 30
0.0
 10
32.1099
 20
-27.9044
 30
0.0
 10
32.1099
 20
-27.9044
 30
0.0
 10
43.9358
 20
-24.8202
 30
0.0
 10
43.9358
 20
-24.8202
 30
0.0
 10
43.9358
 20
-24.8202
 30
0.0
 10
43.9358
 20
-24.8202
 30
0.0
 10
36.0209
 20
-22.3508
 30
0.0
 10
36.0209
 20
-22.3508
 30
0.0
 10
36.0209
 20
-22.3508
 30
0.0
 10
36.0209
 20
-22.3508
 30
0.0
 10
35.9738
 20
-22.0013
 30
0.0
 10
35.9738
 20
-22.0013
 30
0.0
 10
35.9738
 20
-22.0013
 30
0.0
 10
35.9738
 20
-22.0013
 30
0.0
 10
39.3197
 20
-20.0588
 30
0.0
 10
39.3197
 20
-20.0588
 30
0.0
 10
39.3197
 20
-20.0588
 30
0.0
 10
38.7967
 20
-19.6565
 30
0.0
 10
34.1657
 20
-18.7584
 30
0.0
 10
33.2023
 20
-18.697
 30
0.0
 10
33.2023
 20
-18.697
 30
0.0
 10
31.5874
 20
-18.594
 30
0.0
 10
29.911
 20
-16.2297
 30
0.0
 10
29.1013
 20
-15.0093
 30
0.0
 10
29.1013
 20
-15.0093
 30
0.0
 10
26.4431
 20
-11.0027
 30
0.0
 10
30.5397
 20
-7.7982
 30
0.0
 10
30.5397
 20
-3.1202
 30
0.0
 10
30.5397
 20
-3.1202
 30
0.0
 10
30.5397
 20
-3.1202
 30
0.0
 10
30.5378
 20
-1.071
 30
0.0
 10
30.5378
 20
-1.071
 30
0.0
 10
30.5378
 20
-1.071
 30
0.0
 10
30.5378
 20
-1.071
 30
0.0
 10
30.5438
 20
0.3676
 30
0.0
 10
30.5438
 20
0.3676
 30
0.0
 10
30.5438
 20
0.3676
 30
0.0
 10
30.0023
 20
1.1632
 30
0.0
 10
29.8049
 20
2.2584
 30
0.0
 10
29.0664
 20
3.3992
 30
0.0
 10
29.0664
 20
3.3992
 30
0.0
 10
28.455
 20
4.344
 30
0.0
 10
27.7543
 20
5.0237
 30
0.0
 10
26.9542
 20
5.7961
 30
0.0
 10
26.9542
 20
5.7961
 30
0.0
 10
25.928
 20
6.7866
 30
0.0
 10
22.3599
 20
8.6286
 30
0.0
 10
20.9046
 20
8.7655
 30
0.0
 10
20.9046
 20
8.7655
 30
0.0
 10
20.914
 20
8.73
 30
0.0
 10
26.1444
 20
1.7802
 30
0.0
 10
26.7966
 20
0.9253
 30
0.0
 10
26.7966
 20
0.9253
 30
0.0
 10
29.1486
 20
-2.1568
 30
0.0
 10
28.8621
 20
-6.2668
 30
0.0
 10
27.2596
 20
-9.6778
 30
0.0
  0
SPLINE
  5
60
330
1F
100
AcDbEntity
  8
Capa 1
 62
     7
100
AcDbSpline
210
0.0
220
0.0
230
1.0
 70
    11
 71
     3
 72
   152
 73
   148
 74
     0
 42
0.0000000001
 43
0.0000000001
 40
0.0
 40
0.0
 40
0.0
 40
0.0
 40
0.027027027027027
 40
0.027027027027027
 40
0.027027027027027
 40
0.027027027027027
 40
0.0540540540540541
 40
0.0540540540540541
 40
0.0540540540540541
 40
0.0540540540540541
 40
0.0810810810810811
 40
0.0810810810810811
 40
0.0810810810810811
 40
0.0810810810810811
 40
0.1081081081081081
 40
0.1081081081081081
 40
0.1081081081081081
 40
0.1081081081081081
 40
0.1351351351351351
 40
0.1351351351351351
 40
0.1351351351351351
 40
0.1351351351351351
 40
0.1621621621621622
 40
0.1621621621621622
 40
0.1621621621621622
 40
0.1621621621621622
 40
0.1891891891891892
 40
0.1891891891891892
 40
0.1891891891891892
 40
0.1891891891891892
 40
0.2162162162162162
 40
0.2162162162162162
 40
0.2162162162162162
 40
0.2162162162162162
 40
0.2432432432432433
 40
0.2432432432432433
 40
0.2432432432432433
 40
0.2432432432432433
 40
0.2702702702702703
 40
0.2702702702702703
 40
0.2702702702702703
 40
0.2702702702702703
 40
0.2972972972972973
 40
0.2972972972972973
 40
0.2972972972972973
 40
0.2972972972972973
 40
0.3243243243243243
 40
0.3243243243243243
 40
0.3243243243243243
 40
0.3243243243243243
 40
0.3513513513513514
 40
0.3513513513513514
 40
0.3513513513513514
 40
0.3513513513513514
 40
0.3783783783783784
 40
0.3783783783783784
 40
0.3783783783783784
 40
0.3783783783783784
 40
0.4054054054054054
 40
0.4054054054054054
 40
0.4054054054054054
 40
0.4054054054054054
 40
0.4324324324324325
 40
0.4324324324324325
 40
0.4324324324324325
 40
0.4324324324324325
 40
0.4594594594594595
 40
0.4594594594594595
 40
0.4594594594594595
 40
0.4594594594594595
 40
0.4864864864864865
 40
0.4864864864864865
 40
0.4864864864864865
 40
0.4864864864864865
 40
0.5135135135135136
 40
0.5135135135135136
 40
0.5135135135135136
 40
0.5135135135135136
 40
0.5405405405405406
 40
0.5405405405405406
 40
0.5405405405405406
 40
0.5405405405405406
 40
0.5675675675675675
 40
0.5675675675675675
 40
0.5675675675675675
 40
0.5675675675675675
 40
0.5945945945945945
 40
0.5945945945945945
 40
0.5945945945945945
 40
0.5945945945945945
 40
0.6216216216216215
 40
0.6216216216216215
 40
0.6216216216216215
 40
0.6216216216216215
 40
0.6486486486486485
 40
0.6486486486486485
 40
0.6486486486486485
 40
0.6486486486486485
 40
0.6756756756756754
 40
0.6756756756756754
 40
0.6756756756756754
 40
0.6756756756756754
 40
0.7027027027027024
 40
0.7027027027027024
 40
0.7027027027027024
 40
0.7027027027027024
 40
0.7297297297297294
 40
0.7297297297297294
 40
0.7297297297297294
 40
0.7297297297297294
 40
0.7567567567567564
 40
0.7567567567567564
 40
0.7567567567567564
 40
0.7567567567567564
 40
0.7837837837837833
 40
0.7837837837837833
 40
0.7837837837837833
 40
0.7837837837837833
 40
0.8108108108108103
 40
0.8108108108108103
 40
0.8108108108108103
 40
0.8108108108108103
 40
0.8378378378378373
 40
0.8378378378378373
 40
0.8378378378378373
 40
0.8378378378378373
 40
0.8648648648648642
 40
0.8648648648648642
 40
0.8648648648648642
 40
0.8648648648648642
 40
0.8918918918918912
 40
0.8918918918918912
 40
0.8918918918918912
 40
0.8918918918918912
 40
0.9189189189189182
 40
0.9189189189189182
 40
0.9189189189189182
 40
0.9189189189189182
 40
0.9459459459459452
 40
0.9459459459459452
 40
0.9459459459459452
 40
0.9459459459459452
 40
0.9729729729729721
 40
0.9729729729729721
 40
0.9729729729729721
 40
0.9729729729729721
 40
1.0
 40
1.0
 40
1.0
 40
1.0
 10
4.5043
 20
-51.4828
 30
0.0
 10
4.5043
 20
-51.4828
 30
0.0
 10
5.9333
 20
-54.0497
 30
0.0
 10
5.9333
 20
-54.0497
 30
0.0
 10
5.9333
 20
-54.0497
 30
0.0
 10
5.9333
 20
-54.0497
 30
0.0
 10
6.1443
 20
-53.9419
 30
0.0
 10
6.1443
 20
-53.9419
 30
0.0
 10
6.1443
 20
-53.9419
 30
0.0
 10
6.4219
 20
-53.34
 30
0.0
 10
6.3493
 20
-53.6617
 30
0.0
 10
6.3493
 20
-52.9173
 30
0.0
 10
6.3493
 20
-52.9173
 30
0.0
 10
6.3493
 20
-52.9173
 30
0.0
 10
6.3493
 20
-50.4581
 30
0.0
 10
6.3493
 20
-50.4581
 30
0.0
 10
6.3493
 20
-50.4581
 30
0.0
 10
6.3493
 20
-48.6622
 30
0.0
 10
4.5777
 20
-47.1052
 30
0.0
 10
4.8967
 20
-46.4123
 30
0.0
 10
4.8967
 20
-46.4123
 30
0.0
 10
3.9192
 20
-46.5015
 30
0.0
 10
-0.9496
 20
-43.54
 30
0.0
 10
-3.2858
 20
-43.4906
 30
0.0
 10
-3.2858
 20
-43.4906
 30
0.0
 10
-4.4131
 20
-45.1195
 30
0.0
 10
-4.9981
 20
-48.3304
 30
0.0
 10
-6.9759
 20
-49.6385
 30
0.0
 10
-6.9759
 20
-49.6385
 30
0.0
 10
-6.2537
 20
-47.0007
 30
0.0
 10
-7.2327
 20
-44.5474
 30
0.0
 10
-7.6436
 20
-41.699
 30
0.0
 10
-7.6436
 20
-41.699
 30
0.0
 10
-9.0452
 20
-40.5873
 30
0.0
 10
-10.2503
 20
-39.6479
 30
0.0
 10
-11.6138
 20
-38.4953
 30
0.0
 10
-11.6138
 20
-38.4953
 30
0.0
 10
-12.6206
 20
-37.6443
 30
0.0
 10
-14.6213
 20
-35.1063
 30
0.0
 10
-15.3438
 20
-34.9374
 30
0.0
 10
-15.3438
 20
-34.9374
 30
0.0
 10
-15.3438
 20
-34.9374
 30
0.0
 10
-22.5347
 20
-40.2633
 30
0.0
 10
-22.5347
 20
-40.2633
 30
0.0
 10
-22.5347
 20
-40.2633
 30
0.0
 10
-22.5347
 20
-40.2633
 30
0.0
 10
-22.5561
 20
-41.0315
 30
0.0
 10
-22.5561
 20
-41.0315
 30
0.0
 10
-22.5561
 20
-41.0315
 30
0.0
 10
-22.5561
 20
-41.0315
 30
0.0
 10
-22.5334
 20
-43.6937
 30
0.0
 10
-22.5334
 20
-43.6937
 30
0.0
 10
-22.5334
 20
-43.6937
 30
0.0
 10
-22.5334
 20
-43.6937
 30
0.0
 10
-22.3053
 20
-46.5511
 30
0.0
 10
-22.3053
 20
-46.5511
 30
0.0
 10
-22.3053
 20
-46.5511
 30
0.0
 10
-22.3053
 20
-46.5511
 30
0.0
 10
-21.6544
 20
-48.9492
 30
0.0
 10
-21.6544
 20
-48.9492
 30
0.0
 10
-21.6544
 20
-48.9492
 30
0.0
 10
-21.6544
 20
-48.9492
 30
0.0
 10
-21.1211
 20
-49.8434
 30
0.0
 10
-21.1211
 20
-49.8434
 30
0.0
 10
-21.1211
 20
-49.8434
 30
0.0
 10
-25.2688
 20
-47.9244
 30
0.0
 10
-24.233
 20
-44.913
 30
0.0
 10
-25.8186
 20
-42.8583
 30
0.0
 10
-25.8186
 20
-42.8583
 30
0.0
 10
-26.1646
 20
-43.2455
 30
0.0
 10
-26.6562
 20
-44.831
 30
0.0
 10
-26.6562
 20
-45.5399
 30
0.0
 10
-26.6562
 20
-45.5399
 30
0.0
 10
-26.6562
 20
-48.7649
 30
0.0
 10
-22.1944
 20
-56.0174
 30
0.0
 10
-22.0016
 20
-58.8953
 30
0.0
 10
-22.0016
 20
-58.8953
 30
0.0
 10
-22.0016
 20
-58.8953
 30
0.0
 10
-28.1432
 20
-48.6301
 30
0.0
 10
-28.1432
 20
-48.6301
 30
0.0
 10
-28.1432
 20
-48.6301
 30
0.0
 10
-28.1432
 20
-48.6301
 30
0.0
 10
-29.3212
 20
-48.6138
 30
0.0
 10
-29.3212
 20
-48.6138
 30
0.0
 10
-29.3212
 20
-48.6138
 30
0.0
 10
-31.8343
 20
-52.4826
 30
0.0
 10
-28.6297
 20
-58.8624
 30
0.0
 10
-26.0263
 20
-61.9192
 30
0.0
 10
-26.0263
 20
-61.9192
 30
0.0
 10
-24.1022
 20
-64.1783
 30
0.0
 10
-23.8246
 20
-65.636
 30
0.0
 10
-20.5061
 20
-65.6226
 30
0.0
 10
-20.5061
 20
-65.6226
 30
0.0
 10
-17.6282
 20
-65.611
 30
0.0
 10
-14.4702
 20
-66.2419
 30
0.0
 10
-11.6712
 20
-66.2131
 30
0.0
 10
-11.6712
 20
-66.2131
 30
0.0
 10
-11.6712
 20
-66.2131
 30
0.0
 10
-11.074
 20
-66.6038
 30
0.0
 10
-11.074
 20
-66.6038
 30
0.0
 10
-11.074
 20
-66.6038
 30
0.0
 10
-11.074
 20
-66.6038
 30
0.0
 10
-6.7708
 20
-67.0557
 30
0.0
 10
-6.7708
 20
-67.0557
 30
0.0
 10
-6.7708
 20
-67.0557
 30
0.0
 10
-6.7708
 20
-67.0557
 30
0.0
 10
-16.2517
 20
-67.0458
 30
0.0
 10
-16.2517
 20
-67.0458
 30
0.0
 10
-16.2517
 20
-67.0458
 30
0.0
 10
-16.2517
 20
-67.0458
 30
0.0
 10
-17.206
 20
-68.5828
 30
0.0
 10
-17.206
 20
-68.5828
 30
0.0
 10
-17.206
 20
-68.5828
 30
0.0
 10
-17.206
 20
-68.5828
 30
0.0
 10
-16.9748
 20
-68.667
 30
0.0
 10
-16.9748
 20
-68.667
 30
0.0
 10
-16.9748
 20
-68.667
 30
0.0
 10
-16.9748
 20
-68.667
 30
0.0
 10
-15.9534
 20
-70.529
 30
0.0
 10
-15.9534
 20
-70.529
 30
0.0
 10
-15.9534
 20
-70.529
 30
0.0
 10
-15.9534
 20
-70.529
 30
0.0
 10
-10.871
 20
-71.1557
 30
0.0
 10
-10.871
 20
-71.1557
 30
0.0
 10
-10.871
 20
-71.1557
 30
0.0
 10
-10.871
 20
-71.1557
 30
0.0
 10
-6.7708
 20
-71.1557
 30
0.0
 10
-6.7708
 20
-71.1557
 30
0.0
 10
-6.7708
 20
-71.1557
 30
0.0
 10
-4.3394
 20
-71.1557
 30
0.0
 10
1.7968
 20
-70.7372
 30
0.0
 10
3.0064
 20
-68.6337
 30
0.0
 10
3.0064
 20
-68.6337
 30
0.0
 10
3.8617
 20
-67.1463
 30
0.0
 10
5.3284
 20
-60.2951
 30
0.0
 10
5.2999
 20
-58.4305
 30
0.0
 10
5.2999
 20
-58.4305
 30
0.0
 10
5.2999
 20
-58.4305
 30
0.0
 10
5.7587
 20
-57.8552
 30
0.0
 10
5.7587
 20
-57.8552
 30
0.0
 10
5.7587
 20
-57.8552
 30
0.0
 10
5.7587
 20
-57.8552
 30
0.0
 10
5.9865
 20
-57.7787
 30
0.0
 10
5.9865
 20
-57.7787
 30
0.0
 10
5.9865
 20
-57.7787
 30
0.0
 10
5.9865
 20
-57.7787
 30
0.0
 10
4.5043
 20
-51.4828
 30
0.0
 10
4.5043
 20
-51.4828
 30
0.0
  0
SPLINE
  5
61
330
1F
100
AcDbEntity
  8
Capa 1
100
AcDbSpline
210
0.0
220
0.0
230
1.0
 70
    11
 71
     3
 72
   340
 73
   336
 74
     0
 42
0.0000000001
 43
0.0000000001
 40
0.0
 40
0.0
 40
0.0
 40
0.0
 40
0.0119047619047619
 40
0.0119047619047619
 40
0.0119047619047619
 40
0.0119047619047619
 40
0.0238095238095238
 40
0.0238095238095238
 40
0.0238095238095238
 40
0.0238095238095238
 40
0.0357142857142857
 40
0.0357142857142857
 40
0.0357142857142857
 40
0.0357142857142857
 40
0.0476190476190476
 40
0.0476190476190476
 40
0.0476190476190476
 40
0.0476190476190476
 40
0.0595238095238095
 40
0.0595238095238095
 40
0.0595238095238095
 40
0.0595238095238095
 40
0.0714285714285714
 40
0.0714285714285714
 40
0.0714285714285714
 40
0.0714285714285714
 40
0.0833333333333333
 40
0.0833333333333333
 40
0.0833333333333333
 40
0.0833333333333333
 40
0.0952380952380952
 40
0.0952380952380952
 40
0.0952380952380952
 40
0.0952380952380952
 40
0.1071428571428571
 40
0.1071428571428571
 40
0.1071428571428571
 40
0.1071428571428571
 40
0.119047619047619
 40
0.119047619047619
 40
0.119047619047619
 40
0.119047619047619
 40
0.1309523809523809
 40
0.1309523809523809
 40
0.1309523809523809
 40
0.1309523809523809
 40
0.1428571428571428
 40
0.1428571428571428
 40
0.1428571428571428
 40
0.1428571428571428
 40
0.1547619047619048
 40
0.1547619047619048
 40
0.1547619047619048
 40
0.1547619047619048
 40
0.1666666666666667
 40
0.1666666666666667
 40
0.1666666666666667
 40
0.1666666666666667
 40
0.1785714285714286
 40
0.1785714285714286
 40
0.1785714285714286
 40
0.1785714285714286
 40
0.1904761904761905
 40
0.1904761904761905
 40
0.1904761904761905
 40
0.1904761904761905
 40
0.2023809523809524
 40
0.2023809523809524
 40
0.2023809523809524
 40
0.2023809523809524
 40
0.2142857142857144
 40
0.2142857142857144
 40
0.2142857142857144
 40
0.2142857142857144
 40
0.2261904761904763
 40
0.2261904761904763
 40
0.2261904761904763
 40
0.2261904761904763
 40
0.2380952380952382
 40
0.2380952380952382
 40
0.2380952380952382
 40
0.2380952380952382
 40
0.2500000000000001
 40
0.2500000000000001
 40
0.2500000000000001
 40
0.2500000000000001
 40
0.261904761904762
 40
0.261904761904762
 40
0.261904761904762
 40
0.261904761904762
 40
0.2738095238095239
 40
0.2738095238095239
 40
0.2738095238095239
 40
0.2738095238095239
 40
0.2857142857142859
 40
0.2857142857142859
 40
0.2857142857142859
 40
0.2857142857142859
 40
0.2976190476190478
 40
0.2976190476190478
 40
0.2976190476190478
 40
0.2976190476190478
 40
0.3095238095238097
 40
0.3095238095238097
 40
0.3095238095238097
 40
0.3095238095238097
 40
0.3214285714285716
 40
0.3214285714285716
 40
0.3214285714285716
 40
0.3214285714285716
 40
0.3333333333333335
 40
0.3333333333333335
 40
0.3333333333333335
 40
0.3333333333333335
 40
0.3452380952380955
 40
0.3452380952380955
 40
0.3452380952380955
 40
0.3452380952380955
 40
0.3571428571428574
 40
0.3571428571428574
 40
0.3571428571428574
 40
0.3571428571428574
 40
0.3690476190476193
 40
0.3690476190476193
 40
0.3690476190476193
 40
0.3690476190476193
 40
0.3809523809523812
 40
0.3809523809523812
 40
0.3809523809523812
 40
0.3809523809523812
 40
0.3928571428571431
 40
0.3928571428571431
 40
0.3928571428571431
 40
0.3928571428571431
 40
0.404761904761905
 40
0.404761904761905
 40
0.404761904761905
 40
0.404761904761905
 40
0.416666666666667
 40
0.416666666666667
 40
0.416666666666667
 40
0.416666666666667
 40
0.4285714285714289
 40
0.4285714285714289
 40
0.4285714285714289
 40
0.4285714285714289
 40
0.4404761904761908
 40
0.4404761904761908
 40
0.4404761904761908
 40
0.4404761904761908
 40
0.4523809523809527
 40
0.4523809523809527
 40
0.4523809523809527
 40
0.4523809523809527
 40
0.4642857142857146
 40
0.4642857142857146
 40
0.4642857142857146
 40
0.4642857142857146
 40
0.4761904761904766
 40
0.4761904761904766
 40
0.4761904761904766
 40
0.4761904761904766
 40
0.4880952380952385
 40
0.4880952380952385
 40
0.4880952380952385
 40
0.4880952380952385
 40
0.5000000000000003
 40
0.5000000000000003
 40
0.5000000000000003
 40
0.5000000000000003
 40
0.5119047619047622
 40
0.5119047619047622
 40
0.5119047619047622
 40
0.5119047619047622
 40
0.5238095238095241
 40
0.5238095238095241
 40
0.5238095238095241
 40
0.5238095238095241
 40
0.5357142857142859
 40
0.5357142857142859
 40
0.5357142857142859
 40
0.5357142857142859
 40
0.5476190476190478
 40
0.5476190476190478
 40
0.5476190476190478
 40
0.5476190476190478
 40
0.5595238095238096
 40
0.5595238095238096
 40
0.5595238095238096
 40
0.5595238095238096
 40
0.5714285714285715
 40
0.5714285714285715
 40
0.5714285714285715
 40
0.5714285714285715
 40
0.5833333333333334
 40
0.5833333333333334
 40
0.5833333333333334
 40
0.5833333333333334
 40
0.5952380952380952
 40
0.5952380952380952
 40
0.5952380952380952
 40
0.5952380952380952
 40
0.6071428571428571
 40
0.6071428571428571
 40
0.6071428571428571
 40
0.6071428571428571
 40
0.619047619047619
 40
0.619047619047619
 40
0.619047619047619
 40
0.619047619047619
 40
0.6309523809523808
 40
0.6309523809523808
 40
0.6309523809523808
 40
0.6309523809523808
 40
0.6428571428571427
 40
0.6428571428571427
 40
0.6428571428571427
 40
0.6428571428571427
 40
0.6547619047619045
 40
0.6547619047619045
 40
0.6547619047619045
 40
0.6547619047619045
 40
0.6666666666666664
 40
0.6666666666666664
 40
0.6666666666666664
 40
0.6666666666666664
 40
0.6785714285714283
 40
0.6785714285714283
 40
0.6785714285714283
 40
0.6785714285714283
 40
0.6904761904761901
 40
0.6904761904761901
 40
0.6904761904761901
 40
0.6904761904761901
 40
0.702380952380952
 40
0.702380952380952
 40
0.702380952380952
 40
0.702380952380952
 40
0.7142857142857139
 40
0.7142857142857139
 40
0.7142857142857139
 40
0.7142857142857139
 40
0.7261904761904757
 40
0.7261904761904757
 40
0.7261904761904757
 40
0.7261904761904757
 40
0.7380952380952376
 40
0.7380952380952376
 40
0.7380952380952376
 40
0.7380952380952376
 40
0.7499999999999994
 40
0.7499999999999994
 40
0.7499999999999994
 40
0.7499999999999994
 40
0.7619047619047613
 40
0.7619047619047613
 40
0.7619047619047613
 40
0.7619047619047613
 40
0.7738095238095232
 40
0.7738095238095232
 40
0.7738095238095232
 40
0.7738095238095232
 40
0.785714285714285
 40
0.785714285714285
 40
0.785714285714285
 40
0.785714285714285
 40
0.7976190476190469
 40
0.7976190476190469
 40
0.7976190476190469
 40
0.7976190476190469
 40
0.8095238095238088
 40
0.8095238095238088
 40
0.8095238095238088
 40
0.8095238095238088
 40
0.8214285714285706
 40
0.8214285714285706
 40
0.8214285714285706
 40
0.8214285714285706
 40
0.8333333333333325
 40
0.8333333333333325
 40
0.8333333333333325
 40
0.8333333333333325
 40
0.8452380952380943
 40
0.8452380952380943
 40
0.8452380952380943
 40
0.8452380952380943
 40
0.8571428571428562
 40
0.8571428571428562
 40
0.8571428571428562
 40
0.8571428571428562
 40
0.8690476190476181
 40
0.8690476190476181
 40
0.8690476190476181
 40
0.8690476190476181
 40
0.8809523809523799
 40
0.8809523809523799
 40
0.8809523809523799
 40
0.8809523809523799
 40
0.8928571428571418
 40
0.8928571428571418
 40
0.8928571428571418
 40
0.8928571428571418
 40
0.9047619047619037
 40
0.9047619047619037
 40
0.9047619047619037
 40
0.9047619047619037
 40
0.9166666666666655
 40
0.9166666666666655
 40
0.9166666666666655
 40
0.9166666666666655
 40
0.9285714285714274
 40
0.9285714285714274
 40
0.9285714285714274
 40
0.9285714285714274
 40
0.9404761904761892
 40
0.9404761904761892
 40
0.9404761904761892
 40
0.9404761904761892
 40
0.9523809523809511
 40
0.9523809523809511
 40
0.9523809523809511
 40
0.9523809523809511
 40
0.964285714285713
 40
0.964285714285713
 40
0.964285714285713
 40
0.964285714285713
 40
0.9761904761904748
 40
0.9761904761904748
 40
0.9761904761904748
 40
0.9761904761904748
 40
0.9880952380952367
 40
0.9880952380952367
 40
0.9880952380952367
 40
0.9880952380952367
 40
1.0
 40
1.0
 40
1.0
 40
1.0
 10
-71.1418
 20
53.2345
 30
0.0
 10
-71.1418
 20
53.2345
 30
0.0
 10
-71.3468
 20
55.8985
 30
0.0
 10
-71.3468
 20
55.8985
 30
0.0
 10
-71.3468
 20
55.8985
 30
0.0
 10
-71.3468
 20
55.8985
 30
0.0
 10
-71.3468
 20
56.1034
 30
0.0
 10
-71.3468
 20
56.1034
 30
0.0
 10
-71.3468
 20
56.1034
 30
0.0
 10
-71.3468
 20
58.5763
 30
0.0
 10
-70.9341
 20
63.609
 30
0.0
 10
-69.9556
 20
65.5738
 30
0.0
 10
-69.9556
 20
65.5738
 30
0.0
 10
-68.5554
 20
68.3856
 30
0.0
 10
-65.1492
 20
68.4449
 30
0.0
 10
-63.3517
 20
70.0384
 30
0.0
 10
-63.3517
 20
70.0384
 30
0.0
 10
-66.0265
 20
69.8066
 30
0.0
 10
-70.7412
 20
67.8523
 30
0.0
 10
-73.4564
 20
70.1838
 30
0.0
 10
-73.4564
 20
70.1838
 30
0.0
 10
-75.0688
 20
71.5683
 30
0.0
 10
-77.058
 20
76.0375
 30
0.0
 10
-77.8542
 20
78.0831
 30
0.0
 10
-77.8542
 20
78.0831
 30
0.0
 10
-79.8019
 20
83.0867
 30
0.0
 10
-83.0567
 20
91.8966
 30
0.0
 10
-83.4532
 20
97.0774
 30
0.0
 10
-83.4532
 20
97.0774
 30
0.0
 10
-83.7775
 20
101.3157
 30
0.0
 10
-85.2357
 20
103.6119
 30
0.0
 10
-81.0266
 20
106.15
 30
0.0
 10
-81.0266
 20
106.15
 30
0.0
 10
-78.239
 20
107.8309
 30
0.0
 10
-74.1335
 20
108.3803
 30
0.0
 10
-70.9263
 20
108.3708
 30
0.0
 10
-70.9263
 20
108.3708
 30
0.0
 10
-67.9333
 20
108.3619
 30
0.0
 10
-64.3104
 20
106.9462
 30
0.0
 10
-62.1692
 20
104.8282
 30
0.0
 10
-62.1692
 20
104.8282
 30
0.0
 10
-61.4687
 20
104.1351
 30
0.0
 10
-57.2954
 20
98.118
 30
0.0
 10
-57.2016
 20
97.4984
 30
0.0
 10
-57.2016
 20
97.4984
 30
0.0
 10
-57.3099
 20
97.5075
 30
0.0
 10
-61.9313
 20
99.3384
 30
0.0
 10
-62.3543
 20
99.5201
 30
0.0
 10
-62.3543
 20
99.5201
 30
0.0
 10
-63.2299
 20
99.8964
 30
0.0
 10
-67.4844
 20
100.7773
 30
0.0
 10
-68.4768
 20
100.7773
 30
0.0
 10
-68.4768
 20
100.7773
 30
0.0
 10
-68.4768
 20
100.7773
 30
0.0
 10
-70.9368
 20
100.7773
 30
0.0
 10
-70.9368
 20
100.7773
 30
0.0
 10
-70.9368
 20
100.7773
 30
0.0
 10
-72.4964
 20
100.7773
 30
0.0
 10
-78.2476
 20
99.1983
 30
0.0
 10
-78.7269
 20
97.9083
 30
0.0
 10
-78.7269
 20
97.9083
 30
0.0
 10
-77.6317
 20
98.4264
 30
0.0
 10
-71.8866
 20
99.5477
 30
0.0
 10
-70.5236
 20
99.5477
 30
0.0
 10
-70.5236
 20
99.5477
 30
0.0
 10
-70.5236
 20
99.5477
 30
0.0
 10
-69.5018
 20
99.5477
 30
0.0
 10
-69.5018
 20
99.5477
 30
0.0
 10
-69.5018
 20
99.5477
 30
0.0
 10
-67.2433
 20
99.5477
 30
0.0
 10
-54.3613
 20
94.4528
 30
0.0
 10
-53.3065
 20
92.9901
 30
0.0
 10
-53.3065
 20
92.9901
 30
0.0
 10
-53.5497
 20
92.8765
 30
0.0
 10
-63.5487
 20
93.2847
 30
0.0
 10
-64.5385
 20
93.4437
 30
0.0
 10
-64.5385
 20
93.4437
 30
0.0
 10
-66.6897
 20
93.7894
 30
0.0
 10
-73.2545
 20
92.565
 30
0.0
 10
-74.4335
 20
91.0022
 30
0.0
 10
-74.4335
 20
91.0022
 30
0.0
 10
-74.4335
 20
91.0022
 30
0.0
 10
-70.904
 20
91.5213
 30
0.0
 10
-70.904
 20
91.5213
 30
0.0
 10
-70.904
 20
91.5213
 30
0.0
 10
-70.904
 20
91.5213
 30
0.0
 10
-70.3397
 20
91.9126
 30
0.0
 10
-70.3397
 20
91.9126
 30
0.0
 10
-70.3397
 20
91.9126
 30
0.0
 10
-70.3397
 20
91.9126
 30
0.0
 10
-62.9417
 20
92.3753
 30
0.0
 10
-62.9417
 20
92.3753
 30
0.0
 10
-62.9417
 20
92.3753
 30
0.0
 10
-62.9417
 20
92.3753
 30
0.0
 10
-62.3267
 20
92.3753
 30
0.0
 10
-62.3267
 20
92.3753
 30
0.0
 10
-62.3267
 20
92.3753
 30
0.0
 10
-59.3176
 20
92.3753
 30
0.0
 10
-49.2812
 20
92.6211
 30
0.0
 10
-49.2055
 20
88.6984
 30
0.0
 10
-49.2055
 20
88.6984
 30
0.0
 10
-49.2055
 20
88.6984
 30
0.0
 10
-61.5067
 20
89.7113
 30
0.0
 10
-61.5067
 20
89.7113
 30
0.0
 10
-61.5067
 20
89.7113
 30
0.0
 10
-61.5067
 20
89.7113
 30
0.0
 10
-62.7367
 20
89.7113
 30
0.0
 10
-62.7367
 20
89.7113
 30
0.0
 10
-62.7367
 20
89.7113
 30
0.0
 10
-64.5585
 20
89.7113
 30
0.0
 10
-71.5318
 20
87.7587
 30
0.0
 10
-72.8986
 20
86.6264
 30
0.0
 10
-72.8986
 20
86.6264
 30
0.0
 10
-72.8986
 20
86.6264
 30
0.0
 10
-70.959
 20
87.2744
 30
0.0
 10
-70.959
 20
87.2744
 30
0.0
 10
-70.959
 20
87.2744
 30
0.0
 10
-68.8982
 20
87.1865
 30
0.0
 10
-65.3088
 20
88.6867
 30
0.0
 10
-62.9417
 20
88.6867
 30
0.0
 10
-62.9417
 20
88.6867
 30
0.0
 10
-62.9417
 20
88.6867
 30
0.0
 10
-57.2005
 20
88.7008
 30
0.0
 10
-57.2005
 20
88.7008
 30
0.0
 10
-57.2005
 20
88.7008
 30
0.0
 10
-57.2005
 20
88.7008
 30
0.0
 10
-48.3391
 20
88.0767
 30
0.0
 10
-48.3391
 20
88.0767
 30
0.0
 10
-48.3391
 20
88.0767
 30
0.0
 10
-48.3391
 20
88.0767
 30
0.0
 10
-47.5487
 20
86.4147
 30
0.0
 10
-47.5487
 20
86.4147
 30
0.0
 10
-47.5487
 20
86.4147
 30
0.0
 10
-49.8674
 20
84.6386
 30
0.0
 10
-60.7243
 20
88.5949
 30
0.0
 10
-67.0418
 20
79.0551
 30
0.0
 10
-67.0418
 20
79.0551
 30
0.0
 10
-65.8335
 20
79.3784
 30
0.0
 10
-62.6914
 20
83.3392
 30
0.0
 10
-59.5017
 20
84.0184
 30
0.0
 10
-59.5017
 20
84.0184
 30
0.0
 10
-55.6667
 20
84.835
 30
0.0
 10
-52.4335
 20
85.4078
 30
0.0
 10
-48.1815
 20
85.4078
 30
0.0
 10
-48.1815
 20
85.4078
 30
0.0
 10
-48.1815
 20
85.4078
 30
0.0
 10
-48.0395
 20
85.2537
 30
0.0
 10
-48.0395
 20
85.2537
 30
0.0
 10
-48.0395
 20
85.2537
 30
0.0
 10
-48.0395
 20
85.2537
 30
0.0
 10
-53.1016
 20
80.4896
 30
0.0
 10
-53.1016
 20
80.4896
 30
0.0
 10
-53.1016
 20
80.4896
 30
0.0
 10
-51.629
 20
80.8492
 30
0.0
 10
-36.7132
 20
90.4539
 30
0.0
 10
-35.6895
 20
91.7791
 30
0.0
 10
-35.6895
 20
91.7791
 30
0.0
 10
-35.6895
 20
91.7791
 30
0.0
 10
-36.1511
 20
92.4107
 30
0.0
 10
-36.1511
 20
92.4107
 30
0.0
 10
-36.1511
 20
92.4107
 30
0.0
 10
-36.1511
 20
92.4107
 30
0.0
 10
-35.2891
 20
91.9978
 30
0.0
 10
-35.2891
 20
91.9978
 30
0.0
 10
-35.2891
 20
91.9978
 30
0.0
 10
-29.6772
 20
96.0114
 30
0.0
 10
-28.3623
 20
97.9231
 30
0.0
 10
-21.3091
 20
99.5307
 30
0.0
 10
-21.3091
 20
99.5307
 30
0.0
 10
-18.0833
 20
100.2659
 30
0.0
 10
-4.3615
 20
102.1882
 30
0.0
 10
-2.6783
 20
99.5402
 30
0.0
 10
-2.6783
 20
99.5402
 30
0.0
 10
-2.6399
 20
97.3396
 30
0.0
 10
-6.2819
 20
91.8503
 30
0.0
 10
-7.9178
 20
91.2676
 30
0.0
 10
-7.9178
 20
91.2676
 30
0.0
 10
-11.3417
 20
90.0481
 30
0.0
 10
-15.8094
 20
89.844
 30
0.0
 10
-19.3987
 20
89.2191
 30
0.0
 10
-19.3987
 20
89.2191
 30
0.0
 10
-23.2557
 20
88.5477
 30
0.0
 10
-27.4854
 20
88.6027
 30
0.0
 10
-31.2511
 20
87.5419
 30
0.0
 10
-31.2511
 20
87.5419
 30
0.0
 10
-36.2753
 20
86.1266
 30
0.0
 10
-35.9179
 20
83.7449
 30
0.0
 10
-33.9702
 20
79.2766
 30
0.0
 10
-33.9702
 20
79.2766
 30
0.0
 10
-32.728
 20
81.7836
 30
0.0
 10
-32.0437
 20
84.5915
 30
0.0
 10
-28.4574
 20
85.3641
 30
0.0
 10
-28.4574
 20
85.3641
 30
0.0
 10
-26.5623
 20
85.7724
 30
0.0
 10
-20.2179
 20
87.4609
 30
0.0
 10
-18.8649
 20
87.4559
 30
0.0
 10
-18.8649
 20
87.4559
 30
0.0
 10
-17.8447
 20
88.1285
 30
0.0
 10
-8.3766
 20
90.8099
 30
0.0
 10
-6.8441
 20
90.7523
 30
0.0
 10
-6.8441
 20
90.7523
 30
0.0
 10
-6.8441
 20
90.7523
 30
0.0
 10
-6.3856
 20
88.6666
 30
0.0
 10
-6.3856
 20
88.6666
 30
0.0
 10
-6.3856
 20
88.6666
 30
0.0
 10
-6.3856
 20
88.6666
 30
0.0
 10
-6.0713
 20
88.0668
 30
0.0
 10
-6.0713
 20
88.0668
 30
0.0
 10
-6.0713
 20
88.0668
 30
0.0
 10
-6.0713
 20
88.0668
 30
0.0
 10
-6.247
 20
85.5298
 30
0.0
 10
-6.247
 20
85.5298
 30
0.0
 10
-6.247
 20
85.5298
 30
0.0
 10
-6.247
 20
85.5298
 30
0.0
 10
-2.9503
 20
87.9914
 30
0.0
 10
-2.9503
 20
87.9914
 30
0.0
 10
-2.9503
 20
87.9914
 30
0.0
 10
-2.9503
 20
87.9914
 30
0.0
 10
-2.7839
 20
87.8351
 30
0.0
 10
-2.7839
 20
87.8351
 30
0.0
 10
-2.7839
 20
87.8351
 30
0.0
 10
-2.7839
 20
87.8351
 30
0.0
 10
-2.262
 20
87.4559
 30
0.0
 10
-2.262
 20
87.4559
 30
0.0
 10
-2.262
 20
87.4559
 30
0.0
 10
-0.8541
 20
87.458
 30
0.0
 10
2.7191
 20
85.7887
 30
0.0
 10
4.118
 20
85.2266
 30
0.0
 10
4.118
 20
85.2266
 30
0.0
 10
5.5026
 20
84.6701
 30
0.0
 10
9.2434
 20
81.9529
 30
0.0
 10
9.6083
 20
81.888
 30
0.0
 10
9.6083
 20
81.888
 30
0.0
 10
9.6083
 20
81.888
 30
0.0
 10
9.4486
 20
81.363
 30
0.0
 10
9.4486
 20
81.363
 30
0.0
 10
9.4486
 20
81.363
 30
0.0
 10
10.6103
 20
80.3023
 30
0.0
 10
10.1065
 20
79.8036
 30
0.0
 10
11.4726
 20
78.8485
 30
0.0
 10
11.4726
 20
78.8485
 30
0.0
 10
12.4225
 20
78.1843
 30
0.0
 10
13.9508
 20
77.9435
 30
0.0
 10
14.7578
 20
77.4704
 30
0.0
 10
14.7578
 20
77.4704
 30
0.0
 10
14.7578
 20
77.4704
 30
0.0
 10
18.2395
 20
77.2107
 30
0.0
 10
18.2395
 20
77.2107
 30
0.0
 10
18.2395
 20
77.2107
 30
0.0
 10
18.2395
 20
77.2107
 30
0.0
 10
19.074
 20
77.1214
 30
0.0
 10
19.074
 20
77.1214
 30
0.0
 10
19.074
 20
77.1214
 30
0.0
 10
19.074
 20
77.1214
 30
0.0
 10
21.5196
 20
77.6206
 30
0.0
 10
21.5196
 20
77.6206
 30
0.0
 10
21.5196
 20
77.6206
 30
0.0
 10
21.346
 20
79.6834
 30
0.0
 10
7.3446
 20
87.4622
 30
0.0
 10
5.3576
 20
87.6163
 30
0.0
 10
5.3576
 20
87.6163
 30
0.0
 10
5.3576
 20
87.6163
 30
0.0
 10
3.2394
 20
88.0357
 30
0.0
 10
3.2394
 20
88.0357
 30
0.0
 10
3.2394
 20
88.0357
 30
0.0
 10
3.2394
 20
88.0357
 30
0.0
 10
2.6838
 20
88.5062
 30
0.0
 10
2.6838
 20
88.5062
 30
0.0
 10
2.6838
 20
88.5062
 30
0.0
 10
1.2593
 20
88.4408
 30
0.0
 10
-3.2617
 20
88.8381
 30
0.0
 10
-3.6296
 20
90.1873
 30
0.0
 10
-3.6296
 20
90.1873
 30
0.0
 10
-4.0953
 20
91.895
 30
0.0
 10
-3.1701
 20
95.5113
 30
0.0
 10
-2.5868
 20
97.2096
 30
0.0
 10
-2.5868
 20
97.2096
 30
0.0
 10
-0.869
 20
102.2113
 30
0.0
 10
1.0422
 20
104.261
 30
0.0
 10
6.7593
 20
104.261
 30
0.0
 10
6.7593
 20
104.261
 30
0.0
 10
6.7593
 20
104.261
 30
0.0
 10
7.7843
 20
104.261
 30
0.0
 10
7.7843
 20
104.261
 30
0.0
 10
7.7843
 20
104.261
 30
0.0
 10
18.8323
 20
104.261
 30
0.0
 10
27.187
 20
92.3764
 30
0.0
 10
31.1048
 20
92.8349
 30
0.0
 10
31.1048
 20
92.8349
 30
0.0
 10
33.3664
 20
95.0443
 30
0.0
 10
31.5732
 20
95.5194
 30
0.0
 10
29.6931
 20
96.6555
 30
0.0
 10
29.6931
 20
96.6555
 30
0.0
 10
28.0394
 20
97.6547
 30
0.0
 10
26.7718
 20
98.466
 30
0.0
 10
25.0335
 20
99.3717
 30
0.0
 10
25.0335
 20
99.3717
 30
0.0
 10
21.7903
 20
101.0614
 30
0.0
 10
18.569
 20
103.0882
 30
0.0
 10
15.0026
 20
104.0992
 30
0.0
 10
15.0026
 20
104.0992
 30
0.0
 10
4.4228
 20
107.0981
 30
0.0
 10
-1.0484
 20
104.5983
 30
0.0
 10
-11.1101
 20
103.4755
 30
0.0
 10
-11.1101
 20
103.4755
 30
0.0
 10
-17.6922
 20
102.7409
 30
0.0
 10
-28.326
 20
100.3255
 30
0.0
 10
-33.792
 20
96.6395
 30
0.0
 10
-33.792
 20
96.6395
 30
0.0
 10
-37.2757
 20
94.2904
 30
0.0
 10
-38.2008
 20
90.7892
 30
0.0
 10
-43.4912
 20
93.9857
 30
0.0
 10
-43.4912
 20
93.9857
 30
0.0
 10
-46.0039
 20
95.5039
 30
0.0
 10
-49.251
 20
98.8096
 30
0.0
 10
-51.605
 20
100.8387
 30
0.0
 10
-51.605
 20
100.8387
 30
0.0
 10
-56.2933
 20
104.8798
 30
0.0
 10
-64.7849
 20
109.7342
 30
0.0
 10
-70.7924
 20
111.1576
 30
0.0
 10
-70.7924
 20
111.1576
 30
0.0
 10
-80.1375
 20
113.3719
 30
0.0
 10
-84.9529
 20
105.3212
 30
0.0
 10
-85.2849
 20
97.0826
 30
0.0
 10
-85.2849
 20
97.0826
 30
0.0
 10
-85.5526
 20
90.4388
 30
0.0
 10
-82.3292
 20
79.6373
 30
0.0
 10
-79.0892
 20
73.7748
 30
0.0
 10
-79.0892
 20
73.7748
 30
0.0
 10
-77.296
 20
70.5302
 30
0.0
 10
-74.6272
 20
68.1072
 30
0.0
 10
-73.5273
 20
64.576
 30
0.0
 10
-73.5273
 20
64.576
 30
0.0
 10
-71.8258
 20
59.1132
 30
0.0
 10
-76.3418
 20
56.6339
 30
0.0
 10
-71.1418
 20
53.2345
 30
0.0
  0
SPLINE
  5
62
330
1F
100
AcDbEntity
  8
Capa 1
100
AcDbSpline
210
0.0
220
0.0
230
1.0
 70
    11
 71
     3
 72
   196
 73
   192
 74
     0
 42
0.0000000001
 43
0.0000000001
 40
0.0
 40
0.0
 40
0.0
 40
0.0
 40
0.0208333333333333
 40
0.0208333333333333
 40
0.0208333333333333
 40
0.0208333333333333
 40
0.0416666666666667
 40
0.0416666666666667
 40
0.0416666666666667
 40
0.0416666666666667
 40
0.0625
 40
0.0625
 40
0.0625
 40
0.0625
 40
0.0833333333333333
 40
0.0833333333333333
 40
0.0833333333333333
 40
0.0833333333333333
 40
0.1041666666666667
 40
0.1041666666666667
 40
0.1041666666666667
 40
0.1041666666666667
 40
0.125
 40
0.125
 40
0.125
 40
0.125
 40
0.1458333333333333
 40
0.1458333333333333
 40
0.1458333333333333
 40
0.1458333333333333
 40
0.1666666666666667
 40
0.1666666666666667
 40
0.1666666666666667
 40
0.1666666666666667
 40
0.1875
 40
0.1875
 40
0.1875
 40
0.1875
 40
0.2083333333333333
 40
0.2083333333333333
 40
0.2083333333333333
 40
0.2083333333333333
 40
0.2291666666666667
 40
0.2291666666666667
 40
0.2291666666666667
 40
0.2291666666666667
 40
0.25
 40
0.25
 40
0.25
 40
0.25
 40
0.2708333333333333
 40
0.2708333333333333
 40
0.2708333333333333
 40
0.2708333333333333
 40
0.2916666666666666
 40
0.2916666666666666
 40
0.2916666666666666
 40
0.2916666666666666
 40
0.3124999999999999
 40
0.3124999999999999
 40
0.3124999999999999
 40
0.3124999999999999
 40
0.3333333333333333
 40
0.3333333333333333
 40
0.3333333333333333
 40
0.3333333333333333
 40
0.3541666666666666
 40
0.3541666666666666
 40
0.3541666666666666
 40
0.3541666666666666
 40
0.3749999999999999
 40
0.3749999999999999
 40
0.3749999999999999
 40
0.3749999999999999
 40
0.3958333333333332
 40
0.3958333333333332
 40
0.3958333333333332
 40
0.3958333333333332
 40
0.4166666666666665
 40
0.4166666666666665
 40
0.4166666666666665
 40
0.4166666666666665
 40
0.4374999999999998
 40
0.4374999999999998
 40
0.4374999999999998
 40
0.4374999999999998
 40
0.4583333333333331
 40
0.4583333333333331
 40
0.4583333333333331
 40
0.4583333333333331
 40
0.4791666666666665
 40
0.4791666666666665
 40
0.4791666666666665
 40
0.4791666666666665
 40
0.4999999999999998
 40
0.4999999999999998
 40
0.4999999999999998
 40
0.4999999999999998
 40
0.5208333333333331
 40
0.5208333333333331
 40
0.5208333333333331
 40
0.5208333333333331
 40
0.5416666666666665
 40
0.5416666666666665
 40
0.5416666666666665
 40
0.5416666666666665
 40
0.5624999999999999
 40
0.5624999999999999
 40
0.5624999999999999
 40
0.5624999999999999
 40
0.5833333333333333
 40
0.5833333333333333
 40
0.5833333333333333
 40
0.5833333333333333
 40
0.6041666666666666
 40
0.6041666666666666
 40
0.6041666666666666
 40
0.6041666666666666
 40
0.625
 40
0.625
 40
0.625
 40
0.625
 40
0.6458333333333334
 40
0.6458333333333334
 40
0.6458333333333334
 40
0.6458333333333334
 40
0.6666666666666667
 40
0.6666666666666667
 40
0.6666666666666667
 40
0.6666666666666667
 40
0.6875000000000001
 40
0.6875000000000001
 40
0.6875000000000001
 40
0.6875000000000001
 40
0.7083333333333335
 40
0.7083333333333335
 40
0.7083333333333335
 40
0.7083333333333335
 40
0.7291666666666669
 40
0.7291666666666669
 40
0.7291666666666669
 40
0.7291666666666669
 40
0.7500000000000002
 40
0.7500000000000002
 40
0.7500000000000002
 40
0.7500000000000002
 40
0.7708333333333336
 40
0.7708333333333336
 40
0.7708333333333336
 40
0.7708333333333336
 40
0.791666666666667
 40
0.791666666666667
 40
0.791666666666667
 40
0.791666666666667
 40
0.8125000000000003
 40
0.8125000000000003
 40
0.8125000000000003
 40
0.8125000000000003
 40
0.8333333333333337
 40
0.8333333333333337
 40
0.8333333333333337
 40
0.8333333333333337
 40
0.8541666666666671
 40
0.8541666666666671
 40
0.8541666666666671
 40
0.8541666666666671
 40
0.8750000000000004
 40
0.8750000000000004
 40
0.8750000000000004
 40
0.8750000000000004
 40
0.8958333333333338
 40
0.8958333333333338
 40
0.8958333333333338
 40
0.8958333333333338
 40
0.9166666666666672
 40
0.9166666666666672
 40
0.9166666666666672
 40
0.9166666666666672
 40
0.9375000000000006
 40
0.9375000000000006
 40
0.9375000000000006
 40
0.9375000000000006
 40
0.9583333333333339
 40
0.9583333333333339
 40
0.9583333333333339
 40
0.9583333333333339
 40
0.9791666666666673
 40
0.9791666666666673
 40
0.9791666666666673
 40
0.9791666666666673
 40
1.0
 40
1.0
 40
1.0
 40
1.0
 10
34.0247
 20
93.6048
 30
0.0
 10
34.0247
 20
93.6048
 30
0.0
 10
32.9838
 20
90.3101
 30
0.0
 10
32.9838
 20
90.3101
 30
0.0
 10
32.9838
 20
90.3101
 30
0.0
 10
37.2337
 20
87.7264
 30
0.0
 10
38.3461
 20
87.9565
 30
0.0
 10
38.3286
 20
82.1278
 30
0.0
 10
38.3286
 20
82.1278
 30
0.0
 10
39.6369
 20
80.1527
 30
0.0
 10
40.7973
 20
79.7297
 30
0.0
 10
42.5864
 20
78.187
 30
0.0
 10
42.5864
 20
78.187
 30
0.0
 10
43.573
 20
77.3363
 30
0.0
 10
45.4783
 20
74.8578
 30
0.0
 10
46.4093
 20
73.6064
 30
0.0
 10
46.4093
 20
73.6064
 30
0.0
 10
47.72
 20
71.8447
 30
0.0
 10
52.2878
 20
64.6952
 30
0.0
 10
53.91
 20
64.3004
 30
0.0
 10
53.91
 20
64.3004
 30
0.0
 10
53.9076
 20
66.0319
 30
0.0
 10
52.9884
 20
67.9514
 30
0.0
 10
51.7531
 20
69.2101
 30
0.0
 10
51.7531
 20
69.2101
 30
0.0
 10
51.7531
 20
69.2101
 30
0.0
 10
51.4199
 20
68.8324
 30
0.0
 10
51.4199
 20
68.8324
 30
0.0
 10
51.4199
 20
68.8324
 30
0.0
 10
51.4199
 20
68.8324
 30
0.0
 10
51.6315
 20
69.5583
 30
0.0
 10
51.6315
 20
69.5583
 30
0.0
 10
51.6315
 20
69.5583
 30
0.0
 10
50.6804
 20
70.5364
 30
0.0
 10
49.522
 20
72.0008
 30
0.0
 10
48.8219
 20
72.9443
 30
0.0
 10
48.8219
 20
72.9443
 30
0.0
 10
47.9521
 20
74.1163
 30
0.0
 10
46.7277
 20
75.1021
 30
0.0
 10
45.7623
 20
76.2385
 30
0.0
 10
45.7623
 20
76.2385
 30
0.0
 10
44.1584
 20
78.1267
 30
0.0
 10
40.609
 20
82.2777
 30
0.0
 10
42.4299
 20
84.3832
 30
0.0
 10
42.4299
 20
84.3832
 30
0.0
 10
43.4622
 20
84.1332
 30
0.0
 10
47.4628
 20
82.8703
 30
0.0
 10
48.2404
 20
82.4044
 30
0.0
 10
48.2404
 20
82.4044
 30
0.0
 10
49.4268
 20
81.6937
 30
0.0
 10
51.8564
 20
79.0731
 30
0.0
 10
52.68
 20
78.8502
 30
0.0
 10
52.68
 20
78.8502
 30
0.0
 10
52.1858
 20
79.5968
 30
0.0
 10
49.6319
 20
82.8355
 30
0.0
 10
48.9679
 20
83.1316
 30
0.0
 10
48.9679
 20
83.1316
 30
0.0
 10
47.9746
 20
83.5747
 30
0.0
 10
43.4031
 20
84.8451
 30
0.0
 10
43.2498
 20
85.4078
 30
0.0
 10
43.2498
 20
85.4078
 30
0.0
 10
47.7315
 20
85.4078
 30
0.0
 10
50.6389
 20
85.9227
 30
0.0
 10
54.3145
 20
83.7629
 30
0.0
 10
54.3145
 20
83.7629
 30
0.0
 10
55.6725
 20
82.9647
 30
0.0
 10
61.3535
 20
78.7781
 30
0.0
 10
61.9052
 20
78.6452
 30
0.0
 10
61.9052
 20
78.6452
 30
0.0
 10
60.9021
 20
80.16
 30
0.0
 10
56.9788
 20
83.5447
 30
0.0
 10
55.4714
 20
84.7144
 30
0.0
 10
55.4714
 20
84.7144
 30
0.0
 10
52.3392
 20
87.1452
 30
0.0
 10
47.3108
 20
86.1808
 30
0.0
 10
45.4815
 20
87.4805
 30
0.0
 10
45.4815
 20
87.4805
 30
0.0
 10
46.1912
 20
88.2969
 30
0.0
 10
53.0189
 20
90.9665
 30
0.0
 10
54.1499
 20
90.9046
 30
0.0
 10
54.1499
 20
90.9046
 30
0.0
 10
54.1499
 20
90.9046
 30
0.0
 10
54.705
 20
91.382
 30
0.0
 10
54.705
 20
91.382
 30
0.0
 10
54.705
 20
91.382
 30
0.0
 10
54.705
 20
91.382
 30
0.0
 10
60.4701
 20
91.8073
 30
0.0
 10
60.4701
 20
91.8073
 30
0.0
 10
60.4701
 20
91.8073
 30
0.0
 10
62.4732
 20
90.497
 30
0.0
 10
62.9793
 20
91.0219
 30
0.0
 10
65.1852
 20
88.8916
 30
0.0
 10
65.1852
 20
88.8916
 30
0.0
 10
65.8556
 20
88.2441
 30
0.0
 10
68.766
 20
85.7828
 30
0.0
 10
69.4902
 20
85.4078
 30
0.0
 10
69.4902
 20
85.4078
 30
0.0
 10
69.2059
 20
86.47
 30
0.0
 10
66.1329
 20
89.6064
 30
0.0
 10
64.7607
 20
89.8007
 30
0.0
 10
64.7607
 20
89.8007
 30
0.0
 10
64.7607
 20
89.8007
 30
0.0
 10
65.1541
 20
90.0546
 30
0.0
 10
65.1541
 20
90.0546
 30
0.0
 10
65.1541
 20
90.0546
 30
0.0
 10
63.7104
 20
91.1782
 30
0.0
 10
61.0577
 20
92.599
 30
0.0
 10
59.3711
 20
92.9161
 30
0.0
 10
59.3711
 20
92.9161
 30
0.0
 10
58.7651
 20
93.0301
 30
0.0
 10
56.1191
 20
93.3814
 30
0.0
 10
55.6733
 20
93.2924
 30
0.0
 10
55.6733
 20
93.2924
 30
0.0
 10
54.7618
 20
93.1105
 30
0.0
 10
52.8109
 20
92.444
 30
0.0
 10
52.2525
 20
93.2126
 30
0.0
 10
52.2525
 20
93.2126
 30
0.0
 10
56.6254
 20
95.8288
 30
0.0
 10
59.4212
 20
96.4739
 30
0.0
 10
65.1852
 20
96.4739
 30
0.0
 10
65.1852
 20
96.4739
 30
0.0
 10
65.1852
 20
96.4739
 30
0.0
 10
65.175
 20
96.8261
 30
0.0
 10
65.175
 20
96.8261
 30
0.0
 10
65.175
 20
96.8261
 30
0.0
 10
65.175
 20
96.8261
 30
0.0
 10
56.6066
 20
96.3471
 30
0.0
 10
56.6066
 20
96.3471
 30
0.0
 10
56.6066
 20
96.3471
 30
0.0
 10
56.7644
 20
96.6858
 30
0.0
 10
63.2927
 20
102.031
 30
0.0
 10
64.1282
 20
102.6536
 30
0.0
 10
64.1282
 20
102.6536
 30
0.0
 10
65.9172
 20
103.9867
 30
0.0
 10
71.4661
 20
108.8401
 30
0.0
 10
72.8352
 20
105.1455
 30
0.0
 10
72.8352
 20
105.1455
 30
0.0
 10
75.098
 20
99.039
 30
0.0
 10
76.2553
 20
87.1275
 30
0.0
 10
76.2553
 20
80.4896
 30
0.0
 10
76.2553
 20
80.4896
 30
0.0
 10
76.2553
 20
76.0097
 30
0.0
 10
75.7373
 20
74.1801
 30
0.0
 10
71.9081
 20
71.5151
 30
0.0
 10
71.9081
 20
71.5151
 30
0.0
 10
71.0344
 20
70.9071
 30
0.0
 10
64.6083
 20
66.0201
 30
0.0
 10
64.3475
 20
65.7172
 30
0.0
 10
64.3475
 20
65.7172
 30
0.0
 10
65.9161
 20
64.7796
 30
0.0
 10
68.0553
 20
64.3233
 30
0.0
 10
68.0553
 20
61.8413
 30
0.0
 10
68.0553
 20
61.8413
 30
0.0
 10
68.0553
 20
61.8413
 30
0.0
 10
68.0553
 20
60.6117
 30
0.0
 10
68.0553
 20
60.6117
 30
0.0
 10
68.0553
 20
60.6117
 30
0.0
 10
68.0553
 20
57.0434
 30
0.0
 10
64.5855
 20
51.8076
 30
0.0
 10
63.7502
 20
48.3162
 30
0.0
 10
63.7502
 20
48.3162
 30
0.0
 10
69.5992
 20
49.6244
 30
0.0
 10
68.0166
 20
56.8567
 30
0.0
 10
68.7215
 20
61.1753
 30
0.0
 10
68.7215
 20
61.1753
 30
0.0
 10
69.7424
 20
67.4296
 30
0.0
 10
71.6795
 20
68.0786
 30
0.0
 10
75.4996
 20
72.4333
 30
0.0
 10
75.4996
 20
72.4333
 30
0.0
 10
82.3074
 20
80.1939
 30
0.0
 10
80.3967
 20
92.2844
 30
0.0
 10
77.5492
 20
101.2509
 30
0.0
 10
77.5492
 20
101.2509
 30
0.0
 10
76.2743
 20
105.2655
 30
0.0
 10
73.6629
 20
110.9545
 30
0.0
 10
68.5754
 20
109.8693
 30
0.0
 10
68.5754
 20
109.8693
 30
0.0
 10
63.4698
 20
108.7802
 30
0.0
 10
60.3221
 20
107.211
 30
0.0
 10
55.9334
 20
104.4925
 30
0.0
 10
55.9334
 20
104.4925
 30
0.0
 10
51.7544
 20
101.9041
 30
0.0
 10
49.5526
 20
98.8075
 30
0.0
 10
46.1215
 20
96.2673
 30
0.0
 10
46.1215
 20
96.2673
 30
0.0
 10
44.0898
 20
94.7631
 30
0.0
 10
43.0038
 20
93.9037
 30
0.0
 10
40.7509
 20
92.6175
 30
0.0
 10
40.7509
 20
92.6175
 30
0.0
 10
37.7033
 20
90.8777
 30
0.0
 10
36.6224
 20
92.9999
 30
0.0
 10
34.0247
 20
93.6048
 30
0.0
  0
SPLINE
  5
63
330
1F
100
AcDbEntity
  8
Capa 1
100
AcDbSpline
210
0.0
220
0.0
230
1.0
 70
    11
 71
     3
 72
    60
 73
    56
 74
     0
 42
0.0000000001
 43
0.0000000001
 40
0.0
 40
0.0
 40
0.0
 40
0.0
 40
0.0714285714285714
 40
0.0714285714285714
 40
0.0714285714285714
 40
0.0714285714285714
 40
0.1428571428571428
 40
0.1428571428571428
 40
0.1428571428571428
 40
0.1428571428571428
 40
0.2142857142857143
 40
0.2142857142857143
 40
0.2142857142857143
 40
0.2142857142857143
 40
0.2857142857142857
 40
0.2857142857142857
 40
0.2857142857142857
 40
0.2857142857142857
 40
0.3571428571428571
 40
0.3571428571428571
 40
0.3571428571428571
 40
0.3571428571428571
 40
0.4285714285714285
 40
0.4285714285714285
 40
0.4285714285714285
 40
0.4285714285714285
 40
0.4999999999999999
 40
0.4999999999999999
 40
0.4999999999999999
 40
0.4999999999999999
 40
0.5714285714285713
 40
0.5714285714285713
 40
0.5714285714285713
 40
0.5714285714285713
 40
0.6428571428571427
 40
0.6428571428571427
 40
0.6428571428571427
 40
0.6428571428571427
 40
0.7142857142857141
 40
0.7142857142857141
 40
0.7142857142857141
 40
0.7142857142857141
 40
0.7857142857142855
 40
0.7857142857142855
 40
0.7857142857142855
 40
0.7857142857142855
 40
0.8571428571428569
 40
0.8571428571428569
 40
0.8571428571428569
 40
0.8571428571428569
 40
0.9285714285714283
 40
0.9285714285714283
 40
0.9285714285714283
 40
0.9285714285714283
 40
1.0
 40
1.0
 40
1.0
 40
1.0
 10
64.5812
 20
35.0294
 30
0.0
 10
64.5812
 20
35.0294
 30
0.0
 10
64.3652
 20
34.7911
 30
0.0
 10
64.3652
 20
34.7911
 30
0.0
 10
64.3652
 20
34.7911
 30
0.0
 10
64.3652
 20
28.8295
 30
0.0
 10
63.3312
 20
23.8202
 30
0.0
 10
61.0517
 20
18.4303
 30
0.0
 10
61.0517
 20
18.4303
 30
0.0
 10
59.9809
 20
15.8984
 30
0.0
 10
58.4764
 20
14.7318
 30
0.0
 10
57.0698
 20
12.5744
 30
0.0
 10
57.0698
 20
12.5744
 30
0.0
 10
55.2383
 20
9.7654
 30
0.0
 10
56.3629
 20
7.2969
 30
0.0
 10
56.3697
 20
4.2558
 30
0.0
 10
56.3697
 20
4.2558
 30
0.0
 10
56.3771
 20
0.9414
 30
0.0
 10
55.779
 20
-0.3931
 30
0.0
 10
53.4478
 20
-2.6586
 30
0.0
 10
53.4478
 20
-2.6586
 30
0.0
 10
51.8548
 20
-4.2068
 30
0.0
 10
53.6728
 20
-7.3006
 30
0.0
 10
52.7101
 20
-10.5277
 30
0.0
 10
52.7101
 20
-10.5277
 30
0.0
 10
52.0952
 20
-12.5887
 30
0.0
 10
51.052
 20
-16.2511
 30
0.0
 10
50.6046
 20
-18.2594
 30
0.0
 10
50.6046
 20
-18.2594
 30
0.0
 10
50.0282
 20
-20.847
 30
0.0
 10
48.787
 20
-23.4147
 30
0.0
 10
48.1699
 20
-25.867
 30
0.0
 10
48.1699
 20
-25.867
 30
0.0
 10
51.7744
 20
-23.4511
 30
0.0
 10
57.1362
 20
-17.1427
 30
0.0
 10
59.9669
 20
-13.6832
 30
0.0
 10
59.9669
 20
-13.6832
 30
0.0
 10
63.2648
 20
-9.6526
 30
0.0
 10
63.7355
 20
0.4502
 30
0.0
 10
64.6006
 20
5.6613
 30
0.0
 10
64.6006
 20
5.6613
 30
0.0
 10
65.1805
 20
9.1554
 30
0.0
 10
65.7439
 20
12.1814
 30
0.0
 10
66.4656
 20
15.6826
 30
0.0
 10
66.4656
 20
15.6826
 30
0.0
 10
67.1316
 20
18.9139
 30
0.0
 10
68.6202
 20
22.1563
 30
0.0
 10
69.2051
 20
25.0348
 30
0.0
 10
69.2051
 20
25.0348
 30
0.0
 10
70.1442
 20
29.6559
 30
0.0
 10
70.4471
 20
41.6576
 30
0.0
 10
63.5059
 20
41.9891
 30
0.0
 10
63.5059
 20
41.9891
 30
0.0
 10
63.5059
 20
41.9891
 30
0.0
 10
64.5812
 20
35.0294
 30
0.0
 10
64.5812
 20
35.0294
 30
0.0
  0
SPLINE
  5
64
330
1F
100
AcDbEntity
  8
Capa 1
100
AcDbSpline
210
0.0
220
0.0
230
1.0
 70
    11
 71
     3
 72
   136
 73
   132
 74
     0
 42
0.0000000001
 43
0.0000000001
 40
0.0
 40
0.0
 40
0.0
 40
0.0
 40
0.0303030303030303
 40
0.0303030303030303
 40
0.0303030303030303
 40
0.0303030303030303
 40
0.0606060606060606
 40
0.0606060606060606
 40
0.0606060606060606
 40
0.0606060606060606
 40
0.0909090909090909
 40
0.0909090909090909
 40
0.0909090909090909
 40
0.0909090909090909
 40
0.1212121212121212
 40
0.1212121212121212
 40
0.1212121212121212
 40
0.1212121212121212
 40
0.1515151515151515
 40
0.1515151515151515
 40
0.1515151515151515
 40
0.1515151515151515
 40
0.1818181818181818
 40
0.1818181818181818
 40
0.1818181818181818
 40
0.1818181818181818
 40
0.2121212121212121
 40
0.2121212121212121
 40
0.2121212121212121
 40
0.2121212121212121
 40
0.2424242424242424
 40
0.2424242424242424
 40
0.2424242424242424
 40
0.2424242424242424
 40
0.2727272727272727
 40
0.2727272727272727
 40
0.2727272727272727
 40
0.2727272727272727
 40
0.303030303030303
 40
0.303030303030303
 40
0.303030303030303
 40
0.303030303030303
 40
0.3333333333333333
 40
0.3333333333333333
 40
0.3333333333333333
 40
0.3333333333333333
 40
0.3636363636363635
 40
0.3636363636363635
 40
0.3636363636363635
 40
0.3636363636363635
 40
0.3939393939393938
 40
0.3939393939393938
 40
0.3939393939393938
 40
0.3939393939393938
 40
0.4242424242424241
 40
0.4242424242424241
 40
0.4242424242424241
 40
0.4242424242424241
 40
0.4545454545454544
 40
0.4545454545454544
 40
0.4545454545454544
 40
0.4545454545454544
 40
0.4848484848484846
 40
0.4848484848484846
 40
0.4848484848484846
 40
0.4848484848484846
 40
0.5151515151515149
 40
0.5151515151515149
 40
0.5151515151515149
 40
0.5151515151515149
 40
0.5454545454545452
 40
0.5454545454545452
 40
0.5454545454545452
 40
0.5454545454545452
 40
0.5757575757575755
 40
0.5757575757575755
 40
0.5757575757575755
 40
0.5757575757575755
 40
0.6060606060606057
 40
0.6060606060606057
 40
0.6060606060606057
 40
0.6060606060606057
 40
0.636363636363636
 40
0.636363636363636
 40
0.636363636363636
 40
0.636363636363636
 40
0.6666666666666663
 40
0.6666666666666663
 40
0.6666666666666663
 40
0.6666666666666663
 40
0.6969696969696966
 40
0.6969696969696966
 40
0.6969696969696966
 40
0.6969696969696966
 40
0.7272727272727268
 40
0.7272727272727268
 40
0.7272727272727268
 40
0.7272727272727268
 40
0.7575757575757571
 40
0.7575757575757571
 40
0.7575757575757571
 40
0.7575757575757571
 40
0.7878787878787874
 40
0.7878787878787874
 40
0.7878787878787874
 40
0.7878787878787874
 40
0.8181818181818177
 40
0.8181818181818177
 40
0.8181818181818177
 40
0.8181818181818177
 40
0.848484848484848
 40
0.848484848484848
 40
0.848484848484848
 40
0.848484848484848
 40
0.8787878787878782
 40
0.8787878787878782
 40
0.8787878787878782
 40
0.8787878787878782
 40
0.9090909090909085
 40
0.9090909090909085
 40
0.9090909090909085
 40
0.9090909090909085
 40
0.9393939393939388
 40
0.9393939393939388
 40
0.9393939393939388
 40
0.9393939393939388
 40
0.9696969696969691
 40
0.9696969696969691
 40
0.9696969696969691
 40
0.9696969696969691
 40
1.0
 40
1.0
 40
1.0
 40
1.0
 10
49.2345
 20
-48.8133
 30
0.0
 10
49.2345
 20
-48.8133
 30
0.0
 10
49.195
 20
-51.4828
 30
0.0
 10
49.195
 20
-51.4828
 30
0.0
 10
49.195
 20
-51.4828
 30
0.0
 10
49.195
 20
-54.56
 30
0.0
 10
47.9965
 20
-57.2666
 30
0.0
 10
45.721
 20
-59.088
 30
0.0
 10
45.721
 20
-59.088
 30
0.0
 10
45.721
 20
-59.088
 30
0.0
 10
44.5669
 20
-58.5323
 30
0.0
 10
44.5669
 20
-58.5323
 30
0.0
 10
44.5669
 20
-58.5323
 30
0.0
 10
44.5669
 20
-58.5323
 30
0.0
 10
42.7113
 20
-53.7246
 30
0.0
 10
42.7113
 20
-53.7246
 30
0.0
 10
42.7113
 20
-53.7246
 30
0.0
 10
42.7113
 20
-53.7246
 30
0.0
 10
42.0834
 20
-59.5703
 30
0.0
 10
42.0834
 20
-59.5703
 30
0.0
 10
42.0834
 20
-59.5703
 30
0.0
 10
42.0834
 20
-59.5703
 30
0.0
 10
39.5185
 20
-56.0052
 30
0.0
 10
39.5185
 20
-56.0052
 30
0.0
 10
39.5185
 20
-56.0052
 30
0.0
 10
39.5185
 20
-56.0052
 30
0.0
 10
39.3202
 20
-63.1512
 30
0.0
 10
39.3202
 20
-63.1512
 30
0.0
 10
39.3202
 20
-63.1512
 30
0.0
 10
39.3202
 20
-63.1512
 30
0.0
 10
38.5348
 20
-63.1635
 30
0.0
 10
38.5348
 20
-63.1635
 30
0.0
 10
38.5348
 20
-63.1635
 30
0.0
 10
38.5348
 20
-63.1635
 30
0.0
 10
37.7176
 20
-63.119
 30
0.0
 10
37.7176
 20
-63.119
 30
0.0
 10
37.7176
 20
-63.119
 30
0.0
 10
37.7176
 20
-63.119
 30
0.0
 10
34.2297
 20
-62.9586
 30
0.0
 10
34.2297
 20
-62.9586
 30
0.0
 10
34.2297
 20
-62.9586
 30
0.0
 10
34.201
 20
-64.3823
 30
0.0
 10
32.5502
 20
-70.5038
 30
0.0
 10
32.0609
 20
-72.2665
 30
0.0
 10
32.0609
 20
-72.2665
 30
0.0
 10
31.6744
 20
-73.659
 30
0.0
 10
29.3148
 20
-80.2252
 30
0.0
 10
29.2728
 20
-80.9836
 30
0.0
 10
29.2728
 20
-80.9836
 30
0.0
 10
29.2728
 20
-80.9836
 30
0.0
 10
26.5966
 20
-86.0994
 30
0.0
 10
26.5966
 20
-86.0994
 30
0.0
 10
26.5966
 20
-86.0994
 30
0.0
 10
26.5966
 20
-86.0994
 30
0.0
 10
25.5562
 20
-86.121
 30
0.0
 10
25.5562
 20
-86.121
 30
0.0
 10
25.5562
 20
-86.121
 30
0.0
 10
25.5562
 20
-86.121
 30
0.0
 10
25.1628
 20
-81.6047
 30
0.0
 10
25.1628
 20
-81.6047
 30
0.0
 10
25.1628
 20
-81.6047
 30
0.0
 10
24.1329
 20
-82.4915
 30
0.0
 10
23.6927
 20
-96.1198
 30
0.0
 10
23.7991
 20
-98.4353
 30
0.0
 10
23.7991
 20
-98.4353
 30
0.0
 10
22.5437
 20
-99.9998
 30
0.0
 10
23.1363
 20
-103.6357
 30
0.0
 10
19.9044
 20
-106.2131
 30
0.0
 10
19.9044
 20
-106.2131
 30
0.0
 10
19.9044
 20
-106.2131
 30
0.0
 10
19.2645
 20
-106.198
 30
0.0
 10
19.2645
 20
-106.198
 30
0.0
 10
19.2645
 20
-106.198
 30
0.0
 10
18.0732
 20
-105.4349
 30
0.0
 10
17.6259
 20
-104.282
 30
0.0
 10
17.6818
 20
-102.683
 30
0.0
 10
17.6818
 20
-102.683
 30
0.0
 10
17.6818
 20
-102.683
 30
0.0
 10
17.2559
 20
-101.6858
 30
0.0
 10
17.2559
 20
-101.6858
 30
0.0
 10
17.2559
 20
-101.6858
 30
0.0
 10
17.2559
 20
-101.6858
 30
0.0
 10
16.6244
 20
-94.9227
 30
0.0
 10
16.6244
 20
-94.9227
 30
0.0
 10
16.6244
 20
-94.9227
 30
0.0
 10
16.6244
 20
-94.9227
 30
0.0
 10
16.4101
 20
-94.9427
 30
0.0
 10
16.4101
 20
-94.9427
 30
0.0
 10
16.4101
 20
-94.9427
 30
0.0
 10
16.3587
 20
-96.5695
 30
0.0
 10
16.4006
 20
-98.2166
 30
0.0
 10
16.3995
 20
-99.8503
 30
0.0
 10
16.3995
 20
-99.8503
 30
0.0
 10
16.3984
 20
-101.3893
 30
0.0
 10
15.975
 20
-102.6993
 30
0.0
 10
15.9837
 20
-104.3529
 30
0.0
 10
15.9837
 20
-104.3529
 30
0.0
 10
16.007
 20
-108.7798
 30
0.0
 10
15.647
 20
-108.6654
 30
0.0
 10
12.7111
 20
-110.9103
 30
0.0
 10
12.7111
 20
-110.9103
 30
0.0
 10
12.7111
 20
-110.9103
 30
0.0
 10
28.8997
 20
-110.9113
 30
0.0
 10
28.8997
 20
-110.9113
 30
0.0
 10
28.8997
 20
-110.9113
 30
0.0
 10
28.8997
 20
-110.9113
 30
0.0
 10
29.1047
 20
-110.9113
 30
0.0
 10
29.1047
 20
-110.9113
 30
0.0
 10
29.1047
 20
-110.9113
 30
0.0
 10
29.1047
 20
-103.301
 30
0.0
 10
29.7846
 20
-97.5964
 30
0.0
 10
30.7536
 20
-90.2227
 30
0.0
 10
30.7536
 20
-90.2227
 30
0.0
 10
31.6871
 20
-83.1192
 30
0.0
 10
33.8555
 20
-80.176
 30
0.0
 10
37.033
 20
-74.1628
 30
0.0
 10
37.033
 20
-74.1628
 30
0.0
 10
39.2604
 20
-69.9475
 30
0.0
 10
43.7413
 20
-65.3304
 30
0.0
 10
46.9104
 20
-61.6995
 30
0.0
 10
46.9104
 20
-61.6995
 30
0.0
 10
48.5311
 20
-59.8427
 30
0.0
 10
51.6261
 20
-58.0435
 30
0.0
 10
51.6681
 20
-55.3911
 30
0.0
 10
51.6681
 20
-55.3911
 30
0.0
 10
51.6944
 20
-53.7285
 30
0.0
 10
50.0866
 20
-47.645
 30
0.0
 10
48.9498
 20
-46.7751
 30
0.0
 10
48.9498
 20
-46.7751
 30
0.0
 10
48.9498
 20
-46.7751
 30
0.0
 10
49.2345
 20
-48.8133
 30
0.0
 10
49.2345
 20
-48.8133
 30
0.0
  0
SPLINE
  5
65
330
1F
100
AcDbEntity
  8
Capa 1
100
AcDbSpline
210
0.0
220
0.0
230
1.0
 70
    11
 71
     3
 72
    68
 73
    64
 74
     0
 42
0.0000000001
 43
0.0000000001
 40
0.0
 40
0.0
 40
0.0
 40
0.0
 40
0.0625
 40
0.0625
 40
0.0625
 40
0.0625
 40
0.125
 40
0.125
 40
0.125
 40
0.125
 40
0.1875
 40
0.1875
 40
0.1875
 40
0.1875
 40
0.25
 40
0.25
 40
0.25
 40
0.25
 40
0.3125
 40
0.3125
 40
0.3125
 40
0.3125
 40
0.375
 40
0.375
 40
0.375
 40
0.375
 40
0.4375
 40
0.4375
 40
0.4375
 40
0.4375
 40
0.5
 40
0.5
 40
0.5
 40
0.5
 40
0.5625
 40
0.5625
 40
0.5625
 40
0.5625
 40
0.625
 40
0.625
 40
0.625
 40
0.625
 40
0.6875
 40
0.6875
 40
0.6875
 40
0.6875
 40
0.75
 40
0.75
 40
0.75
 40
0.75
 40
0.8125
 40
0.8125
 40
0.8125
 40
0.8125
 40
0.875
 40
0.875
 40
0.875
 40
0.875
 40
0.9375
 40
0.9375
 40
0.9375
 40
0.9375
 40
1.0
 40
1.0
 40
1.0
 40
1.0
 10
33.8198
 20
-7.2187
 30
0.0
 10
35.3729
 20
-5.4591
 30
0.0
 10
36.2721
 20
0.5919
 30
0.0
 10
39.5598
 20
1.3881
 30
0.0
 10
39.5598
 20
1.3881
 30
0.0
 10
45.3847
 20
-2.4642
 30
0.0
 10
40.4028
 20
-16.9209
 30
0.0
 10
45.5172
 20
-17.019
 30
0.0
 10
45.5172
 20
-17.019
 30
0.0
 10
52.1684
 20
-17.1465
 30
0.0
 10
49.2277
 20
-2.3853
 30
0.0
 10
47.9172
 20
1.1461
 30
0.0
 10
47.9172
 20
1.1461
 30
0.0
 10
47.1738
 20
3.1493
 30
0.0
 10
49.5839
 20
7.878
 30
0.0
 10
50.4312
 20
9.9888
 30
0.0
 10
50.4312
 20
9.9888
 30
0.0
 10
51.6448
 20
13.0121
 30
0.0
 10
52.6016
 20
16.0066
 30
0.0
 10
53.6285
 20
19.0883
 30
0.0
 10
53.6285
 20
19.0883
 30
0.0
 10
55.6539
 20
25.1662
 30
0.0
 10
58.0397
 20
31.6187
 30
0.0
 10
59.2144
 20
37.8905
 30
0.0
 10
59.2144
 20
37.8905
 30
0.0
 10
60.2782
 20
43.5691
 30
0.0
 10
60.3124
 20
44.3329
 30
0.0
 10
54.3307
 20
44.2323
 30
0.0
 10
54.3307
 20
44.2323
 30
0.0
 10
52.4035
 20
44.1998
 30
0.0
 10
50.537
 20
44.6477
 30
0.0
 10
49.0391
 20
43.3647
 30
0.0
 10
49.0391
 20
43.3647
 30
0.0
 10
48.1619
 20
42.6132
 30
0.0
 10
46.669
 20
40.7791
 30
0.0
 10
46.8265
 20
39.5829
 30
0.0
 10
46.8265
 20
39.5829
 30
0.0
 10
47.0851
 20
37.6196
 30
0.0
 10
49.2366
 20
33.2698
 30
0.0
 10
49.6532
 20
30.331
 30
0.0
 10
49.6532
 20
30.331
 30
0.0
 10
50.1441
 20
26.8699
 30
0.0
 10
50.3584
 20
22.468
 30
0.0
 10
49.8048
 20
19.017
 30
0.0
 10
49.8048
 20
19.017
 30
0.0
 10
49.2515
 20
15.569
 30
0.0
 10
48.9734
 20
12.2043
 30
0.0
 10
47.9366
 20
8.7938
 30
0.0
 10
47.9366
 20
8.7938
 30
0.0
 10
46.7102
 20
4.7603
 30
0.0
 10
46.3766
 20
2.1739
 30
0.0
 10
42.297
 20
5.148
 30
0.0
 10
42.297
 20
5.148
 30
0.0
 10
39.9386
 20
6.8673
 30
0.0
 10
35.3352
 20
6.5208
 30
0.0
 10
34.5361
 20
3.2716
 30
0.0
 10
34.5361
 20
3.2716
 30
0.0
 10
34.2148
 20
1.9652
 30
0.0
 10
34.7769
 20
-0.5621
 30
0.0
 10
34.7514
 20
-2.0734
 30
0.0
 10
34.7514
 20
-2.0734
 30
0.0
 10
34.7255
 20
-3.6114
 30
0.0
 10
34.1499
 20
-5.6845
 30
0.0
 10
33.8198
 20
-7.2187
 30
0.0
  0
SPLINE
  5
66
330
1F
100
AcDbEntity
  8
Capa 1
100
AcDbSpline
210
0.0
220
0.0
230
1.0
 70
    11
 71
     3
 72
    56
 73
    52
 74
     0
 42
0.0000000001
 43
0.0000000001
 40
0.0
 40
0.0
 40
0.0
 40
0.0
 40
0.0769230769230769
 40
0.0769230769230769
 40
0.0769230769230769
 40
0.0769230769230769
 40
0.1538461538461539
 40
0.1538461538461539
 40
0.1538461538461539
 40
0.1538461538461539
 40
0.2307692307692308
 40
0.2307692307692308
 40
0.2307692307692308
 40
0.2307692307692308
 40
0.3076923076923077
 40
0.3076923076923077
 40
0.3076923076923077
 40
0.3076923076923077
 40
0.3846153846153846
 40
0.3846153846153846
 40
0.3846153846153846
 40
0.3846153846153846
 40
0.4615384615384616
 40
0.4615384615384616
 40
0.4615384615384616
 40
0.4615384615384616
 40
0.5384615384615385
 40
0.5384615384615385
 40
0.5384615384615385
 40
0.5384615384615385
 40
0.6153846153846154
 40
0.6153846153846154
 40
0.6153846153846154
 40
0.6153846153846154
 40
0.6923076923076923
 40
0.6923076923076923
 40
0.6923076923076923
 40
0.6923076923076923
 40
0.7692307692307692
 40
0.7692307692307692
 40
0.7692307692307692
 40
0.7692307692307692
 40
0.846153846153846
 40
0.846153846153846
 40
0.846153846153846
 40
0.846153846153846
 40
0.9230769230769229
 40
0.9230769230769229
 40
0.9230769230769229
 40
0.9230769230769229
 40
1.0
 40
1.0
 40
1.0
 40
1.0
 10
37.7148
 20
-108.6571
 30
0.0
 10
40.8675
 20
-106.99
 30
0.0
 10
46.4954
 20
-101.4731
 30
0.0
 10
48.827
 20
-98.6578
 30
0.0
 10
48.827
 20
-98.6578
 30
0.0
 10
52.2828
 20
-94.4854
 30
0.0
 10
54.4238
 20
-90.4868
 30
0.0
 10
57.3754
 20
-86.0956
 30
0.0
 10
57.3754
 20
-86.0956
 30
0.0
 10
60.2308
 20
-81.8476
 30
0.0
 10
62.7814
 20
-77.5441
 30
0.0
 10
65.7161
 20
-73.3258
 30
0.0
 10
65.7161
 20
-73.3258
 30
0.0
 10
67.0725
 20
-71.376
 30
0.0
 10
74.4657
 20
-62.6508
 30
0.0
 10
74.5505
 20
-61.3439
 30
0.0
 10
74.5505
 20
-61.3439
 30
0.0
 10
74.988
 20
-61.0627
 30
0.0
 10
74.9523
 20
-61.7175
 30
0.0
 10
75.6892
 20
-60.773
 30
0.0
 10
75.6892
 20
-60.773
 30
0.0
 10
76.0928
 20
-60.2559
 30
0.0
 10
76.5122
 20
-59.793
 30
0.0
 10
76.8999
 20
-59.2993
 30
0.0
 10
76.8999
 20
-59.2993
 30
0.0
 10
77.7312
 20
-58.2411
 30
0.0
 10
78.474
 20
-57.2146
 30
0.0
 10
79.2523
 20
-56.118
 30
0.0
 10
79.2523
 20
-56.118
 30
0.0
 10
80.384
 20
-54.5234
 30
0.0
 10
82.5277
 20
-50.7093
 30
0.0
 10
83.0951
 20
-48.8933
 30
0.0
 10
83.0951
 20
-48.8933
 30
0.0
 10
83.8947
 20
-46.3337
 30
0.0
 10
85.2795
 20
-42.6752
 30
0.0
 10
85.2766
 20
-40.0081
 30
0.0
 10
85.2766
 20
-40.0081
 30
0.0
 10
85.2743
 20
-37.8031
 30
0.0
 10
85.6363
 20
-32.0869
 30
0.0
 10
84.2505
 20
-30.3754
 30
0.0
 10
84.2505
 20
-30.3754
 30
0.0
 10
83.4664
 20
-39.221
 30
0.0
 10
69.4873
 20
-65.4335
 30
0.0
 10
62.9577
 20
-71.3881
 30
0.0
 10
62.9577
 20
-71.3881
 30
0.0
 10
58.6259
 20
-75.3384
 30
0.0
 10
52.384
 20
-83.8743
 30
0.0
 10
49.3912
 20
-88.9755
 30
0.0
 10
49.3912
 20
-88.9755
 30
0.0
 10
45.8892
 20
-94.9446
 30
0.0
 10
40.3971
 20
-102.5115
 30
0.0
 10
37.7148
 20
-108.6571
 30
0.0
  0
SPLINE
  5
67
330
1F
100
AcDbEntity
  8
Capa 1
100
AcDbSpline
210
0.0
220
0.0
230
1.0
 70
    11
 71
     3
 72
   128
 73
   124
 74
     0
 42
0.0000000001
 43
0.0000000001
 40
0.0
 40
0.0
 40
0.0
 40
0.0
 40
0.032258064516129
 40
0.032258064516129
 40
0.032258064516129
 40
0.032258064516129
 40
0.0645161290322581
 40
0.0645161290322581
 40
0.0645161290322581
 40
0.0645161290322581
 40
0.0967741935483871
 40
0.0967741935483871
 40
0.0967741935483871
 40
0.0967741935483871
 40
0.1290322580645161
 40
0.1290322580645161
 40
0.1290322580645161
 40
0.1290322580645161
 40
0.1612903225806452
 40
0.1612903225806452
 40
0.1612903225806452
 40
0.1612903225806452
 40
0.1935483870967742
 40
0.1935483870967742
 40
0.1935483870967742
 40
0.1935483870967742
 40
0.2258064516129032
 40
0.2258064516129032
 40
0.2258064516129032
 40
0.2258064516129032
 40
0.2580645161290323
 40
0.2580645161290323
 40
0.2580645161290323
 40
0.2580645161290323
 40
0.2903225806451613
 40
0.2903225806451613
 40
0.2903225806451613
 40
0.2903225806451613
 40
0.3225806451612903
 40
0.3225806451612903
 40
0.3225806451612903
 40
0.3225806451612903
 40
0.3548387096774193
 40
0.3548387096774193
 40
0.3548387096774193
 40
0.3548387096774193
 40
0.3870967741935483
 40
0.3870967741935483
 40
0.3870967741935483
 40
0.3870967741935483
 40
0.4193548387096773
 40
0.4193548387096773
 40
0.4193548387096773
 40
0.4193548387096773
 40
0.4516129032258063
 40
0.4516129032258063
 40
0.4516129032258063
 40
0.4516129032258063
 40
0.4838709677419353
 40
0.4838709677419353
 40
0.4838709677419353
 40
0.4838709677419353
 40
0.5161290322580643
 40
0.5161290322580643
 40
0.5161290322580643
 40
0.5161290322580643
 40
0.5483870967741933
 40
0.5483870967741933
 40
0.5483870967741933
 40
0.5483870967741933
 40
0.5806451612903223
 40
0.5806451612903223
 40
0.5806451612903223
 40
0.5806451612903223
 40
0.6129032258064513
 40
0.6129032258064513
 40
0.6129032258064513
 40
0.6129032258064513
 40
0.6451612903225803
 40
0.6451612903225803
 40
0.6451612903225803
 40
0.6451612903225803
 40
0.6774193548387093
 40
0.6774193548387093
 40
0.6774193548387093
 40
0.6774193548387093
 40
0.7096774193548383
 40
0.7096774193548383
 40
0.7096774193548383
 40
0.7096774193548383
 40
0.7419354838709673
 40
0.7419354838709673
 40
0.7419354838709673
 40
0.7419354838709673
 40
0.7741935483870963
 40
0.7741935483870963
 40
0.7741935483870963
 40
0.7741935483870963
 40
0.8064516129032253
 40
0.8064516129032253
 40
0.8064516129032253
 40
0.8064516129032253
 40
0.8387096774193543
 40
0.8387096774193543
 40
0.8387096774193543
 40
0.8387096774193543
 40
0.8709677419354833
 40
0.8709677419354833
 40
0.8709677419354833
 40
0.8709677419354833
 40
0.9032258064516123
 40
0.9032258064516123
 40
0.9032258064516123
 40
0.9032258064516123
 40
0.9354838709677413
 40
0.9354838709677413
 40
0.9354838709677413
 40
0.9354838709677413
 40
0.9677419354838703
 40
0.9677419354838703
 40
0.9677419354838703
 40
0.9677419354838703
 40
1.0
 40
1.0
 40
1.0
 40
1.0
 10
-78.7269
 20
26.5941
 30
0.0
 10
-78.7269
 20
26.5941
 30
0.0
 10
-78.793
 20
25.7684
 30
0.0
 10
-78.793
 20
25.7684
 30
0.0
 10
-78.793
 20
25.7684
 30
0.0
 10
-78.793
 20
25.7684
 30
0.0
 10
-77.7264
 20
12.8443
 30
0.0
 10
-77.7264
 20
12.8443
 30
0.0
 10
-77.7264
 20
12.8443
 30
0.0
 10
-77.7264
 20
12.8443
 30
0.0
 10
-77.3507
 20
12.2458
 30
0.0
 10
-77.3507
 20
12.2458
 30
0.0
 10
-77.3507
 20
12.2458
 30
0.0
 10
-77.3507
 20
12.2458
 30
0.0
 10
-77.0156
 20
8.6526
 30
0.0
 10
-77.0156
 20
8.6526
 30
0.0
 10
-77.0156
 20
8.6526
 30
0.0
 10
-77.0156
 20
8.6526
 30
0.0
 10
-72.8381
 20
11.2903
 30
0.0
 10
-72.8381
 20
11.2903
 30
0.0
 10
-72.8381
 20
11.2903
 30
0.0
 10
-72.8381
 20
11.2903
 30
0.0
 10
-72.5883
 20
11.0403
 30
0.0
 10
-72.5883
 20
11.0403
 30
0.0
 10
-72.5883
 20
11.0403
 30
0.0
 10
-72.5883
 20
11.0403
 30
0.0
 10
-75.1628
 20
4.6183
 30
0.0
 10
-75.1628
 20
4.6183
 30
0.0
 10
-75.1628
 20
4.6183
 30
0.0
 10
-75.1628
 20
4.6183
 30
0.0
 10
-72.2845
 20
6.3609
 30
0.0
 10
-72.2845
 20
6.3609
 30
0.0
 10
-72.2845
 20
6.3609
 30
0.0
 10
-72.2845
 20
6.3609
 30
0.0
 10
-71.9588
 20
6.2023
 30
0.0
 10
-71.9588
 20
6.2023
 30
0.0
 10
-71.9588
 20
6.2023
 30
0.0
 10
-71.9588
 20
6.2023
 30
0.0
 10
-73.3066
 20
-0.777
 30
0.0
 10
-73.3066
 20
-0.777
 30
0.0
 10
-73.3066
 20
-0.777
 30
0.0
 10
-73.3066
 20
-0.777
 30
0.0
 10
-70.26
 20
1.3848
 30
0.0
 10
-70.26
 20
1.3848
 30
0.0
 10
-70.26
 20
1.3848
 30
0.0
 10
-70.26
 20
1.3848
 30
0.0
 10
-70.7318
 20
-6.1941
 30
0.0
 10
-70.7318
 20
-6.1941
 30
0.0
 10
-70.7318
 20
-6.1941
 30
0.0
 10
-70.7318
 20
-6.1941
 30
0.0
 10
-70.722
 20
-6.603
 30
0.0
 10
-70.722
 20
-6.603
 30
0.0
 10
-70.722
 20
-6.603
 30
0.0
 10
-70.722
 20
-6.603
 30
0.0
 10
-70.4741
 20
-9.2504
 30
0.0
 10
-70.4741
 20
-9.2504
 30
0.0
 10
-70.4741
 20
-9.2504
 30
0.0
 10
-69.4853
 20
-8.464
 30
0.0
 10
-69.1348
 20
-6.538
 30
0.0
 10
-68.0598
 20
-7.0134
 30
0.0
 10
-68.0598
 20
-7.0134
 30
0.0
 10
-68.0598
 20
-7.0134
 30
0.0
 10
-67.5105
 20
-14.1662
 30
0.0
 10
-67.5105
 20
-14.1662
 30
0.0
 10
-67.5105
 20
-14.1662
 30
0.0
 10
-67.5105
 20
-14.1662
 30
0.0
 10
-66.4542
 20
-14.0416
 30
0.0
 10
-66.4542
 20
-14.0416
 30
0.0
 10
-66.4542
 20
-14.0416
 30
0.0
 10
-66.4542
 20
-14.0416
 30
0.0
 10
-64.8513
 20
-14.4512
 30
0.0
 10
-64.8513
 20
-14.4512
 30
0.0
 10
-64.8513
 20
-14.4512
 30
0.0
 10
-64.8513
 20
-14.4512
 30
0.0
 10
-62.1217
 20
-18.6946
 30
0.0
 10
-62.1217
 20
-18.6946
 30
0.0
 10
-62.1217
 20
-18.6946
 30
0.0
 10
-60.1694
 20
-18.6929
 30
0.0
 10
-59.0694
 20
-18.2677
 30
0.0
 10
-57.6734
 20
-17.4033
 30
0.0
 10
-57.6734
 20
-17.4033
 30
0.0
 10
-55.8292
 20
-16.2611
 30
0.0
 10
-56.1194
 20
-15.676
 30
0.0
 10
-55.5474
 20
-13.5557
 30
0.0
 10
-55.5474
 20
-13.5557
 30
0.0
 10
-55.5474
 20
-13.5557
 30
0.0
 10
-56.2218
 20
-12.3998
 30
0.0
 10
-56.2218
 20
-12.3998
 30
0.0
 10
-56.2218
 20
-12.3998
 30
0.0
 10
-57.3934
 20
-12.4963
 30
0.0
 10
-58.1854
 20
-13.3999
 30
0.0
 10
-60.4074
 20
-12.8824
 30
0.0
 10
-60.4074
 20
-12.8824
 30
0.0
 10
-61.5464
 20
-12.6171
 30
0.0
 10
-63.4532
 20
-12.2528
 30
0.0
 10
-64.4473
 20
-11.7976
 30
0.0
 10
-64.4473
 20
-11.7976
 30
0.0
 10
-67.1404
 20
-10.5644
 30
0.0
 10
-67.4253
 20
-7.7906
 30
0.0
 10
-67.8096
 20
-5.1173
 30
0.0
 10
-67.8096
 20
-5.1173
 30
0.0
 10
-68.4214
 20
-0.8605
 30
0.0
 10
-70.0371
 20
7.4829
 30
0.0
 10
-71.4372
 20
11.5441
 30
0.0
 10
-71.4372
 20
11.5441
 30
0.0
 10
-72.7488
 20
15.3482
 30
0.0
 10
-74.6369
 20
24.7285
 30
0.0
 10
-74.1966
 20
28.6238
 30
0.0
 10
-74.1966
 20
28.6238
 30
0.0
 10
-73.8297
 20
31.8698
 30
0.0
 10
-73.2028
 20
34.1989
 30
0.0
 10
-72.7267
 20
37.1951
 30
0.0
 10
-72.7267
 20
37.1951
 30
0.0
 10
-72.3686
 20
39.4487
 30
0.0
 10
-71.1076
 20
43.8945
 30
0.0
 10
-71.1418
 20
45.8571
 30
0.0
 10
-71.1418
 20
45.8571
 30
0.0
 10
-72.2594
 20
45.4115
 30
0.0
 10
-75.1411
 20
38.7213
 30
0.0
 10
-75.8602
 20
37.2536
 30
0.0
 10
-75.8602
 20
37.2536
 30
0.0
 10
-77.2557
 20
34.4052
 30
0.0
 10
-78.7269
 20
29.8559
 30
0.0
 10
-78.7269
 20
26.5941
 30
0.0
  0
SPLINE
  5
68
330
1F
100
AcDbEntity
  8
Capa 1
100
AcDbSpline
210
0.0
220
0.0
230
1.0
 70
    11
 71
     3
 72
    84
 73
    80
 74
     0
 42
0.0000000001
 43
0.0000000001
 40
0.0
 40
0.0
 40
0.0
 40
0.0
 40
0.05
 40
0.05
 40
0.05
 40
0.05
 40
0.1
 40
0.1
 40
0.1
 40
0.1
 40
0.15
 40
0.15
 40
0.15
 40
0.15
 40
0.2
 40
0.2
 40
0.2
 40
0.2
 40
0.25
 40
0.25
 40
0.25
 40
0.25
 40
0.3
 40
0.3
 40
0.3
 40
0.3
 40
0.35
 40
0.35
 40
0.35
 40
0.35
 40
0.4
 40
0.4
 40
0.4
 40
0.4
 40
0.45
 40
0.45
 40
0.45
 40
0.45
 40
0.4999999999999999
 40
0.4999999999999999
 40
0.4999999999999999
 40
0.4999999999999999
 40
0.5499999999999999
 40
0.5499999999999999
 40
0.5499999999999999
 40
0.5499999999999999
 40
0.6
 40
0.6
 40
0.6
 40
0.6
 40
0.65
 40
0.65
 40
0.65
 40
0.65
 40
0.7000000000000001
 40
0.7000000000000001
 40
0.7000000000000001
 40
0.7000000000000001
 40
0.7500000000000001
 40
0.7500000000000001
 40
0.7500000000000001
 40
0.7500000000000001
 40
0.8000000000000002
 40
0.8000000000000002
 40
0.8000000000000002
 40
0.8000000000000002
 40
0.8500000000000002
 40
0.8500000000000002
 40
0.8500000000000002
 40
0.8500000000000002
 40
0.9000000000000002
 40
0.9000000000000002
 40
0.9000000000000002
 40
0.9000000000000002
 40
0.9500000000000003
 40
0.9500000000000003
 40
0.9500000000000003
 40
0.9500000000000003
 40
1.0
 40
1.0
 40
1.0
 40
1.0
 10
-57.4563
 20
-9.6204
 30
0.0
 10
-51.7816
 20
-2.5558
 30
0.0
 10
-60.4817
 20
-3.9903
 30
0.0
 10
-60.4817
 20
-0.0463
 30
0.0
 10
-60.4817
 20
-0.0463
 30
0.0
 10
-60.4817
 20
-0.0463
 30
0.0
 10
-60.4817
 20
0.3635
 30
0.0
 10
-60.4817
 20
0.3635
 30
0.0
 10
-60.4817
 20
0.3635
 30
0.0
 10
-60.4817
 20
2.2098
 30
0.0
 10
-59.0534
 20
4.5352
 30
0.0
 10
-57.7678
 20
5.8896
 30
0.0
 10
-57.7678
 20
5.8896
 30
0.0
 10
-57.7678
 20
5.8896
 30
0.0
 10
-56.205
 20
5.8663
 30
0.0
 10
-56.205
 20
5.8663
 30
0.0
 10
-56.205
 20
5.8663
 30
0.0
 10
-56.205
 20
5.8663
 30
0.0
 10
-54.7279
 20
4.2067
 30
0.0
 10
-54.7279
 20
4.2067
 30
0.0
 10
-54.7279
 20
4.2067
 30
0.0
 10
-54.7279
 20
4.2067
 30
0.0
 10
-45.7215
 20
12.2493
 30
0.0
 10
-45.7215
 20
12.2493
 30
0.0
 10
-45.7215
 20
12.2493
 30
0.0
 10
-46.504
 20
12.0375
 30
0.0
 10
-49.4456
 20
10.7107
 30
0.0
 10
-50.7021
 20
10.2605
 30
0.0
 10
-50.7021
 20
10.2605
 30
0.0
 10
-52.6542
 20
9.561
 30
0.0
 10
-54.6763
 20
9.1753
 30
0.0
 10
-56.7932
 20
9.1753
 30
0.0
 10
-56.7932
 20
9.1753
 30
0.0
 10
-56.7932
 20
9.1753
 30
0.0
 10
-57.6116
 20
9.1753
 30
0.0
 10
-57.6116
 20
9.1753
 30
0.0
 10
-57.6116
 20
9.1753
 30
0.0
 10
-61.477
 20
9.1753
 30
0.0
 10
-61.5332
 20
9.9743
 30
0.0
 10
-63.4491
 20
12.6472
 30
0.0
 10
-63.4491
 20
12.6472
 30
0.0
 10
-63.4491
 20
12.6472
 30
0.0
 10
-64.3767
 20
31.1024
 30
0.0
 10
-64.3767
 20
31.1024
 30
0.0
 10
-64.3767
 20
31.1024
 30
0.0
 10
-64.3767
 20
31.1024
 30
0.0
 10
-64.3767
 20
37.0453
 30
0.0
 10
-64.3767
 20
37.0453
 30
0.0
 10
-64.3767
 20
37.0453
 30
0.0
 10
-64.3767
 20
38.7599
 30
0.0
 10
-63.9218
 20
40.8556
 30
0.0
 10
-63.3994
 20
42.421
 30
0.0
 10
-63.3994
 20
42.421
 30
0.0
 10
-62.7083
 20
44.4917
 30
0.0
 10
-61.4808
 20
44.6955
 30
0.0
 10
-60.0751
 20
45.6498
 30
0.0
 10
-60.0751
 20
45.6498
 30
0.0
 10
-60.0751
 20
45.6498
 30
0.0
 10
-58.7392
 20
45.6087
 30
0.0
 10
-58.7392
 20
45.6087
 30
0.0
 10
-58.7392
 20
45.6087
 30
0.0
 10
-58.7392
 20
45.6087
 30
0.0
 10
-63.7617
 20
48.7261
 30
0.0
 10
-63.7617
 20
48.7261
 30
0.0
 10
-63.7617
 20
48.7261
 30
0.0
 10
-63.7617
 20
48.7261
 30
0.0
 10
-64.7868
 20
48.7261
 30
0.0
 10
-64.7868
 20
48.7261
 30
0.0
 10
-64.7868
 20
48.7261
 30
0.0
 10
-68.4221
 20
46.2064
 30
0.0
 10
-69.9889
 20
39.0491
 30
0.0
 10
-68.8046
 20
34.8732
 30
0.0
 10
-68.8046
 20
34.8732
 30
0.0
 10
-67.4574
 20
30.1227
 30
0.0
 10
-66.7608
 20
24.5243
 30
0.0
 10
-65.2664
 20
19.7619
 30
0.0
 10
-65.2664
 20
19.7619
 30
0.0
 10
-64.0681
 20
15.9429
 30
0.0
 10
-62.889
 20
-10.4688
 30
0.0
 10
-57.4563
 20
-9.6204
 30
0.0
  0
SPLINE
  5
69
330
1F
100
AcDbEntity
  8
Capa 1
100
AcDbSpline
210
0.0
220
0.0
230
1.0
 70
    11
 71
     3
 72
    28
 73
    24
 74
     0
 42
0.0000000001
 43
0.0000000001
 40
0.0
 40
0.0
 40
0.0
 40
0.0
 40
0.1666666666666667
 40
0.1666666666666667
 40
0.1666666666666667
 40
0.1666666666666667
 40
0.3333333333333333
 40
0.3333333333333333
 40
0.3333333333333333
 40
0.3333333333333333
 40
0.5
 40
0.5
 40
0.5
 40
0.5
 40
0.6666666666666666
 40
0.6666666666666666
 40
0.6666666666666666
 40
0.6666666666666666
 40
0.8333333333333333
 40
0.8333333333333333
 40
0.8333333333333333
 40
0.8333333333333333
 40
1.0
 40
1.0
 40
1.0
 40
1.0
 10
80.9189
 20
46.2155
 30
0.0
 10
81.0717
 20
44.8361
 30
0.0
 10
82.3687
 20
42.5441
 30
0.0
 10
82.6153
 20
40.9437
 30
0.0
 10
82.6153
 20
40.9437
 30
0.0
 10
82.824
 20
39.59
 30
0.0
 10
83.4184
 20
36.3069
 30
0.0
 10
83.7596
 20
35.1201
 30
0.0
 10
83.7596
 20
35.1201
 30
0.0
 10
84.3971
 20
32.9028
 30
0.0
 10
84.3574
 20
24.4917
 30
0.0
 10
85.4805
 20
22.7005
 30
0.0
 10
85.4805
 20
22.7005
 30
0.0
 10
85.4805
 20
36.5466
 30
0.0
 10
84.308
 20
61.2771
 30
0.0
 10
78.3054
 20
73.1122
 30
0.0
 10
78.3054
 20
73.1122
 30
0.0
 10
74.6767
 20
70.2457
 30
0.0
 10
72.4912
 20
63.7023
 30
0.0
 10
74.4037
 20
59.1707
 30
0.0
 10
74.4037
 20
59.1707
 30
0.0
 10
74.9528
 20
57.8697
 30
0.0
 10
80.5781
 20
46.5563
 30
0.0
 10
80.9189
 20
46.2155
 30
0.0
  0
SPLINE
  5
6A
330
1F
100
AcDbEntity
  8
Capa 1
100
AcDbSpline
210
0.0
220
0.0
230
1.0
 70
    11
 71
     3
 72
    56
 73
    52
 74
     0
 42
0.0000000001
 43
0.0000000001
 40
0.0
 40
0.0
 40
0.0
 40
0.0
 40
0.0769230769230769
 40
0.0769230769230769
 40
0.0769230769230769
 40
0.0769230769230769
 40
0.1538461538461539
 40
0.1538461538461539
 40
0.1538461538461539
 40
0.1538461538461539
 40
0.2307692307692308
 40
0.2307692307692308
 40
0.2307692307692308
 40
0.2307692307692308
 40
0.3076923076923077
 40
0.3076923076923077
 40
0.3076923076923077
 40
0.3076923076923077
 40
0.3846153846153846
 40
0.3846153846153846
 40
0.3846153846153846
 40
0.3846153846153846
 40
0.4615384615384616
 40
0.4615384615384616
 40
0.4615384615384616
 40
0.4615384615384616
 40
0.5384615384615385
 40
0.5384615384615385
 40
0.5384615384615385
 40
0.5384615384615385
 40
0.6153846153846154
 40
0.6153846153846154
 40
0.6153846153846154
 40
0.6153846153846154
 40
0.6923076923076923
 40
0.6923076923076923
 40
0.6923076923076923
 40
0.6923076923076923
 40
0.7692307692307692
 40
0.7692307692307692
 40
0.7692307692307692
 40
0.7692307692307692
 40
0.846153846153846
 40
0.846153846153846
 40
0.846153846153846
 40
0.846153846153846
 40
0.9230769230769229
 40
0.9230769230769229
 40
0.9230769230769229
 40
0.9230769230769229
 40
1.0
 40
1.0
 40
1.0
 40
1.0
 10
26.627
 20
38.7022
 30
0.0
 10
26.627
 20
38.7022
 30
0.0
 10
27.6668
 20
38.3004
 30
0.0
 10
27.6668
 20
38.3004
 30
0.0
 10
27.6668
 20
38.3004
 30
0.0
 10
29.9654
 20
39.2152
 30
0.0
 10
31.5825
 20
40.1191
 30
0.0
 10
34.2297
 20
40.1191
 30
0.0
 10
34.2297
 20
40.1191
 30
0.0
 10
34.2297
 20
40.1191
 30
0.0
 10
34.8447
 20
40.1191
 30
0.0
 10
34.8447
 20
40.1191
 30
0.0
 10
34.8447
 20
40.1191
 30
0.0
 10
43.4419
 20
40.1191
 30
0.0
 10
38.7172
 20
28.4478
 30
0.0
 10
37.6978
 20
23.5371
 30
0.0
 10
37.6978
 20
23.5371
 30
0.0
 10
37.0102
 20
20.2253
 30
0.0
 10
35.2775
 20
17.9483
 30
0.0
 10
32.1015
 20
17.0407
 30
0.0
 10
32.1015
 20
17.0407
 30
0.0
 10
28.4752
 20
16.0044
 30
0.0
 10
24.7805
 20
19.0266
 30
0.0
 10
22.7496
 20
19.2167
 30
0.0
 10
22.7496
 20
19.2167
 30
0.0
 10
23.9767
 20
17.5322
 30
0.0
 10
29.3144
 20
13.621
 30
0.0
 10
31.3052
 20
13.2192
 30
0.0
 10
31.3052
 20
13.2192
 30
0.0
 10
35.0424
 20
12.465
 30
0.0
 10
39.0727
 20
15.9597
 30
0.0
 10
39.3983
 20
19.3782
 30
0.0
 10
39.3983
 20
19.3782
 30
0.0
 10
40.7141
 20
20.6133
 30
0.0
 10
44.0646
 20
29.6091
 30
0.0
 10
44.2925
 20
31.6995
 30
0.0
 10
44.2925
 20
31.6995
 30
0.0
 10
44.8658
 20
36.9578
 30
0.0
 10
41.694
 20
39.5244
 30
0.0
 10
37.4084
 20
41.7472
 30
0.0
 10
37.4084
 20
41.7472
 30
0.0
 10
37.4084
 20
41.7472
 30
0.0
 10
37.9198
 20
47.9064
 30
0.0
 10
37.9198
 20
47.9064
 30
0.0
 10
37.9198
 20
47.9064
 30
0.0
 10
36.433
 20
45.5434
 30
0.0
 10
35.518
 20
44.2831
 30
0.0
 10
33.0849
 20
42.4931
 30
0.0
 10
33.0849
 20
42.4931
 30
0.0
 10
31.1909
 20
41.0996
 30
0.0
 10
27.9261
 20
39.7116
 30
0.0
 10
26.627
 20
38.7022
 30
0.0
  0
SPLINE
  5
6B
330
1F
100
AcDbEntity
  8
Capa 1
100
AcDbSpline
210
0.0
220
0.0
230
1.0
 70
    11
 71
     3
 72
    72
 73
    68
 74
     0
 42
0.0000000001
 43
0.0000000001
 40
0.0
 40
0.0
 40
0.0
 40
0.0
 40
0.0588235294117647
 40
0.0588235294117647
 40
0.0588235294117647
 40
0.0588235294117647
 40
0.1176470588235294
 40
0.1176470588235294
 40
0.1176470588235294
 40
0.1176470588235294
 40
0.1764705882352941
 40
0.1764705882352941
 40
0.1764705882352941
 40
0.1764705882352941
 40
0.2352941176470588
 40
0.2352941176470588
 40
0.2352941176470588
 40
0.2352941176470588
 40
0.2941176470588235
 40
0.2941176470588235
 40
0.2941176470588235
 40
0.2941176470588235
 40
0.3529411764705883
 40
0.3529411764705883
 40
0.3529411764705883
 40
0.3529411764705883
 40
0.411764705882353
 40
0.411764705882353
 40
0.411764705882353
 40
0.411764705882353
 40
0.4705882352941177
 40
0.4705882352941177
 40
0.4705882352941177
 40
0.4705882352941177
 40
0.5294117647058824
 40
0.5294117647058824
 40
0.5294117647058824
 40
0.5294117647058824
 40
0.5882352941176471
 40
0.5882352941176471
 40
0.5882352941176471
 40
0.5882352941176471
 40
0.6470588235294118
 40
0.6470588235294118
 40
0.6470588235294118
 40
0.6470588235294118
 40
0.7058823529411765
 40
0.7058823529411765
 40
0.7058823529411765
 40
0.7058823529411765
 40
0.7647058823529412
 40
0.7647058823529412
 40
0.7647058823529412
 40
0.7647058823529412
 40
0.823529411764706
 40
0.823529411764706
 40
0.823529411764706
 40
0.823529411764706
 40
0.8823529411764707
 40
0.8823529411764707
 40
0.8823529411764707
 40
0.8823529411764707
 40
0.9411764705882354
 40
0.9411764705882354
 40
0.9411764705882354
 40
0.9411764705882354
 40
1.0
 40
1.0
 40
1.0
 40
1.0
 10
-27.4762
 20
44.4226
 30
0.0
 10
-27.4762
 20
50.7512
 30
0.0
 10
-27.1093
 20
58.652
 30
0.0
 10
-22.5066
 20
63.2264
 30
0.0
 10
-22.5066
 20
63.2264
 30
0.0
 10
-20.2259
 20
65.4931
 30
0.0
 10
-17.9018
 20
66.3562
 30
0.0
 10
-15.2053
 20
67.8134
 30
0.0
 10
-15.2053
 20
67.8134
 30
0.0
 10
-12.2134
 20
69.4302
 30
0.0
 10
-10.7941
 20
71.8764
 30
0.0
 10
-8.617
 20
73.3242
 30
0.0
 10
-8.617
 20
73.3242
 30
0.0
 10
-8.617
 20
73.3242
 30
0.0
 10
-8.0009
 20
73.3172
 30
0.0
 10
-8.0009
 20
73.3172
 30
0.0
 10
-8.0009
 20
73.3172
 30
0.0
 10
-6.475
 20
72.3075
 30
0.0
 10
-5.9033
 20
69.4243
 30
0.0
 10
-4.2601
 20
68.0398
 30
0.0
 10
-4.2601
 20
68.0398
 30
0.0
 10
-2.8085
 20
66.8169
 30
0.0
 10
0.4042
 20
65.4657
 30
0.0
 10
0.4042
 20
63.4807
 30
0.0
 10
0.4042
 20
63.4807
 30
0.0
 10
0.4042
 20
61.8674
 30
0.0
 10
-1.5366
 20
58.619
 30
0.0
 10
-1.6967
 20
56.4621
 30
0.0
 10
-1.6967
 20
56.4621
 30
0.0
 10
-1.6967
 20
56.4621
 30
0.0
 10
0.1465
 20
54.6865
 30
0.0
 10
0.1465
 20
54.6865
 30
0.0
 10
0.1465
 20
54.6865
 30
0.0
 10
0.5755
 20
58.6014
 30
0.0
 10
-0.19
 20
63.4395
 30
0.0
 10
3.7129
 20
64.9696
 30
0.0
 10
3.7129
 20
64.9696
 30
0.0
 10
3.7129
 20
64.9696
 30
0.0
 10
4.6917
 20
64.5581
 30
0.0
 10
4.6917
 20
64.5581
 30
0.0
 10
4.6917
 20
64.5581
 30
0.0
 10
1.0769
 20
68.9321
 30
0.0
 10
3.9313
 20
68.1355
 30
0.0
 10
-2.1747
 20
70.1245
 30
0.0
 10
-2.1747
 20
70.1245
 30
0.0
 10
-5.5117
 20
71.2115
 30
0.0
 10
-6.6615
 20
74.9003
 30
0.0
 10
-6.6011
 20
78.2202
 30
0.0
 10
-6.6011
 20
78.2202
 30
0.0
 10
-6.6011
 20
78.2202
 30
0.0
 10
-7.0918
 20
78.9923
 30
0.0
 10
-7.0918
 20
78.9923
 30
0.0
 10
-7.0918
 20
78.9923
 30
0.0
 10
-9.1535
 20
76.7118
 30
0.0
 10
-10.2378
 20
71.7671
 30
0.0
 10
-13.6191
 20
70.7362
 30
0.0
 10
-13.6191
 20
70.7362
 30
0.0
 10
-18.3837
 20
69.2835
 30
0.0
 10
-21.545
 20
71.7729
 30
0.0
 10
-23.7898
 20
65.9436
 30
0.0
 10
-23.7898
 20
65.9436
 30
0.0
 10
-25.7058
 20
60.9686
 30
0.0
 10
-26.5937
 20
60.6523
 30
0.0
 10
-29.0331
 20
56.4302
 30
0.0
 10
-29.0331
 20
56.4302
 30
0.0
 10
-30.3715
 20
54.1139
 30
0.0
 10
-28.7262
 20
45.3095
 30
0.0
 10
-27.4762
 20
44.4226
 30
0.0
  0
SPLINE
  5
6C
330
1F
100
AcDbEntity
  8
Capa 1
100
AcDbSpline
210
0.0
220
0.0
230
1.0
 70
    11
 71
     3
 72
    28
 73
    24
 74
     0
 42
0.0000000001
 43
0.0000000001
 40
0.0
 40
0.0
 40
0.0
 40
0.0
 40
0.1666666666666667
 40
0.1666666666666667
 40
0.1666666666666667
 40
0.1666666666666667
 40
0.3333333333333333
 40
0.3333333333333333
 40
0.3333333333333333
 40
0.3333333333333333
 40
0.5
 40
0.5
 40
0.5
 40
0.5
 40
0.6666666666666666
 40
0.6666666666666666
 40
0.6666666666666666
 40
0.6666666666666666
 40
0.8333333333333333
 40
0.8333333333333333
 40
0.8333333333333333
 40
0.8333333333333333
 40
1.0
 40
1.0
 40
1.0
 40
1.0
 10
42.6348
 20
42.1684
 30
0.0
 10
43.761
 20
43.4568
 30
0.0
 10
45.5003
 20
51.9503
 30
0.0
 10
45.5061
 20
54.0553
 30
0.0
 10
45.5061
 20
54.0553
 30
0.0
 10
43.3598
 20
57.3106
 30
0.0
 10
41.2256
 20
57.1588
 30
0.0
 10
39.1831
 20
62.0795
 30
0.0
 10
39.1831
 20
62.0795
 30
0.0
 10
37.5399
 20
66.0382
 30
0.0
 10
36.0062
 20
68.1942
 30
0.0
 10
31.3597
 20
68.6039
 30
0.0
 10
31.3597
 20
68.6039
 30
0.0
 10
32.9365
 20
67.118
 30
0.0
 10
36.8228
 20
58.2618
 30
0.0
 10
37.6356
 20
55.8193
 30
0.0
 10
37.6356
 20
55.8193
 30
0.0
 10
38.2965
 20
53.833
 30
0.0
 10
39.9729
 20
51.4281
 30
0.0
 10
40.8248
 20
49.5808
 30
0.0
 10
40.8248
 20
49.5808
 30
0.0
 10
41.6954
 20
47.6931
 30
0.0
 10
41.2158
 20
42.6961
 30
0.0
 10
42.6348
 20
42.1684
 30
0.0
  0
SPLINE
  5
6D
330
1F
100
AcDbEntity
  8
Capa 1
100
AcDbSpline
210
0.0
220
0.0
230
1.0
 70
    11
 71
     3
 72
    48
 73
    44
 74
     0
 42
0.0000000001
 43
0.0000000001
 40
0.0
 40
0.0
 40
0.0
 40
0.0
 40
0.0909090909090909
 40
0.0909090909090909
 40
0.0909090909090909
 40
0.0909090909090909
 40
0.1818181818181818
 40
0.1818181818181818
 40
0.1818181818181818
 40
0.1818181818181818
 40
0.2727272727272727
 40
0.2727272727272727
 40
0.2727272727272727
 40
0.2727272727272727
 40
0.3636363636363636
 40
0.3636363636363636
 40
0.3636363636363636
 40
0.3636363636363636
 40
0.4545454545454546
 40
0.4545454545454546
 40
0.4545454545454546
 40
0.4545454545454546
 40
0.5454545454545455
 40
0.5454545454545455
 40
0.5454545454545455
 40
0.5454545454545455
 40
0.6363636363636365
 40
0.6363636363636365
 40
0.6363636363636365
 40
0.6363636363636365
 40
0.7272727272727274
 40
0.7272727272727274
 40
0.7272727272727274
 40
0.7272727272727274
 40
0.8181818181818183
 40
0.8181818181818183
 40
0.8181818181818183
 40
0.8181818181818183
 40
0.9090909090909093
 40
0.9090909090909093
 40
0.9090909090909093
 40
0.9090909090909093
 40
1.0
 40
1.0
 40
1.0
 40
1.0
 10
22.5667
 20
54.4861
 30
0.0
 10
22.5667
 20
54.4861
 30
0.0
 10
22.7496
 20
52.4147
 30
0.0
 10
22.7496
 20
52.4147
 30
0.0
 10
22.7496
 20
52.4147
 30
0.0
 10
22.9574
 20
50.8625
 30
0.0
 10
21.7635
 20
49.4382
 30
0.0
 10
20.8112
 20
48.258
 30
0.0
 10
20.8112
 20
48.258
 30
0.0
 10
20.8112
 20
48.258
 30
0.0
 10
21.9296
 20
47.4965
 30
0.0
 10
21.9296
 20
47.4965
 30
0.0
 10
21.9296
 20
47.4965
 30
0.0
 10
23.3678
 20
47.4992
 30
0.0
 10
23.2824
 20
47.0867
 30
0.0
 10
24.3896
 20
47.0867
 30
0.0
 10
24.3896
 20
47.0867
 30
0.0
 10
24.3896
 20
47.0867
 30
0.0
 10
26.0296
 20
47.0867
 30
0.0
 10
26.0296
 20
47.0867
 30
0.0
 10
26.0296
 20
47.0867
 30
0.0
 10
27.6589
 20
47.0867
 30
0.0
 10
33.4862
 20
47.5831
 30
0.0
 10
34.4125
 20
48.3385
 30
0.0
 10
34.4125
 20
48.3385
 30
0.0
 10
35.6902
 20
50.5744
 30
0.0
 10
30.499
 20
53.1897
 30
0.0
 10
29.1292
 20
54.2836
 30
0.0
 10
29.1292
 20
54.2836
 30
0.0
 10
24.7882
 20
54.0803
 30
0.0
 10
24.5874
 20
56.9756
 30
0.0
 10
22.396
 20
59.8485
 30
0.0
 10
22.396
 20
59.8485
 30
0.0
 10
20.5102
 20
62.3209
 30
0.0
 10
18.0038
 20
63.7609
 30
0.0
 10
15.3694
 20
65.1202
 30
0.0
 10
15.3694
 20
65.1202
 30
0.0
 10
15.5288
 20
63.2717
 30
0.0
 10
17.5491
 20
61.0801
 30
0.0
 10
18.909
 20
59.8466
 30
0.0
 10
18.909
 20
59.8466
 30
0.0
 10
21.6826
 20
57.3308
 30
0.0
 10
20.9991
 20
56.4765
 30
0.0
 10
22.5667
 20
54.4861
 30
0.0
  0
SPLINE
  5
6E
330
1F
100
AcDbEntity
  8
Capa 1
100
AcDbSpline
210
0.0
220
0.0
230
1.0
 70
    11
 71
     3
 72
    48
 73
    44
 74
     0
 42
0.0000000001
 43
0.0000000001
 40
0.0
 40
0.0
 40
0.0
 40
0.0
 40
0.0909090909090909
 40
0.0909090909090909
 40
0.0909090909090909
 40
0.0909090909090909
 40
0.1818181818181818
 40
0.1818181818181818
 40
0.1818181818181818
 40
0.1818181818181818
 40
0.2727272727272727
 40
0.2727272727272727
 40
0.2727272727272727
 40
0.2727272727272727
 40
0.3636363636363636
 40
0.3636363636363636
 40
0.3636363636363636
 40
0.3636363636363636
 40
0.4545454545454546
 40
0.4545454545454546
 40
0.4545454545454546
 40
0.4545454545454546
 40
0.5454545454545455
 40
0.5454545454545455
 40
0.5454545454545455
 40
0.5454545454545455
 40
0.6363636363636365
 40
0.6363636363636365
 40
0.6363636363636365
 40
0.6363636363636365
 40
0.7272727272727274
 40
0.7272727272727274
 40
0.7272727272727274
 40
0.7272727272727274
 40
0.8181818181818183
 40
0.8181818181818183
 40
0.8181818181818183
 40
0.8181818181818183
 40
0.9090909090909093
 40
0.9090909090909093
 40
0.9090909090909093
 40
0.9090909090909093
 40
1.0
 40
1.0
 40
1.0
 40
1.0
 10
50.425
 20
-112.3458
 30
0.0
 10
50.425
 20
-112.3458
 30
0.0
 10
51.45
 20
-112.3458
 30
0.0
 10
51.45
 20
-112.3458
 30
0.0
 10
51.45
 20
-112.3458
 30
0.0
 10
51.45
 20
-112.3458
 30
0.0
 10
51.86
 20
-112.3458
 30
0.0
 10
51.86
 20
-112.3458
 30
0.0
 10
51.86
 20
-112.3458
 30
0.0
 10
51.86
 20
-112.3458
 30
0.0
 10
52.885
 20
-112.3458
 30
0.0
 10
52.885
 20
-112.3458
 30
0.0
 10
52.885
 20
-112.3458
 30
0.0
 10
53.0294
 20
-112.007
 30
0.0
 10
56.1549
 20
-110.3567
 30
0.0
 10
56.8289
 20
-109.9356
 30
0.0
 10
56.8289
 20
-109.9356
 30
0.0
 10
57.9753
 20
-109.2193
 30
0.0
 10
59.0843
 20
-107.8273
 30
0.0
 10
60.0104
 20
-106.7631
 30
0.0
 10
60.0104
 20
-106.7631
 30
0.0
 10
61.9453
 20
-104.5394
 30
0.0
 10
63.3917
 20
-101.6603
 30
0.0
 10
64.9386
 20
-99.1889
 30
0.0
 10
64.9386
 20
-99.1889
 30
0.0
 10
66.2381
 20
-97.1127
 30
0.0
 10
73.036
 20
-83.9593
 30
0.0
 10
73.1803
 20
-82.4266
 30
0.0
 10
73.1803
 20
-82.4266
 30
0.0
 10
73.1031
 20
-82.4817
 30
0.0
 10
63.0101
 20
-96.4647
 30
0.0
 10
62.1947
 20
-97.6756
 30
0.0
 10
62.1947
 20
-97.6756
 30
0.0
 10
60.6696
 20
-99.9409
 30
0.0
 10
58.1073
 20
-102.7811
 30
0.0
 10
56.2628
 20
-104.8612
 30
0.0
 10
56.2628
 20
-104.8612
 30
0.0
 10
54.7965
 20
-106.5147
 30
0.0
 10
49.6414
 20
-109.6722
 30
0.0
 10
49.605
 20
-111.3212
 30
0.0
 10
49.605
 20
-111.3212
 30
0.0
 10
49.605
 20
-111.3212
 30
0.0
 10
50.425
 20
-112.3458
 30
0.0
 10
50.425
 20
-112.3458
 30
0.0
  0
SPLINE
  5
6F
330
1F
100
AcDbEntity
  8
Capa 1
100
AcDbSpline
210
0.0
220
0.0
230
1.0
 70
    11
 71
     3
 72
    68
 73
    64
 74
     0
 42
0.0000000001
 43
0.0000000001
 40
0.0
 40
0.0
 40
0.0
 40
0.0
 40
0.0625
 40
0.0625
 40
0.0625
 40
0.0625
 40
0.125
 40
0.125
 40
0.125
 40
0.125
 40
0.1875
 40
0.1875
 40
0.1875
 40
0.1875
 40
0.25
 40
0.25
 40
0.25
 40
0.25
 40
0.3125
 40
0.3125
 40
0.3125
 40
0.3125
 40
0.375
 40
0.375
 40
0.375
 40
0.375
 40
0.4375
 40
0.4375
 40
0.4375
 40
0.4375
 40
0.5
 40
0.5
 40
0.5
 40
0.5
 40
0.5625
 40
0.5625
 40
0.5625
 40
0.5625
 40
0.625
 40
0.625
 40
0.625
 40
0.625
 40
0.6875
 40
0.6875
 40
0.6875
 40
0.6875
 40
0.75
 40
0.75
 40
0.75
 40
0.75
 40
0.8125
 40
0.8125
 40
0.8125
 40
0.8125
 40
0.875
 40
0.875
 40
0.875
 40
0.875
 40
0.9375
 40
0.9375
 40
0.9375
 40
0.9375
 40
1.0
 40
1.0
 40
1.0
 40
1.0
 10
-57.8601
 20
33.605
 30
0.0
 10
-57.8601
 20
33.605
 30
0.0
 10
-58.4245
 20
32.9396
 30
0.0
 10
-58.4245
 20
32.9396
 30
0.0
 10
-58.4245
 20
32.9396
 30
0.0
 10
-58.5235
 20
28.0934
 30
0.0
 10
-59.7371
 20
21.0576
 30
0.0
 10
-56.1415
 20
17.1846
 30
0.0
 10
-56.1415
 20
17.1846
 30
0.0
 10
-56.1415
 20
17.1846
 30
0.0
 10
-49.8391
 20
16.1955
 30
0.0
 10
-49.8391
 20
16.1955
 30
0.0
 10
-49.8391
 20
16.1955
 30
0.0
 10
-51.5781
 20
17.4898
 30
0.0
 10
-55.3566
 20
19.0338
 30
0.0
 10
-55.3566
 20
22.0857
 30
0.0
 10
-55.3566
 20
22.0857
 30
0.0
 10
-55.3566
 20
25.1545
 30
0.0
 10
-51.1554
 20
26.2637
 30
0.0
 10
-49.4466
 20
27.3786
 30
0.0
 10
-49.4466
 20
27.3786
 30
0.0
 10
-52.7932
 20
27.6383
 30
0.0
 10
-58.7118
 20
27.6905
 30
0.0
 10
-58.1778
 20
32.693
 30
0.0
 10
-58.1778
 20
32.693
 30
0.0
 10
-55.702
 20
35.1162
 30
0.0
 10
-54.7665
 20
36.2406
 30
0.0
 10
-50.8553
 20
36.0275
 30
0.0
 10
-50.8553
 20
36.0275
 30
0.0
 10
-48.5409
 20
35.9013
 30
0.0
 10
-44.3953
 20
34.6292
 30
0.0
 10
-42.8038
 20
32.9689
 30
0.0
 10
-42.8038
 20
32.9689
 30
0.0
 10
-42.8038
 20
32.9689
 30
0.0
 10
-41.9265
 20
32.7938
 30
0.0
 10
-41.9265
 20
32.7938
 30
0.0
 10
-41.9265
 20
32.7938
 30
0.0
 10
-41.9265
 20
32.7938
 30
0.0
 10
-39.7986
 20
31.7117
 30
0.0
 10
-39.7986
 20
31.7117
 30
0.0
 10
-39.7986
 20
31.7117
 30
0.0
 10
-39.7986
 20
31.7117
 30
0.0
 10
-37.471
 20
31.8743
 30
0.0
 10
-37.471
 20
31.8743
 30
0.0
 10
-37.471
 20
31.8743
 30
0.0
 10
-37.471
 20
31.8743
 30
0.0
 10
-41.2094
 20
32.9488
 30
0.0
 10
-41.2094
 20
32.9488
 30
0.0
 10
-41.2094
 20
32.9488
 30
0.0
 10
-43.1766
 20
34.8193
 30
0.0
 10
-43.5514
 20
33.5266
 30
0.0
 10
-45.2755
 20
36.8763
 30
0.0
 10
-45.2755
 20
36.8763
 30
0.0
 10
-46.3055
 20
38.8773
 30
0.0
 10
-48.4564
 20
39.7093
 30
0.0
 10
-50.6415
 20
39.7093
 30
0.0
 10
-50.6415
 20
39.7093
 30
0.0
 10
-50.6415
 20
39.7093
 30
0.0
 10
-51.0515
 20
39.7093
 30
0.0
 10
-51.0515
 20
39.7093
 30
0.0
 10
-51.0515
 20
39.7093
 30
0.0
 10
-54.6003
 20
39.7093
 30
0.0
 10
-57.5233
 20
37.1475
 30
0.0
 10
-57.8601
 20
33.605
 30
0.0
  0
SPLINE
  5
70
330
1F
100
AcDbEntity
  8
Capa 1
100
AcDbSpline
210
0.0
220
0.0
230
1.0
 70
    11
 71
     3
 72
    48
 73
    44
 74
     0
 42
0.0000000001
 43
0.0000000001
 40
0.0
 40
0.0
 40
0.0
 40
0.0
 40
0.0909090909090909
 40
0.0909090909090909
 40
0.0909090909090909
 40
0.0909090909090909
 40
0.1818181818181818
 40
0.1818181818181818
 40
0.1818181818181818
 40
0.1818181818181818
 40
0.2727272727272727
 40
0.2727272727272727
 40
0.2727272727272727
 40
0.2727272727272727
 40
0.3636363636363636
 40
0.3636363636363636
 40
0.3636363636363636
 40
0.3636363636363636
 40
0.4545454545454546
 40
0.4545454545454546
 40
0.4545454545454546
 40
0.4545454545454546
 40
0.5454545454545455
 40
0.5454545454545455
 40
0.5454545454545455
 40
0.5454545454545455
 40
0.6363636363636365
 40
0.6363636363636365
 40
0.6363636363636365
 40
0.6363636363636365
 40
0.7272727272727274
 40
0.7272727272727274
 40
0.7272727272727274
 40
0.7272727272727274
 40
0.8181818181818183
 40
0.8181818181818183
 40
0.8181818181818183
 40
0.8181818181818183
 40
0.9090909090909093
 40
0.9090909090909093
 40
0.9090909090909093
 40
0.9090909090909093
 40
1.0
 40
1.0
 40
1.0
 40
1.0
 10
-34.0348
 20
64.2977
 30
0.0
 10
-34.0348
 20
64.2977
 30
0.0
 10
-34.2239
 20
53.0243
 30
0.0
 10
-34.2239
 20
53.0243
 30
0.0
 10
-34.2239
 20
53.0243
 30
0.0
 10
-34.2239
 20
53.0243
 30
0.0
 10
-34.4463
 20
53.0295
 30
0.0
 10
-34.4463
 20
53.0295
 30
0.0
 10
-34.4463
 20
53.0295
 30
0.0
 10
-39.8096
 20
53.0295
 30
0.0
 10
-42.2864
 20
57.2278
 30
0.0
 10
-44.4083
 20
56.2634
 30
0.0
 10
-44.4083
 20
56.2634
 30
0.0
 10
-44.4083
 20
56.2634
 30
0.0
 10
-49.2065
 20
50.1606
 30
0.0
 10
-49.2065
 20
50.1606
 30
0.0
 10
-49.2065
 20
50.1606
 30
0.0
 10
-46.8364
 20
50.1627
 30
0.0
 10
-43.136
 20
52.4147
 30
0.0
 10
-41.2114
 20
52.4147
 30
0.0
 10
-41.2114
 20
52.4147
 30
0.0
 10
-40.2227
 20
52.4147
 30
0.0
 10
-39.757
 20
52.0098
 30
0.0
 10
-38.7083
 20
52.0524
 30
0.0
 10
-38.7083
 20
52.0524
 30
0.0
 10
-38.7083
 20
52.0524
 30
0.0
 10
-34.8563
 20
48.7261
 30
0.0
 10
-34.8563
 20
48.7261
 30
0.0
 10
-34.8563
 20
48.7261
 30
0.0
 10
-34.812
 20
50.9162
 30
0.0
 10
-32.0952
 20
57.169
 30
0.0
 10
-30.9978
 20
59.2138
 30
0.0
 10
-30.9978
 20
59.2138
 30
0.0
 10
-30.1868
 20
60.725
 30
0.0
 10
-29.5549
 20
62.4616
 30
0.0
 10
-28.6408
 20
64.0302
 30
0.0
 10
-28.6408
 20
64.0302
 30
0.0
 10
-28.0926
 20
64.9711
 30
0.0
 10
-26.0031
 20
68.152
 30
0.0
 10
-25.8968
 20
68.7156
 30
0.0
 10
-25.8968
 20
68.7156
 30
0.0
 10
-25.8968
 20
68.7156
 30
0.0
 10
-34.0348
 20
64.2977
 30
0.0
 10
-34.0348
 20
64.2977
 30
0.0
  0
SPLINE
  5
71
330
1F
100
AcDbEntity
  8
Capa 1
100
AcDbSpline
210
0.0
220
0.0
230
1.0
 70
    11
 71
     3
 72
   112
 73
   108
 74
     0
 42
0.0000000001
 43
0.0000000001
 40
0.0
 40
0.0
 40
0.0
 40
0.0
 40
0.037037037037037
 40
0.037037037037037
 40
0.037037037037037
 40
0.037037037037037
 40
0.0740740740740741
 40
0.0740740740740741
 40
0.0740740740740741
 40
0.0740740740740741
 40
0.1111111111111111
 40
0.1111111111111111
 40
0.1111111111111111
 40
0.1111111111111111
 40
0.1481481481481481
 40
0.1481481481481481
 40
0.1481481481481481
 40
0.1481481481481481
 40
0.1851851851851852
 40
0.1851851851851852
 40
0.1851851851851852
 40
0.1851851851851852
 40
0.2222222222222222
 40
0.2222222222222222
 40
0.2222222222222222
 40
0.2222222222222222
 40
0.2592592592592592
 40
0.2592592592592592
 40
0.2592592592592592
 40
0.2592592592592592
 40
0.2962962962962963
 40
0.2962962962962963
 40
0.2962962962962963
 40
0.2962962962962963
 40
0.3333333333333333
 40
0.3333333333333333
 40
0.3333333333333333
 40
0.3333333333333333
 40
0.3703703703703703
 40
0.3703703703703703
 40
0.3703703703703703
 40
0.3703703703703703
 40
0.4074074074074074
 40
0.4074074074074074
 40
0.4074074074074074
 40
0.4074074074074074
 40
0.4444444444444444
 40
0.4444444444444444
 40
0.4444444444444444
 40
0.4444444444444444
 40
0.4814814814814815
 40
0.4814814814814815
 40
0.4814814814814815
 40
0.4814814814814815
 40
0.5185185185185185
 40
0.5185185185185185
 40
0.5185185185185185
 40
0.5185185185185185
 40
0.5555555555555556
 40
0.5555555555555556
 40
0.5555555555555556
 40
0.5555555555555556
 40
0.5925925925925926
 40
0.5925925925925926
 40
0.5925925925925926
 40
0.5925925925925926
 40
0.6296296296296295
 40
0.6296296296296295
 40
0.6296296296296295
 40
0.6296296296296295
 40
0.6666666666666665
 40
0.6666666666666665
 40
0.6666666666666665
 40
0.6666666666666665
 40
0.7037037037037035
 40
0.7037037037037035
 40
0.7037037037037035
 40
0.7037037037037035
 40
0.7407407407407405
 40
0.7407407407407405
 40
0.7407407407407405
 40
0.7407407407407405
 40
0.7777777777777775
 40
0.7777777777777775
 40
0.7777777777777775
 40
0.7777777777777775
 40
0.8148148148148144
 40
0.8148148148148144
 40
0.8148148148148144
 40
0.8148148148148144
 40
0.8518518518518514
 40
0.8518518518518514
 40
0.8518518518518514
 40
0.8518518518518514
 40
0.8888888888888884
 40
0.8888888888888884
 40
0.8888888888888884
 40
0.8888888888888884
 40
0.9259259259259254
 40
0.9259259259259254
 40
0.9259259259259254
 40
0.9259259259259254
 40
0.9629629629629624
 40
0.9629629629629624
 40
0.9629629629629624
 40
0.9629629629629624
 40
1.0
 40
1.0
 40
1.0
 40
1.0
 10
18.7052
 20
40.9464
 30
0.0
 10
18.7052
 20
40.9464
 30
0.0
 10
16.9812
 20
40.8079
 30
0.0
 10
16.9812
 20
40.8079
 30
0.0
 10
16.9812
 20
40.8079
 30
0.0
 10
16.9812
 20
40.8079
 30
0.0
 10
17.1891
 20
41.2986
 30
0.0
 10
17.1891
 20
41.2986
 30
0.0
 10
17.1891
 20
41.2986
 30
0.0
 10
13.6276
 20
41.6808
 30
0.0
 10
9.0144
 20
35.6141
 30
0.0
 10
9.0144
 20
31.9221
 30
0.0
 10
9.0144
 20
31.9221
 30
0.0
 10
9.0144
 20
31.9221
 30
0.0
 10
9.0144
 20
31.5123
 30
0.0
 10
9.0144
 20
31.5123
 30
0.0
 10
9.0144
 20
31.5123
 30
0.0
 10
9.0144
 20
29.2854
 30
0.0
 10
10.3955
 20
25.3687
 30
0.0
 10
13.1144
 20
25.3645
 30
0.0
 10
13.1144
 20
25.3645
 30
0.0
 10
13.2364
 20
25.8705
 30
0.0
 10
13.3194
 20
26.0087
 30
0.0
 10
13.3194
 20
26.5941
 30
0.0
 10
13.3194
 20
26.5941
 30
0.0
 10
13.3194
 20
26.5941
 30
0.0
 10
13.3194
 20
27.2088
 30
0.0
 10
13.3194
 20
27.2088
 30
0.0
 10
13.3194
 20
27.2088
 30
0.0
 10
13.3194
 20
28.7856
 30
0.0
 10
12.2628
 20
30.335
 30
0.0
 10
11.8844
 20
31.7172
 30
0.0
 10
11.8844
 20
31.7172
 30
0.0
 10
11.8844
 20
31.7172
 30
0.0
 10
11.8844
 20
32.127
 30
0.0
 10
11.8844
 20
32.127
 30
0.0
 10
11.8844
 20
32.127
 30
0.0
 10
11.8844
 20
32.127
 30
0.0
 10
11.8844
 20
32.9468
 30
0.0
 10
11.8844
 20
32.9468
 30
0.0
 10
11.8844
 20
32.9468
 30
0.0
 10
13.3704
 20
32.9454
 30
0.0
 10
13.6693
 20
32.127
 30
0.0
 10
15.3694
 20
32.127
 30
0.0
 10
15.3694
 20
32.127
 30
0.0
 10
15.3694
 20
32.127
 30
0.0
 10
16.5995
 20
32.127
 30
0.0
 10
16.5995
 20
32.127
 30
0.0
 10
16.5995
 20
32.127
 30
0.0
 10
18.5551
 20
32.127
 30
0.0
 10
23.1184
 20
34.4954
 30
0.0
 10
23.1596
 20
36.6355
 30
0.0
 10
23.1596
 20
36.6355
 30
0.0
 10
21.1914
 20
35.6388
 30
0.0
 10
19.1065
 20
33.3566
 30
0.0
 10
16.8045
 20
33.3566
 30
0.0
 10
16.8045
 20
33.3566
 30
0.0
 10
14.7074
 20
33.3566
 30
0.0
 10
13.1634
 20
34.994
 30
0.0
 10
12.0894
 20
36.6355
 30
0.0
 10
12.0894
 20
36.6355
 30
0.0
 10
12.5178
 20
38.4029
 30
0.0
 10
13.5839
 20
40.2953
 30
0.0
 10
15.6082
 20
40.2514
 30
0.0
 10
15.6082
 20
40.2514
 30
0.0
 10
15.6082
 20
40.2514
 30
0.0
 10
15.1644
 20
39.2995
 30
0.0
 10
15.1644
 20
39.2995
 30
0.0
 10
15.1644
 20
39.2995
 30
0.0
 10
15.1644
 20
39.2995
 30
0.0
 10
15.1644
 20
38.8897
 30
0.0
 10
15.1644
 20
38.8897
 30
0.0
 10
15.1644
 20
38.8897
 30
0.0
 10
15.1644
 20
38.8897
 30
0.0
 10
15.1644
 20
38.2748
 30
0.0
 10
15.1644
 20
38.2748
 30
0.0
 10
15.1644
 20
38.2748
 30
0.0
 10
15.1644
 20
36.496
 30
0.0
 10
16.7525
 20
35.9197
 30
0.0
 10
18.2195
 20
36.2447
 30
0.0
 10
18.2195
 20
36.2447
 30
0.0
 10
18.2195
 20
36.2447
 30
0.0
 10
19.0595
 20
37.0453
 30
0.0
 10
19.0595
 20
37.0453
 30
0.0
 10
19.0595
 20
37.0453
 30
0.0
 10
19.3315
 20
37.6329
 30
0.0
 10
19.4695
 20
38.005
 30
0.0
 10
19.4695
 20
38.6847
 30
0.0
 10
19.4695
 20
38.6847
 30
0.0
 10
19.4695
 20
38.6847
 30
0.0
 10
19.4985
 20
39.3036
 30
0.0
 10
19.4985
 20
39.3036
 30
0.0
 10
19.4985
 20
39.3036
 30
0.0
 10
19.4985
 20
39.3036
 30
0.0
 10
19.3993
 20
40.5993
 30
0.0
 10
19.3993
 20
40.5993
 30
0.0
 10
19.3993
 20
40.5993
 30
0.0
 10
20.8916
 20
41.0657
 30
0.0
 10
22.9499
 20
38.5739
 30
0.0
 10
24.1846
 20
38.2748
 30
0.0
 10
24.1846
 20
38.2748
 30
0.0
 10
23.0967
 20
40.4731
 30
0.0
 10
20.1744
 20
41.792
 30
0.0
 10
17.6447
 20
41.4814
 30
0.0
 10
17.6447
 20
41.4814
 30
0.0
 10
17.6447
 20
41.4814
 30
0.0
 10
18.7052
 20
40.9464
 30
0.0
 10
18.7052
 20
40.9464
 30
0.0
  0
SPLINE
  5
72
330
1F
100
AcDbEntity
  8
Capa 1
100
AcDbSpline
210
0.0
220
0.0
230
1.0
 70
    11
 71
     3
 72
    40
 73
    36
 74
     0
 42
0.0000000001
 43
0.0000000001
 40
0.0
 40
0.0
 40
0.0
 40
0.0
 40
0.1111111111111111
 40
0.1111111111111111
 40
0.1111111111111111
 40
0.1111111111111111
 40
0.2222222222222222
 40
0.2222222222222222
 40
0.2222222222222222
 40
0.2222222222222222
 40
0.3333333333333333
 40
0.3333333333333333
 40
0.3333333333333333
 40
0.3333333333333333
 40
0.4444444444444444
 40
0.4444444444444444
 40
0.4444444444444444
 40
0.4444444444444444
 40
0.5555555555555556
 40
0.5555555555555556
 40
0.5555555555555556
 40
0.5555555555555556
 40
0.6666666666666667
 40
0.6666666666666667
 40
0.6666666666666667
 40
0.6666666666666667
 40
0.7777777777777779
 40
0.7777777777777779
 40
0.7777777777777779
 40
0.7777777777777779
 40
0.8888888888888891
 40
0.8888888888888891
 40
0.8888888888888891
 40
0.8888888888888891
 40
1.0
 40
1.0
 40
1.0
 40
1.0
 10
8.8094
 20
38.0699
 30
0.0
 10
10.4711
 20
39.1521
 30
0.0
 10
13.3721
 20
43.0731
 30
0.0
 10
13.906
 20
44.8609
 30
0.0
 10
13.906
 20
44.8609
 30
0.0
 10
14.6818
 20
47.4593
 30
0.0
 10
16.7628
 20
50.4723
 30
0.0
 10
17.6303
 20
53.2286
 30
0.0
 10
17.6303
 20
53.2286
 30
0.0
 10
19.0138
 20
57.624
 30
0.0
 10
16.1851
 20
57.9813
 30
0.0
 10
14.1759
 20
61.0581
 30
0.0
 10
14.1759
 20
61.0581
 30
0.0
 10
12.8427
 20
63.0999
 30
0.0
 10
11.2407
 20
66.9705
 30
0.0
 10
9.5533
 20
68.4647
 30
0.0
 10
9.5533
 20
68.4647
 30
0.0
 10
9.5533
 20
68.4647
 30
0.0
 10
4.4555
 20
69.6176
 30
0.0
 10
4.4555
 20
69.6176
 30
0.0
 10
4.4555
 20
69.6176
 30
0.0
 10
4.4555
 20
69.6176
 30
0.0
 10
4.5043
 20
69.8335
 30
0.0
 10
4.5043
 20
69.8335
 30
0.0
 10
4.5043
 20
69.8335
 30
0.0
 10
4.7343
 20
67.1572
 30
0.0
 10
15.5457
 20
61.2975
 30
0.0
 10
14.7117
 20
56.1476
 30
0.0
 10
14.7117
 20
56.1476
 30
0.0
 10
14.1697
 20
52.8011
 30
0.0
 10
14.1189
 20
48.7882
 30
0.0
 10
13.3218
 20
45.6498
 30
0.0
 10
13.3218
 20
45.6498
 30
0.0
 10
12.2762
 20
41.5331
 30
0.0
 10
9.3332
 20
40.232
 30
0.0
 10
8.8094
 20
38.0699
 30
0.0
  0
SPLINE
  5
73
330
1F
100
AcDbEntity
  8
Capa 1
100
AcDbSpline
210
0.0
220
0.0
230
1.0
 70
    11
 71
     3
 72
    48
 73
    44
 74
     0
 42
0.0000000001
 43
0.0000000001
 40
0.0
 40
0.0
 40
0.0
 40
0.0
 40
0.0909090909090909
 40
0.0909090909090909
 40
0.0909090909090909
 40
0.0909090909090909
 40
0.1818181818181818
 40
0.1818181818181818
 40
0.1818181818181818
 40
0.1818181818181818
 40
0.2727272727272727
 40
0.2727272727272727
 40
0.2727272727272727
 40
0.2727272727272727
 40
0.3636363636363636
 40
0.3636363636363636
 40
0.3636363636363636
 40
0.3636363636363636
 40
0.4545454545454546
 40
0.4545454545454546
 40
0.4545454545454546
 40
0.4545454545454546
 40
0.5454545454545455
 40
0.5454545454545455
 40
0.5454545454545455
 40
0.5454545454545455
 40
0.6363636363636365
 40
0.6363636363636365
 40
0.6363636363636365
 40
0.6363636363636365
 40
0.7272727272727274
 40
0.7272727272727274
 40
0.7272727272727274
 40
0.7272727272727274
 40
0.8181818181818183
 40
0.8181818181818183
 40
0.8181818181818183
 40
0.8181818181818183
 40
0.9090909090909093
 40
0.9090909090909093
 40
0.9090909090909093
 40
0.9090909090909093
 40
1.0
 40
1.0
 40
1.0
 40
1.0
 10
-53.1016
 20
51.8
 30
0.0
 10
-53.1016
 20
51.8
 30
0.0
 10
-53.1016
 20
50.9802
 30
0.0
 10
-53.1016
 20
50.9802
 30
0.0
 10
-53.1016
 20
50.9802
 30
0.0
 10
-53.1016
 20
48.1447
 30
0.0
 10
-54.165
 20
46.1285
 30
0.0
 10
-57.184
 20
45.8044
 30
0.0
 10
-57.184
 20
45.8044
 30
0.0
 10
-55.3834
 20
44.9663
 30
0.0
 10
-50.8636
 20
45.9633
 30
0.0
 10
-47.9765
 20
44.6276
 30
0.0
 10
-47.9765
 20
44.6276
 30
0.0
 10
-48.0029
 20
44.7251
 30
0.0
 10
-49.9374
 20
47.6375
 30
0.0
 10
-50.3575
 20
48.6001
 30
0.0
 10
-50.3575
 20
48.6001
 30
0.0
 10
-50.9759
 20
50.0169
 30
0.0
 10
-51.6665
 20
52.1073
 30
0.0
 10
-51.6665
 20
53.8492
 30
0.0
 10
-51.6665
 20
53.8492
 30
0.0
 10
-51.6665
 20
53.8492
 30
0.0
 10
-51.6665
 20
55.4887
 30
0.0
 10
-51.6665
 20
55.4887
 30
0.0
 10
-51.6665
 20
55.4887
 30
0.0
 10
-51.6665
 20
57.6359
 30
0.0
 10
-50.0258
 20
60.8296
 30
0.0
 10
-48.7817
 20
62.4412
 30
0.0
 10
-48.7817
 20
62.4412
 30
0.0
 10
-48.3758
 20
62.967
 30
0.0
 10
-44.5946
 20
67.808
 30
0.0
 10
-44.4915
 20
68.194
 30
0.0
 10
-44.4915
 20
68.194
 30
0.0
 10
-45.1648
 20
67.9836
 30
0.0
 10
-51.935
 20
62.4746
 30
0.0
 10
-52.7082
 20
61.653
 30
0.0
 10
-52.7082
 20
61.653
 30
0.0
 10
-53.9088
 20
60.3773
 30
0.0
 10
-56.263
 20
59.2524
 30
0.0
 10
-54.6877
 20
57.5918
 30
0.0
 10
-54.6877
 20
57.5918
 30
0.0
 10
-53.588
 20
56.4325
 30
0.0
 10
-53.1016
 20
53.3426
 30
0.0
 10
-53.1016
 20
51.8
 30
0.0
  0
SPLINE
  5
74
330
1F
100
AcDbEntity
  8
Capa 1
100
AcDbSpline
210
0.0
220
0.0
230
1.0
 70
    11
 71
     3
 72
    28
 73
    24
 74
     0
 42
0.0000000001
 43
0.0000000001
 40
0.0
 40
0.0
 40
0.0
 40
0.0
 40
0.1666666666666667
 40
0.1666666666666667
 40
0.1666666666666667
 40
0.1666666666666667
 40
0.3333333333333333
 40
0.3333333333333333
 40
0.3333333333333333
 40
0.3333333333333333
 40
0.5
 40
0.5
 40
0.5
 40
0.5
 40
0.6666666666666666
 40
0.6666666666666666
 40
0.6666666666666666
 40
0.6666666666666666
 40
0.8333333333333333
 40
0.8333333333333333
 40
0.8333333333333333
 40
0.8333333333333333
 40
1.0
 40
1.0
 40
1.0
 40
1.0
 10
-39.2162
 20
-89.5441
 30
0.0
 10
-41.3391
 20
-90.5638
 30
0.0
 10
-43.8457
 20
-101.1532
 30
0.0
 10
-43.6301
 20
-103.4927
 30
0.0
 10
-43.6301
 20
-103.4927
 30
0.0
 10
-42.8435
 20
-102.2369
 30
0.0
 10
-41.5018
 20
-97.6321
 30
0.0
 10
-40.5315
 20
-95.6067
 30
0.0
 10
-40.5315
 20
-95.6067
 30
0.0
 10
-39.0811
 20
-92.5791
 30
0.0
 10
-37.8949
 20
-91.516
 30
0.0
 10
-36.204
 20
-88.8665
 30
0.0
 10
-36.204
 20
-88.8665
 30
0.0
 10
-35.1089
 20
-87.1506
 30
0.0
 10
-25.4289
 20
-77.3136
 30
0.0
 10
-25.4262
 20
-77.3035
 30
0.0
 10
-25.4262
 20
-77.3035
 30
0.0
 10
-27.8966
 20
-79.1966
 30
0.0
 10
-30.656
 20
-79.8177
 30
0.0
 10
-33.2984
 20
-82.3445
 30
0.0
 10
-33.2984
 20
-82.3445
 30
0.0
 10
-34.8458
 20
-83.8242
 30
0.0
 10
-38.9191
 20
-87.5318
 30
0.0
 10
-39.2162
 20
-89.5441
 30
0.0
  0
SPLINE
  5
75
330
1F
100
AcDbEntity
  8
Capa 1
100
AcDbSpline
210
0.0
220
0.0
230
1.0
 70
    11
 71
     3
 72
    20
 73
    16
 74
     0
 42
0.0000000001
 43
0.0000000001
 40
0.0
 40
0.0
 40
0.0
 40
0.0
 40
0.25
 40
0.25
 40
0.25
 40
0.25
 40
0.5
 40
0.5
 40
0.5
 40
0.5
 40
0.75
 40
0.75
 40
0.75
 40
0.75
 40
1.0
 40
1.0
 40
1.0
 40
1.0
 10
22.52
 20
90.0966
 30
0.0
 10
22.52
 20
90.0966
 30
0.0
 10
28.0796
 20
88.4817
 30
0.0
 10
28.0796
 20
88.4817
 30
0.0
 10
28.0796
 20
88.4817
 30
0.0
 10
26.2608
 20
90.0942
 30
0.0
 10
19.8921
 20
92.7679
 30
0.0
 10
17.0989
 20
93.6942
 30
0.0
 10
17.0989
 20
93.6942
 30
0.0
 10
12.8049
 20
95.1184
 30
0.0
 10
8.0965
 20
96.0696
 30
0.0
 10
3.2743
 20
96.064
 30
0.0
 10
3.2743
 20
96.064
 30
0.0
 10
4.7886
 20
90.3842
 30
0.0
 10
19.6255
 20
92.4175
 30
0.0
 10
22.52
 20
90.0966
 30
0.0
  0
SPLINE
  5
76
330
1F
100
AcDbEntity
  8
Capa 1
100
AcDbSpline
210
0.0
220
0.0
230
1.0
 70
    11
 71
     3
 72
    84
 73
    80
 74
     0
 42
0.0000000001
 43
0.0000000001
 40
0.0
 40
0.0
 40
0.0
 40
0.0
 40
0.05
 40
0.05
 40
0.05
 40
0.05
 40
0.1
 40
0.1
 40
0.1
 40
0.1
 40
0.15
 40
0.15
 40
0.15
 40
0.15
 40
0.2
 40
0.2
 40
0.2
 40
0.2
 40
0.25
 40
0.25
 40
0.25
 40
0.25
 40
0.3
 40
0.3
 40
0.3
 40
0.3
 40
0.35
 40
0.35
 40
0.35
 40
0.35
 40
0.4
 40
0.4
 40
0.4
 40
0.4
 40
0.45
 40
0.45
 40
0.45
 40
0.45
 40
0.4999999999999999
 40
0.4999999999999999
 40
0.4999999999999999
 40
0.4999999999999999
 40
0.5499999999999999
 40
0.5499999999999999
 40
0.5499999999999999
 40
0.5499999999999999
 40
0.6
 40
0.6
 40
0.6
 40
0.6
 40
0.65
 40
0.65
 40
0.65
 40
0.65
 40
0.7000000000000001
 40
0.7000000000000001
 40
0.7000000000000001
 40
0.7000000000000001
 40
0.7500000000000001
 40
0.7500000000000001
 40
0.7500000000000001
 40
0.7500000000000001
 40
0.8000000000000002
 40
0.8000000000000002
 40
0.8000000000000002
 40
0.8000000000000002
 40
0.8500000000000002
 40
0.8500000000000002
 40
0.8500000000000002
 40
0.8500000000000002
 40
0.9000000000000002
 40
0.9000000000000002
 40
0.9000000000000002
 40
0.9000000000000002
 40
0.9500000000000003
 40
0.9500000000000003
 40
0.9500000000000003
 40
0.9500000000000003
 40
1.0
 40
1.0
 40
1.0
 40
1.0
 10
-33.6263
 20
43.1931
 30
0.0
 10
-33.6263
 20
43.1931
 30
0.0
 10
-33.6263
 20
42.9881
 30
0.0
 10
-33.6263
 20
42.9881
 30
0.0
 10
-33.6263
 20
42.9881
 30
0.0
 10
-32.9598
 20
41.9812
 30
0.0
 10
-31.7223
 20
41.2047
 30
0.0
 10
-31.7724
 20
39.709
 30
0.0
 10
-31.7724
 20
39.709
 30
0.0
 10
-31.7724
 20
39.709
 30
0.0
 10
-31.834
 20
38.9423
 30
0.0
 10
-31.834
 20
38.9423
 30
0.0
 10
-31.834
 20
38.9423
 30
0.0
 10
-32.9753
 20
37.7854
 30
0.0
 10
-34.7295
 20
36.2255
 30
0.0
 10
-36.4963
 20
36.2255
 30
0.0
 10
-36.4963
 20
36.2255
 30
0.0
 10
-36.4963
 20
36.2255
 30
0.0
 10
-36.9968
 20
36.0801
 30
0.0
 10
-36.9968
 20
36.0801
 30
0.0
 10
-36.9968
 20
36.0801
 30
0.0
 10
-36.9968
 20
36.0801
 30
0.0
 10
-42.6464
 20
39.5044
 30
0.0
 10
-42.6464
 20
39.5044
 30
0.0
 10
-42.6464
 20
39.5044
 30
0.0
 10
-42.6081
 20
37.7683
 30
0.0
 10
-38.5117
 20
35.201
 30
0.0
 10
-36.7013
 20
35.201
 30
0.0
 10
-36.7013
 20
35.201
 30
0.0
 10
-36.7013
 20
35.201
 30
0.0
 10
-34.4463
 20
35.201
 30
0.0
 10
-34.4463
 20
35.201
 30
0.0
 10
-34.4463
 20
35.201
 30
0.0
 10
-33.3026
 20
35.201
 30
0.0
 10
-33.0342
 20
35.5851
 30
0.0
 10
-32.1913
 20
35.8157
 30
0.0
 10
-32.1913
 20
35.8157
 30
0.0
 10
-32.1913
 20
35.8157
 30
0.0
 10
-31.3712
 20
35.8157
 30
0.0
 10
-31.3712
 20
35.8157
 30
0.0
 10
-31.3712
 20
35.8157
 30
0.0
 10
-31.3712
 20
35.8157
 30
0.0
 10
-31.3712
 20
35.201
 30
0.0
 10
-31.3712
 20
35.201
 30
0.0
 10
-31.3712
 20
35.201
 30
0.0
 10
-31.3712
 20
33.6038
 30
0.0
 10
-33.0112
 20
31.6194
 30
0.0
 10
-33.0112
 20
29.8729
 30
0.0
 10
-33.0112
 20
29.8729
 30
0.0
 10
-33.0112
 20
29.8729
 30
0.0
 10
-33.0201
 20
29.6676
 30
0.0
 10
-33.0201
 20
29.6676
 30
0.0
 10
-33.0201
 20
29.6676
 30
0.0
 10
-33.0201
 20
29.6676
 30
0.0
 10
-32.9519
 20
28.9065
 30
0.0
 10
-32.9519
 20
28.9065
 30
0.0
 10
-32.9519
 20
28.9065
 30
0.0
 10
-32.9519
 20
28.9065
 30
0.0
 10
-32.6012
 20
28.4384
 30
0.0
 10
-32.6012
 20
28.4384
 30
0.0
 10
-32.6012
 20
28.4384
 30
0.0
 10
-30.0391
 20
28.4414
 30
0.0
 10
-28.5012
 20
32.1169
 30
0.0
 10
-28.5012
 20
34.1763
 30
0.0
 10
-28.5012
 20
34.1763
 30
0.0
 10
-28.5012
 20
34.1763
 30
0.0
 10
-28.5012
 20
34.9961
 30
0.0
 10
-28.5012
 20
34.9961
 30
0.0
 10
-28.5012
 20
34.9961
 30
0.0
 10
-28.5012
 20
37.4321
 30
0.0
 10
-29.8712
 20
38.6392
 30
0.0
 10
-30.9136
 20
40.6685
 30
0.0
 10
-30.9136
 20
40.6685
 30
0.0
 10
-30.9136
 20
40.6685
 30
0.0
 10
-31.5496
 20
40.5556
 30
0.0
 10
-31.5496
 20
40.5556
 30
0.0
 10
-31.5496
 20
40.5556
 30
0.0
 10
-31.367
 20
41.6795
 30
0.0
 10
-32.6069
 20
42.5265
 30
0.0
 10
-33.6263
 20
43.1931
 30
0.0
  0
SPLINE
  5
77
330
1F
100
AcDbEntity
  8
Capa 1
100
AcDbSpline
210
0.0
220
0.0
230
1.0
 70
    11
 71
     3
 72
    44
 73
    40
 74
     0
 42
0.0000000001
 43
0.0000000001
 40
0.0
 40
0.0
 40
0.0
 40
0.0
 40
0.1
 40
0.1
 40
0.1
 40
0.1
 40
0.2
 40
0.2
 40
0.2
 40
0.2
 40
0.3
 40
0.3
 40
0.3
 40
0.3
 40
0.4
 40
0.4
 40
0.4
 40
0.4
 40
0.5
 40
0.5
 40
0.5
 40
0.5
 40
0.6
 40
0.6
 40
0.6
 40
0.6
 40
0.7
 40
0.7
 40
0.7
 40
0.7
 40
0.7999999999999999
 40
0.7999999999999999
 40
0.7999999999999999
 40
0.7999999999999999
 40
0.8999999999999999
 40
0.8999999999999999
 40
0.8999999999999999
 40
0.8999999999999999
 40
1.0
 40
1.0
 40
1.0
 40
1.0
 10
-14.5855
 20
80.4651
 30
0.0
 10
-16.4275
 20
81.9497
 30
0.0
 10
-17.4928
 20
81.9976
 30
0.0
 10
-19.6575
 20
81.0758
 30
0.0
 10
-19.6575
 20
81.0758
 30
0.0
 10
-20.9849
 20
80.5105
 30
0.0
 10
-23.4323
 20
79.5284
 30
0.0
 10
-24.4854
 20
78.9344
 30
0.0
 10
-24.4854
 20
78.9344
 30
0.0
 10
-26.1951
 20
77.9702
 30
0.0
 10
-33.8494
 20
75.7358
 30
0.0
 10
-33.6962
 20
74.4185
 30
0.0
 10
-33.6962
 20
74.4185
 30
0.0
 10
-33.6962
 20
74.4185
 30
0.0
 10
-32.8063
 20
74.3418
 30
0.0
 10
-32.8063
 20
74.3418
 30
0.0
 10
-32.8063
 20
74.3418
 30
0.0
 10
-28.115
 20
73.7908
 30
0.0
 10
-19.4003
 20
80.0798
 30
0.0
 10
-15.381
 20
80.0798
 30
0.0
 10
-15.381
 20
80.0798
 30
0.0
 10
-15.381
 20
80.0798
 30
0.0
 10
-15.176
 20
80.0798
 30
0.0
 10
-15.176
 20
80.0798
 30
0.0
 10
-15.176
 20
80.0798
 30
0.0
 10
-12.9416
 20
80.0798
 30
0.0
 10
-13.0247
 20
78.8575
 30
0.0
 10
-10.7147
 20
79.1039
 30
0.0
 10
-10.7147
 20
79.1039
 30
0.0
 10
-9.4249
 20
80.5181
 30
0.0
 10
-8.7731
 20
82.1335
 30
0.0
 10
-8.8149
 20
84.1784
 30
0.0
 10
-8.8149
 20
84.1784
 30
0.0
 10
-8.8149
 20
84.1784
 30
0.0
 10
-8.8561
 20
84.9628
 30
0.0
 10
-8.8561
 20
84.9628
 30
0.0
 10
-8.8561
 20
84.9628
 30
0.0
 10
-10.6245
 20
82.9987
 30
0.0
 10
-11.2987
 20
80.6177
 30
0.0
 10
-14.5855
 20
80.4651
 30
0.0
  0
SPLINE
  5
78
330
1F
100
AcDbEntity
  8
Capa 1
100
AcDbSpline
210
0.0
220
0.0
230
1.0
 70
    11
 71
     3
 72
    40
 73
    36
 74
     0
 42
0.0000000001
 43
0.0000000001
 40
0.0
 40
0.0
 40
0.0
 40
0.0
 40
0.1111111111111111
 40
0.1111111111111111
 40
0.1111111111111111
 40
0.1111111111111111
 40
0.2222222222222222
 40
0.2222222222222222
 40
0.2222222222222222
 40
0.2222222222222222
 40
0.3333333333333333
 40
0.3333333333333333
 40
0.3333333333333333
 40
0.3333333333333333
 40
0.4444444444444444
 40
0.4444444444444444
 40
0.4444444444444444
 40
0.4444444444444444
 40
0.5555555555555556
 40
0.5555555555555556
 40
0.5555555555555556
 40
0.5555555555555556
 40
0.6666666666666667
 40
0.6666666666666667
 40
0.6666666666666667
 40
0.6666666666666667
 40
0.7777777777777779
 40
0.7777777777777779
 40
0.7777777777777779
 40
0.7777777777777779
 40
0.8888888888888891
 40
0.8888888888888891
 40
0.8888888888888891
 40
0.8888888888888891
 40
1.0
 40
1.0
 40
1.0
 40
1.0
 10
-20.9161
 20
-42.0562
 30
0.0
 10
-20.9161
 20
-42.0562
 30
0.0
 10
-17.226
 20
-42.466
 30
0.0
 10
-17.226
 20
-42.466
 30
0.0
 10
-17.226
 20
-42.466
 30
0.0
 10
-16.3455
 20
-42.7069
 30
0.0
 10
-14.8288
 20
-43.3321
 30
0.0
 10
-14.4828
 20
-44.3088
 30
0.0
 10
-14.4828
 20
-44.3088
 30
0.0
 10
-14.4828
 20
-44.3088
 30
0.0
 10
-14.356
 20
-53.7369
 30
0.0
 10
-14.356
 20
-53.7369
 30
0.0
 10
-14.356
 20
-53.7369
 30
0.0
 10
-13.3617
 20
-52.1705
 30
0.0
 10
-14.4802
 20
-45.9409
 30
0.0
 10
-12.0482
 20
-43.4532
 30
0.0
 10
-12.0482
 20
-43.4532
 30
0.0
 10
-12.0482
 20
-43.4532
 30
0.0
 10
-9.4359
 20
-43.4906
 30
0.0
 10
-9.4359
 20
-43.4906
 30
0.0
 10
-9.4359
 20
-43.4906
 30
0.0
 10
-9.4375
 20
-41.7204
 30
0.0
 10
-11.0696
 20
-41.3669
 30
0.0
 10
-12.2534
 20
-40.3643
 30
0.0
 10
-12.2534
 20
-40.3643
 30
0.0
 10
-13.5073
 20
-39.3022
 30
0.0
 10
-14.238
 20
-38.2034
 30
0.0
 10
-15.176
 20
-37.1379
 30
0.0
 10
-15.176
 20
-37.1379
 30
0.0
 10
-16.3565
 20
-37.4725
 30
0.0
 10
-17.5478
 20
-38.5643
 30
0.0
 10
-18.3754
 20
-39.2678
 30
0.0
 10
-18.3754
 20
-39.2678
 30
0.0
 10
-19.8278
 20
-40.5024
 30
0.0
 10
-20.9142
 20
-39.9117
 30
0.0
 10
-20.9161
 20
-42.0562
 30
0.0
  0
SPLINE
  5
79
330
1F
100
AcDbEntity
  8
Capa 1
100
AcDbSpline
210
0.0
220
0.0
230
1.0
 70
    11
 71
     3
 72
    48
 73
    44
 74
     0
 42
0.0000000001
 43
0.0000000001
 40
0.0
 40
0.0
 40
0.0
 40
0.0
 40
0.0909090909090909
 40
0.0909090909090909
 40
0.0909090909090909
 40
0.0909090909090909
 40
0.1818181818181818
 40
0.1818181818181818
 40
0.1818181818181818
 40
0.1818181818181818
 40
0.2727272727272727
 40
0.2727272727272727
 40
0.2727272727272727
 40
0.2727272727272727
 40
0.3636363636363636
 40
0.3636363636363636
 40
0.3636363636363636
 40
0.3636363636363636
 40
0.4545454545454546
 40
0.4545454545454546
 40
0.4545454545454546
 40
0.4545454545454546
 40
0.5454545454545455
 40
0.5454545454545455
 40
0.5454545454545455
 40
0.5454545454545455
 40
0.6363636363636365
 40
0.6363636363636365
 40
0.6363636363636365
 40
0.6363636363636365
 40
0.7272727272727274
 40
0.7272727272727274
 40
0.7272727272727274
 40
0.7272727272727274
 40
0.8181818181818183
 40
0.8181818181818183
 40
0.8181818181818183
 40
0.8181818181818183
 40
0.9090909090909093
 40
0.9090909090909093
 40
0.9090909090909093
 40
0.9090909090909093
 40
1.0
 40
1.0
 40
1.0
 40
1.0
 10
-29.0076
 20
-6.9695
 30
0.0
 10
-27.9657
 20
-6.9786
 30
0.0
 10
-27.3412
 20
-5.8968
 30
0.0
 10
-25.0958
 20
-6.2747
 30
0.0
 10
-25.0958
 20
-6.2747
 30
0.0
 10
-23.4606
 20
-6.55
 30
0.0
 10
-23.0225
 20
-6.9191
 30
0.0
 10
-21.6337
 20
-7.7312
 30
0.0
 10
-21.6337
 20
-7.7312
 30
0.0
 10
-19.7067
 20
-8.8583
 30
0.0
 10
-16.551
 20
-10.9149
 30
0.0
 10
-14.2877
 20
-10.1563
 30
0.0
 10
-14.2877
 20
-10.1563
 30
0.0
 10
-11.1974
 20
-9.1204
 30
0.0
 10
-10.2443
 20
-8.2562
 30
0.0
 10
-7.5582
 20
-7.0465
 30
0.0
 10
-7.5582
 20
-7.0465
 30
0.0
 10
-2.2183
 20
-4.6415
 30
0.0
 10
-3.1774
 20
-7.3399
 30
0.0
 10
-0.9207
 20
-8.818
 30
0.0
 10
-0.9207
 20
-8.818
 30
0.0
 10
-0.9207
 20
-8.818
 30
0.0
 10
-0.8722
 20
-6.6503
 30
0.0
 10
-0.8722
 20
-6.6503
 30
0.0
 10
-0.8722
 20
-6.6503
 30
0.0
 10
-2.8008
 20
-5.2637
 30
0.0
 10
-2.2825
 20
-5.3744
 30
0.0
 10
-4.9258
 20
-5.3744
 30
0.0
 10
-4.9258
 20
-5.3744
 30
0.0
 10
-9.236
 20
-5.3744
 30
0.0
 10
-11.8474
 20
-7.6286
 30
0.0
 10
-16.201
 20
-7.6286
 30
0.0
 10
-16.201
 20
-7.6286
 30
0.0
 10
-16.201
 20
-7.6286
 30
0.0
 10
-16.406
 20
-7.6286
 30
0.0
 10
-16.406
 20
-7.6286
 30
0.0
 10
-16.406
 20
-7.6286
 30
0.0
 10
-19.4225
 20
-7.6286
 30
0.0
 10
-20.5925
 20
-6.8838
 30
0.0
 10
-23.2065
 20
-5.6146
 30
0.0
 10
-23.2065
 20
-5.6146
 30
0.0
 10
-25.152
 20
-4.6701
 30
0.0
 10
-28.6618
 20
-4.3325
 30
0.0
 10
-29.0076
 20
-6.9695
 30
0.0
  0
SPLINE
  5
7A
330
1F
100
AcDbEntity
  8
Capa 1
100
AcDbSpline
210
0.0
220
0.0
230
1.0
 70
    11
 71
     3
 72
    52
 73
    48
 74
     0
 42
0.0000000001
 43
0.0000000001
 40
0.0
 40
0.0
 40
0.0
 40
0.0
 40
0.0833333333333333
 40
0.0833333333333333
 40
0.0833333333333333
 40
0.0833333333333333
 40
0.1666666666666667
 40
0.1666666666666667
 40
0.1666666666666667
 40
0.1666666666666667
 40
0.25
 40
0.25
 40
0.25
 40
0.25
 40
0.3333333333333333
 40
0.3333333333333333
 40
0.3333333333333333
 40
0.3333333333333333
 40
0.4166666666666666
 40
0.4166666666666666
 40
0.4166666666666666
 40
0.4166666666666666
 40
0.4999999999999999
 40
0.4999999999999999
 40
0.4999999999999999
 40
0.4999999999999999
 40
0.5833333333333333
 40
0.5833333333333333
 40
0.5833333333333333
 40
0.5833333333333333
 40
0.6666666666666666
 40
0.6666666666666666
 40
0.6666666666666666
 40
0.6666666666666666
 40
0.75
 40
0.75
 40
0.75
 40
0.75
 40
0.8333333333333334
 40
0.8333333333333334
 40
0.8333333333333334
 40
0.8333333333333334
 40
0.9166666666666667
 40
0.9166666666666667
 40
0.9166666666666667
 40
0.9166666666666667
 40
1.0
 40
1.0
 40
1.0
 40
1.0
 10
17.4638
 20
28.7969
 30
0.0
 10
18.1138
 20
27.8186
 30
0.0
 10
20.328
 20
27.2088
 30
0.0
 10
21.5196
 20
27.2088
 30
0.0
 10
21.5196
 20
27.2088
 30
0.0
 10
22.9544
 20
27.2088
 30
0.0
 10
28.1234
 20
29.4419
 30
0.0
 10
29.2335
 20
30.4157
 30
0.0
 10
29.2335
 20
30.4157
 30
0.0
 10
29.2335
 20
30.4157
 30
0.0
 10
25.6196
 20
29.8729
 30
0.0
 10
25.6196
 20
29.8729
 30
0.0
 10
25.6196
 20
29.8729
 30
0.0
 10
25.6196
 20
29.8729
 30
0.0
 10
25.4146
 20
29.8729
 30
0.0
 10
25.4146
 20
29.8729
 30
0.0
 10
25.4146
 20
29.8729
 30
0.0
 10
24.5844
 20
29.8729
 30
0.0
 10
24.6753
 20
29.8478
 30
0.0
 10
24.1846
 20
30.2827
 30
0.0
 10
24.1846
 20
30.2827
 30
0.0
 10
24.5989
 20
31.9921
 30
0.0
 10
26.5606
 20
31.8493
 30
0.0
 10
27.1073
 20
33.1341
 30
0.0
 10
27.1073
 20
33.1341
 30
0.0
 10
27.7947
 20
32.8179
 30
0.0
 10
29.1598
 20
33.8478
 30
0.0
 10
30.0092
 20
34.0918
 30
0.0
 10
30.0092
 20
34.0918
 30
0.0
 10
31.5342
 20
34.5299
 30
0.0
 10
31.8496
 20
34.6525
 30
0.0
 10
33.5971
 20
34.8438
 30
0.0
 10
33.5971
 20
34.8438
 30
0.0
 10
32.2314
 20
35.892
 30
0.0
 10
30.7546
 20
36.6302
 30
0.0
 10
28.8837
 20
36.6366
 30
0.0
 10
28.8837
 20
36.6366
 30
0.0
 10
28.3289
 20
35.9496
 30
0.0
 10
24.7206
 20
33.1104
 30
0.0
 10
23.725
 20
32.1766
 30
0.0
 10
23.725
 20
32.1766
 30
0.0
 10
23.0069
 20
31.5032
 30
0.0
 10
21.8432
 20
30.5842
 30
0.0
 10
21.0146
 20
30.1727
 30
0.0
 10
21.0146
 20
30.1727
 30
0.0
 10
20.1907
 20
29.7636
 30
0.0
 10
17.7393
 20
28.9896
 30
0.0
 10
17.4638
 20
28.7969
 30
0.0
  0
SPLINE
  5
7B
330
1F
100
AcDbEntity
  8
Capa 1
100
AcDbSpline
210
0.0
220
0.0
230
1.0
 70
    11
 71
     3
 72
    44
 73
    40
 74
     0
 42
0.0000000001
 43
0.0000000001
 40
0.0
 40
0.0
 40
0.0
 40
0.0
 40
0.1
 40
0.1
 40
0.1
 40
0.1
 40
0.2
 40
0.2
 40
0.2
 40
0.2
 40
0.3
 40
0.3
 40
0.3
 40
0.3
 40
0.4
 40
0.4
 40
0.4
 40
0.4
 40
0.5
 40
0.5
 40
0.5
 40
0.5
 40
0.6
 40
0.6
 40
0.6
 40
0.6
 40
0.7
 40
0.7
 40
0.7
 40
0.7
 40
0.7999999999999999
 40
0.7999999999999999
 40
0.7999999999999999
 40
0.7999999999999999
 40
0.8999999999999999
 40
0.8999999999999999
 40
0.8999999999999999
 40
0.8999999999999999
 40
1.0
 40
1.0
 40
1.0
 40
1.0
 10
4.5043
 20
-51.4828
 30
0.0
 10
4.1541
 20
-50.0378
 30
0.0
 10
2.9025
 20
-48.5608
 30
0.0
 10
1.4292
 20
-48.2039
 30
0.0
 10
1.4292
 20
-48.2039
 30
0.0
 10
0.1582
 20
-49.0277
 30
0.0
 10
-0.4143
 20
-50.4306
 30
0.0
 10
-0.3585
 20
-52.1288
 30
0.0
 10
-0.3585
 20
-52.1288
 30
0.0
 10
-0.3585
 20
-52.1288
 30
0.0
 10
-0.765
 20
-53.1301
 30
0.0
 10
-0.765
 20
-53.1301
 30
0.0
 10
-0.765
 20
-53.1301
 30
0.0
 10
-0.765
 20
-53.1301
 30
0.0
 10
-2.6708
 20
-67.8768
 30
0.0
 10
-2.6708
 20
-67.8768
 30
0.0
 10
-2.6708
 20
-67.8768
 30
0.0
 10
-2.1782
 20
-67.6939
 30
0.0
 10
-0.7647
 20
-65.9224
 30
0.0
 10
-0.4135
 20
-65.2151
 30
0.0
 10
-0.4135
 20
-65.2151
 30
0.0
 10
0.2496
 20
-63.8797
 30
0.0
 10
0.223
 20
-62.6592
 30
0.0
 10
0.4485
 20
-61.1585
 30
0.0
 10
0.4485
 20
-61.1585
 30
0.0
 10
0.7793
 20
-58.957
 30
0.0
 10
1.2934
 20
-54.066
 30
0.0
 10
1.1998
 20
-51.8692
 30
0.0
 10
1.1998
 20
-51.8692
 30
0.0
 10
1.1998
 20
-51.8692
 30
0.0
 10
2.4694
 20
-49.5321
 30
0.0
 10
2.4694
 20
-49.5321
 30
0.0
 10
2.4694
 20
-49.5321
 30
0.0
 10
2.4694
 20
-49.5321
 30
0.0
 10
2.8292
 20
-49.4599
 30
0.0
 10
2.8292
 20
-49.4599
 30
0.0
 10
2.8292
 20
-49.4599
 30
0.0
 10
2.8292
 20
-49.4599
 30
0.0
 10
4.5043
 20
-51.4828
 30
0.0
 10
4.5043
 20
-51.4828
 30
0.0
  0
SPLINE
  5
7C
330
1F
100
AcDbEntity
  8
Capa 1
100
AcDbSpline
210
0.0
220
0.0
230
1.0
 70
    11
 71
     3
 72
    40
 73
    36
 74
     0
 42
0.0000000001
 43
0.0000000001
 40
0.0
 40
0.0
 40
0.0
 40
0.0
 40
0.1111111111111111
 40
0.1111111111111111
 40
0.1111111111111111
 40
0.1111111111111111
 40
0.2222222222222222
 40
0.2222222222222222
 40
0.2222222222222222
 40
0.2222222222222222
 40
0.3333333333333333
 40
0.3333333333333333
 40
0.3333333333333333
 40
0.3333333333333333
 40
0.4444444444444444
 40
0.4444444444444444
 40
0.4444444444444444
 40
0.4444444444444444
 40
0.5555555555555556
 40
0.5555555555555556
 40
0.5555555555555556
 40
0.5555555555555556
 40
0.6666666666666667
 40
0.6666666666666667
 40
0.6666666666666667
 40
0.6666666666666667
 40
0.7777777777777779
 40
0.7777777777777779
 40
0.7777777777777779
 40
0.7777777777777779
 40
0.8888888888888891
 40
0.8888888888888891
 40
0.8888888888888891
 40
0.8888888888888891
 40
1.0
 40
1.0
 40
1.0
 40
1.0
 10
-21.3261
 20
-93.9025
 30
0.0
 10
-21.3261
 20
-93.9025
 30
0.0
 10
-21.3268
 20
-95.9518
 30
0.0
 10
-21.3268
 20
-95.9518
 30
0.0
 10
-21.3268
 20
-95.9518
 30
0.0
 10
-21.3268
 20
-95.9518
 30
0.0
 10
-21.1573
 20
-99.4703
 30
0.0
 10
-21.1573
 20
-99.4703
 30
0.0
 10
-21.1573
 20
-99.4703
 30
0.0
 10
-21.1573
 20
-99.4703
 30
0.0
 10
-20.6865
 20
-100.0257
 30
0.0
 10
-20.6865
 20
-100.0257
 30
0.0
 10
-20.6865
 20
-100.0257
 30
0.0
 10
-20.7429
 20
-101.2282
 30
0.0
 10
-19.2115
 20
-106.4768
 30
0.0
 10
-18.456
 20
-107.0177
 30
0.0
 10
-18.456
 20
-107.0177
 30
0.0
 10
-18.456
 20
-107.0177
 30
0.0
 10
-18.2118
 20
-106.9777
 30
0.0
 10
-18.2118
 20
-106.9777
 30
0.0
 10
-18.2118
 20
-106.9777
 30
0.0
 10
-18.2118
 20
-106.9777
 30
0.0
 10
-19.4811
 20
-99.6404
 30
0.0
 10
-19.4811
 20
-99.6404
 30
0.0
 10
-19.4811
 20
-99.6404
 30
0.0
 10
-19.4811
 20
-99.6404
 30
0.0
 10
-19.4811
 20
-95.132
 30
0.0
 10
-19.4811
 20
-95.132
 30
0.0
 10
-19.4811
 20
-95.132
 30
0.0
 10
-19.4811
 20
-93.2998
 30
0.0
 10
-17.2928
 20
-83.279
 30
0.0
 10
-16.611
 20
-81.8118
 30
0.0
 10
-16.611
 20
-81.8118
 30
0.0
 10
-18.9743
 20
-82.8521
 30
0.0
 10
-21.3261
 20
-90.7971
 30
0.0
 10
-21.3261
 20
-93.9025
 30
0.0
  0
SPLINE
  5
7D
330
1F
100
AcDbEntity
  8
Capa 1
100
AcDbSpline
210
0.0
220
0.0
230
1.0
 70
    11
 71
     3
 72
    32
 73
    28
 74
     0
 42
0.0000000001
 43
0.0000000001
 40
0.0
 40
0.0
 40
0.0
 40
0.0
 40
0.1428571428571428
 40
0.1428571428571428
 40
0.1428571428571428
 40
0.1428571428571428
 40
0.2857142857142857
 40
0.2857142857142857
 40
0.2857142857142857
 40
0.2857142857142857
 40
0.4285714285714285
 40
0.4285714285714285
 40
0.4285714285714285
 40
0.4285714285714285
 40
0.5714285714285714
 40
0.5714285714285714
 40
0.5714285714285714
 40
0.5714285714285714
 40
0.7142857142857142
 40
0.7142857142857142
 40
0.7142857142857142
 40
0.7142857142857142
 40
0.857142857142857
 40
0.857142857142857
 40
0.857142857142857
 40
0.857142857142857
 40
1.0
 40
1.0
 40
1.0
 40
1.0
 10
54.935
 20
-51.8926
 30
0.0
 10
55.0582
 20
-51.8117
 30
0.0
 10
57.7342
 20
-49.2011
 30
0.0
 10
58.1639
 20
-48.7675
 30
0.0
 10
58.1639
 20
-48.7675
 30
0.0
 10
59.7351
 20
-47.1824
 30
0.0
 10
60.0601
 20
-46.5225
 30
0.0
 10
60.0601
 20
-44.1054
 30
0.0
 10
60.0601
 20
-44.1054
 30
0.0
 10
60.0601
 20
-44.1054
 30
0.0
 10
60.2238
 20
-43.0566
 30
0.0
 10
60.2238
 20
-43.0566
 30
0.0
 10
60.2238
 20
-43.0566
 30
0.0
 10
60.2238
 20
-43.0566
 30
0.0
 10
58.4201
 20
-30.7852
 30
0.0
 10
58.4201
 20
-30.7852
 30
0.0
 10
58.4201
 20
-30.7852
 30
0.0
 10
57.8227
 20
-31.7545
 30
0.0
 10
58.3288
 20
-40.2514
 30
0.0
 10
57.6279
 20
-42.4954
 30
0.0
 10
57.6279
 20
-42.4954
 30
0.0
 10
57.2671
 20
-43.6506
 30
0.0
 10
57.1552
 20
-45.5819
 30
0.0
 10
56.653
 20
-47.2572
 30
0.0
 10
56.653
 20
-47.2572
 30
0.0
 10
56.2142
 20
-48.7207
 30
0.0
 10
55.187
 20
-50.8316
 30
0.0
 10
54.935
 20
-51.8926
 30
0.0
  0
SPLINE
  5
7E
330
1F
100
AcDbEntity
  8
Capa 1
100
AcDbSpline
210
0.0
220
0.0
230
1.0
 70
    11
 71
     3
 72
    24
 73
    20
 74
     0
 42
0.0000000001
 43
0.0000000001
 40
0.0
 40
0.0
 40
0.0
 40
0.0
 40
0.2
 40
0.2
 40
0.2
 40
0.2
 40
0.4
 40
0.4
 40
0.4
 40
0.4
 40
0.6000000000000001
 40
0.6000000000000001
 40
0.6000000000000001
 40
0.6000000000000001
 40
0.8
 40
0.8
 40
0.8
 40
0.8
 40
1.0
 40
1.0
 40
1.0
 40
1.0
 10
-34.8563
 20
-104.9684
 30
0.0
 10
-33.6758
 20
-104.5335
 30
0.0
 10
-30.6405
 20
-93.8159
 30
0.0
 10
-29.5643
 20
-91.8151
 30
0.0
 10
-29.5643
 20
-91.8151
 30
0.0
 10
-28.6611
 20
-90.1359
 30
0.0
 10
-22.428
 20
-80.8673
 30
0.0
 10
-22.3511
 20
-80.5823
 30
0.0
 10
-22.3511
 20
-80.5823
 30
0.0
 10
-24.8316
 20
-82.325
 30
0.0
 10
-29.2328
 20
-87.897
 30
0.0
 10
-30.838
 20
-90.5419
 30
0.0
 10
-30.838
 20
-90.5419
 30
0.0
 10
-32.1432
 20
-92.6922
 30
0.0
 10
-32.5958
 20
-95.0035
 30
0.0
 10
-33.212
 20
-97.3904
 30
0.0
 10
-33.212
 20
-97.3904
 30
0.0
 10
-33.7203
 20
-99.3592
 30
0.0
 10
-34.1541
 20
-103.4685
 30
0.0
 10
-34.8563
 20
-104.9684
 30
0.0
  0
SPLINE
  5
7F
330
1F
100
AcDbEntity
  8
Capa 1
100
AcDbSpline
210
0.0
220
0.0
230
1.0
 70
    11
 71
     3
 72
    44
 73
    40
 74
     0
 42
0.0000000001
 43
0.0000000001
 40
0.0
 40
0.0
 40
0.0
 40
0.0
 40
0.1
 40
0.1
 40
0.1
 40
0.1
 40
0.2
 40
0.2
 40
0.2
 40
0.2
 40
0.3
 40
0.3
 40
0.3
 40
0.3
 40
0.4
 40
0.4
 40
0.4
 40
0.4
 40
0.5
 40
0.5
 40
0.5
 40
0.5
 40
0.6
 40
0.6
 40
0.6
 40
0.6
 40
0.7
 40
0.7
 40
0.7
 40
0.7
 40
0.7999999999999999
 40
0.7999999999999999
 40
0.7999999999999999
 40
0.7999999999999999
 40
0.8999999999999999
 40
0.8999999999999999
 40
0.8999999999999999
 40
0.8999999999999999
 40
1.0
 40
1.0
 40
1.0
 40
1.0
 10
75.8453
 20
-27.9162
 30
0.0
 10
76.2647
 20
-27.2523
 30
0.0
 10
77.0753
 20
-24.4435
 30
0.0
 10
77.0753
 20
-23.4079
 30
0.0
 10
77.0753
 20
-23.4079
 30
0.0
 10
77.0753
 20
-23.4079
 30
0.0
 10
77.0717
 20
-21.5635
 30
0.0
 10
77.0717
 20
-21.5635
 30
0.0
 10
77.0717
 20
-21.5635
 30
0.0
 10
77.0717
 20
-21.5635
 30
0.0
 10
77.1161
 20
-20.6883
 30
0.0
 10
77.1161
 20
-20.6883
 30
0.0
 10
77.1161
 20
-20.6883
 30
0.0
 10
77.1161
 20
-20.6883
 30
0.0
 10
76.6846
 20
-20.3466
 30
0.0
 10
76.6846
 20
-20.3466
 30
0.0
 10
76.6846
 20
-20.3466
 30
0.0
 10
76.6846
 20
-20.3466
 30
0.0
 10
76.4825
 20
-18.4675
 30
0.0
 10
76.4825
 20
-18.4675
 30
0.0
 10
76.4825
 20
-18.4675
 30
0.0
 10
76.1706
 20
-18.0715
 30
0.0
 10
73.8735
 20
-12.3745
 30
0.0
 10
73.3261
 20
-11.1716
 30
0.0
 10
73.3261
 20
-11.1716
 30
0.0
 10
72.7023
 20
-9.8011
 30
0.0
 10
69.9079
 20
-5.9273
 30
0.0
 10
68.2602
 20
-5.7842
 30
0.0
 10
68.2602
 20
-5.7842
 30
0.0
 10
68.4027
 20
-6.3122
 30
0.0
 10
70.6097
 20
-9.4345
 30
0.0
 10
71.0948
 20
-10.3281
 30
0.0
 10
71.0948
 20
-10.3281
 30
0.0
 10
72.1188
 20
-12.2148
 30
0.0
 10
72.7451
 20
-13.1601
 30
0.0
 10
73.6204
 20
-15.1807
 30
0.0
 10
73.6204
 20
-15.1807
 30
0.0
 10
75.1224
 20
-18.6481
 30
0.0
 10
75.8453
 20
-23.8162
 30
0.0
 10
75.8453
 20
-27.9162
 30
0.0
  0
SPLINE
  5
80
330
1F
100
AcDbEntity
  8
Capa 1
100
AcDbSpline
210
0.0
220
0.0
230
1.0
 70
    11
 71
     3
 72
    32
 73
    28
 74
     0
 42
0.0000000001
 43
0.0000000001
 40
0.0
 40
0.0
 40
0.0
 40
0.0
 40
0.1428571428571428
 40
0.1428571428571428
 40
0.1428571428571428
 40
0.1428571428571428
 40
0.2857142857142857
 40
0.2857142857142857
 40
0.2857142857142857
 40
0.2857142857142857
 40
0.4285714285714285
 40
0.4285714285714285
 40
0.4285714285714285
 40
0.4285714285714285
 40
0.5714285714285714
 40
0.5714285714285714
 40
0.5714285714285714
 40
0.5714285714285714
 40
0.7142857142857142
 40
0.7142857142857142
 40
0.7142857142857142
 40
0.7142857142857142
 40
0.857142857142857
 40
0.857142857142857
 40
0.857142857142857
 40
0.857142857142857
 40
1.0
 40
1.0
 40
1.0
 40
1.0
 10
5.1015
 20
55.4709
 30
0.0
 10
6.5059
 20
54.4002
 30
0.0
 10
6.7593
 20
54.0619
 30
0.0
 10
6.7593
 20
52.0049
 30
0.0
 10
6.7593
 20
52.0049
 30
0.0
 10
6.7593
 20
52.0049
 30
0.0
 10
6.7593
 20
42.9881
 30
0.0
 10
6.7593
 20
42.9881
 30
0.0
 10
6.7593
 20
42.9881
 30
0.0
 10
6.7593
 20
40.8752
 30
0.0
 10
5.7293
 20
39.4597
 30
0.0
 10
4.9143
 20
37.865
 30
0.0
 10
4.9143
 20
37.865
 30
0.0
 10
7.0413
 20
38.0498
 30
0.0
 10
8.3993
 20
43.3901
 30
0.0
 10
8.3993
 20
45.2423
 30
0.0
 10
8.3993
 20
45.2423
 30
0.0
 10
8.3993
 20
45.2423
 30
0.0
 10
8.3647
 20
47.902
 30
0.0
 10
8.3647
 20
47.902
 30
0.0
 10
8.3647
 20
47.902
 30
0.0
 10
8.3647
 20
47.902
 30
0.0
 10
6.51
 20
60.9773
 30
0.0
 10
6.51
 20
60.9773
 30
0.0
 10
6.51
 20
60.9773
 30
0.0
 10
5.3634
 20
60.7158
 30
0.0
 10
5.1464
 20
56.7775
 30
0.0
 10
5.1015
 20
55.4709
 30
0.0
  0
SPLINE
  5
81
330
1F
100
AcDbEntity
  8
Capa 1
100
AcDbSpline
210
0.0
220
0.0
230
1.0
 70
    11
 71
     3
 72
    24
 73
    20
 74
     0
 42
0.0000000001
 43
0.0000000001
 40
0.0
 40
0.0
 40
0.0
 40
0.0
 40
0.2
 40
0.2
 40
0.2
 40
0.2
 40
0.4
 40
0.4
 40
0.4
 40
0.4
 40
0.6000000000000001
 40
0.6000000000000001
 40
0.6000000000000001
 40
0.6000000000000001
 40
0.8
 40
0.8
 40
0.8
 40
0.8
 40
1.0
 40
1.0
 40
1.0
 40
1.0
 10
80.3332
 20
-18.6724
 30
0.0
 10
80.6684
 20
-11.5756
 30
0.0
 10
83.7363
 20
-13.8021
 30
0.0
 10
78.5408
 20
-7.5982
 30
0.0
 10
78.5408
 20
-7.5982
 30
0.0
 10
76.5447
 20
-5.2147
 30
0.0
 10
73.4513
 20
-1.0056
 30
0.0
 10
70.3102
 20
-0.2512
 30
0.0
 10
70.3102
 20
-0.2512
 30
0.0
 10
71.9132
 20
-2.6644
 30
0.0
 10
75.2475
 20
-5.1944
 30
0.0
 10
76.8693
 20
-7.8346
 30
0.0
 10
76.8693
 20
-7.8346
 30
0.0
 10
78.0715
 20
-9.7917
 30
0.0
 10
78.5057
 20
-10.3502
 30
0.0
 10
79.4723
 20
-12.405
 30
0.0
 10
79.4723
 20
-12.405
 30
0.0
 10
80.3179
 20
-14.2025
 30
0.0
 10
79.3543
 20
-17.2018
 30
0.0
 10
80.3332
 20
-18.6724
 30
0.0
  0
SPLINE
  5
82
330
1F
100
AcDbEntity
  8
Capa 1
100
AcDbSpline
210
0.0
220
0.0
230
1.0
 70
    11
 71
     3
 72
    44
 73
    40
 74
     0
 42
0.0000000001
 43
0.0000000001
 40
0.0
 40
0.0
 40
0.0
 40
0.0
 40
0.1
 40
0.1
 40
0.1
 40
0.1
 40
0.2
 40
0.2
 40
0.2
 40
0.2
 40
0.3
 40
0.3
 40
0.3
 40
0.3
 40
0.4
 40
0.4
 40
0.4
 40
0.4
 40
0.5
 40
0.5
 40
0.5
 40
0.5
 40
0.6
 40
0.6
 40
0.6
 40
0.6
 40
0.7
 40
0.7
 40
0.7
 40
0.7
 40
0.7999999999999999
 40
0.7999999999999999
 40
0.7999999999999999
 40
0.7999999999999999
 40
0.8999999999999999
 40
0.8999999999999999
 40
0.8999999999999999
 40
0.8999999999999999
 40
1.0
 40
1.0
 40
1.0
 40
1.0
 10
-9.6409
 20
-105.1734
 30
0.0
 10
-9.6409
 20
-105.1734
 30
0.0
 10
-6.7731
 20
-98.2769
 30
0.0
 10
-6.7731
 20
-98.2769
 30
0.0
 10
-6.7731
 20
-98.2769
 30
0.0
 10
-6.7731
 20
-98.2769
 30
0.0
 10
-7.0166
 20
-98.1503
 30
0.0
 10
-7.0166
 20
-98.1503
 30
0.0
 10
-7.0166
 20
-98.1503
 30
0.0
 10
-7.0166
 20
-98.1503
 30
0.0
 10
-6.5481
 20
-97.8138
 30
0.0
 10
-6.5481
 20
-97.8138
 30
0.0
 10
-6.5481
 20
-97.8138
 30
0.0
 10
-6.5597
 20
-97.0398
 30
0.0
 10
-5.9465
 20
-94.8957
 30
0.0
 10
-5.7842
 20
-93.8539
 30
0.0
 10
-5.7842
 20
-93.8539
 30
0.0
 10
-5.7051
 20
-93.3459
 30
0.0
 10
-6.2502
 20
-90.4731
 30
0.0
 10
-6.4036
 20
-89.8467
 30
0.0
 10
-6.4036
 20
-89.8467
 30
0.0
 10
-6.7867
 20
-88.2825
 30
0.0
 10
-8.221
 20
-83.9904
 30
0.0
 10
-9.0259
 20
-82.8365
 30
0.0
 10
-9.0259
 20
-82.8365
 30
0.0
 10
-9.0224
 20
-85.8316
 30
0.0
 10
-7.1017
 20
-90.9127
 30
0.0
 10
-7.7119
 20
-94.1869
 30
0.0
 10
-7.7119
 20
-94.1869
 30
0.0
 10
-7.9073
 20
-95.2355
 30
0.0
 10
-7.6163
 20
-95.963
 30
0.0
 10
-7.9959
 20
-96.9814
 30
0.0
 10
-7.9959
 20
-96.9814
 30
0.0
 10
-8.2265
 20
-97.6
 30
0.0
 10
-8.6126
 20
-98.8406
 30
0.0
 10
-8.7776
 20
-99.4787
 30
0.0
 10
-8.7776
 20
-99.4787
 30
0.0
 10
-9.1894
 20
-101.0719
 30
0.0
 10
-9.6429
 20
-103.464
 30
0.0
 10
-9.6409
 20
-105.1734
 30
0.0
  0
SPLINE
  5
83
330
1F
100
AcDbEntity
  8
Capa 1
100
AcDbSpline
210
0.0
220
0.0
230
1.0
 70
    11
 71
     3
 72
    48
 73
    44
 74
     0
 42
0.0000000001
 43
0.0000000001
 40
0.0
 40
0.0
 40
0.0
 40
0.0
 40
0.0909090909090909
 40
0.0909090909090909
 40
0.0909090909090909
 40
0.0909090909090909
 40
0.1818181818181818
 40
0.1818181818181818
 40
0.1818181818181818
 40
0.1818181818181818
 40
0.2727272727272727
 40
0.2727272727272727
 40
0.2727272727272727
 40
0.2727272727272727
 40
0.3636363636363636
 40
0.3636363636363636
 40
0.3636363636363636
 40
0.3636363636363636
 40
0.4545454545454546
 40
0.4545454545454546
 40
0.4545454545454546
 40
0.4545454545454546
 40
0.5454545454545455
 40
0.5454545454545455
 40
0.5454545454545455
 40
0.5454545454545455
 40
0.6363636363636365
 40
0.6363636363636365
 40
0.6363636363636365
 40
0.6363636363636365
 40
0.7272727272727274
 40
0.7272727272727274
 40
0.7272727272727274
 40
0.7272727272727274
 40
0.8181818181818183
 40
0.8181818181818183
 40
0.8181818181818183
 40
0.8181818181818183
 40
0.9090909090909093
 40
0.9090909090909093
 40
0.9090909090909093
 40
0.9090909090909093
 40
1.0
 40
1.0
 40
1.0
 40
1.0
 10
65.5888
 20
-25.8676
 30
0.0
 10
65.5888
 20
-25.8676
 30
0.0
 10
65.7351
 20
-29.7781
 30
0.0
 10
65.7351
 20
-29.7781
 30
0.0
 10
65.7351
 20
-29.7781
 30
0.0
 10
65.7351
 20
-29.7781
 30
0.0
 10
64.2459
 20
-41.6726
 30
0.0
 10
64.2459
 20
-41.6726
 30
0.0
 10
64.2459
 20
-41.6726
 30
0.0
 10
64.2459
 20
-41.6726
 30
0.0
 10
64.032
 20
-41.6156
 30
0.0
 10
64.032
 20
-41.6156
 30
0.0
 10
64.032
 20
-41.6156
 30
0.0
 10
64.032
 20
-41.6156
 30
0.0
 10
62.9301
 20
-45.13
 30
0.0
 10
62.9301
 20
-45.13
 30
0.0
 10
62.9301
 20
-45.13
 30
0.0
 10
65.4242
 20
-42.3243
 30
0.0
 10
65.7861
 20
-38.361
 30
0.0
 10
66.9805
 20
-36.7424
 30
0.0
 10
66.9805
 20
-36.7424
 30
0.0
 10
66.9805
 20
-36.7424
 30
0.0
 10
67.2352
 20
-34.269
 30
0.0
 10
67.2352
 20
-34.269
 30
0.0
 10
67.2352
 20
-34.269
 30
0.0
 10
67.2352
 20
-34.269
 30
0.0
 10
67.321
 20
-32.0014
 30
0.0
 10
67.321
 20
-32.0014
 30
0.0
 10
67.321
 20
-32.0014
 30
0.0
 10
67.321
 20
-32.0014
 30
0.0
 10
66.2813
 20
-25.8851
 30
0.0
 10
66.2813
 20
-25.8851
 30
0.0
 10
66.2813
 20
-25.8851
 30
0.0
 10
66.2813
 20
-25.8851
 30
0.0
 10
65.5976
 20
-23.2353
 30
0.0
 10
65.5976
 20
-23.2353
 30
0.0
 10
65.5976
 20
-23.2353
 30
0.0
 10
65.5976
 20
-23.2353
 30
0.0
 10
65.3797
 20
-23.261
 30
0.0
 10
65.3797
 20
-23.261
 30
0.0
 10
65.3797
 20
-23.261
 30
0.0
 10
65.3797
 20
-23.261
 30
0.0
 10
65.5888
 20
-25.8676
 30
0.0
 10
65.5888
 20
-25.8676
 30
0.0
  0
SPLINE
  5
84
330
1F
100
AcDbEntity
  8
Capa 1
100
AcDbSpline
210
0.0
220
0.0
230
1.0
 70
    11
 71
     3
 72
    28
 73
    24
 74
     0
 42
0.0000000001
 43
0.0000000001
 40
0.0
 40
0.0
 40
0.0
 40
0.0
 40
0.1666666666666667
 40
0.1666666666666667
 40
0.1666666666666667
 40
0.1666666666666667
 40
0.3333333333333333
 40
0.3333333333333333
 40
0.3333333333333333
 40
0.3333333333333333
 40
0.5
 40
0.5
 40
0.5
 40
0.5
 40
0.6666666666666666
 40
0.6666666666666666
 40
0.6666666666666666
 40
0.6666666666666666
 40
0.8333333333333333
 40
0.8333333333333333
 40
0.8333333333333333
 40
0.8333333333333333
 40
1.0
 40
1.0
 40
1.0
 40
1.0
 10
70.9604
 20
-36.0782
 30
0.0
 10
72.0535
 20
-34.828
 30
0.0
 10
72.9753
 20
-32.0484
 30
0.0
 10
72.9753
 20
-30.1704
 30
0.0
 10
72.9753
 20
-30.1704
 30
0.0
 10
72.9753
 20
-30.1704
 30
0.0
 10
72.9753
 20
-29.7606
 30
0.0
 10
72.9753
 20
-29.7606
 30
0.0
 10
72.9753
 20
-29.7606
 30
0.0
 10
72.9753
 20
-27.4825
 30
0.0
 10
71.0207
 20
-19.7866
 30
0.0
 10
69.6953
 20
-18.2847
 30
0.0
 10
69.6953
 20
-18.2847
 30
0.0
 10
69.6965
 20
-19.6894
 30
0.0
 10
70.0623
 20
-21.0964
 30
0.0
 10
70.2716
 20
-22.4219
 30
0.0
 10
70.2716
 20
-22.4219
 30
0.0
 10
70.4738
 20
-23.7021
 30
0.0
 10
70.3597
 20
-25.4386
 30
0.0
 10
70.5973
 20
-26.8097
 30
0.0
 10
70.5973
 20
-26.8097
 30
0.0
 10
71.1356
 20
-29.9157
 30
0.0
 10
70.716
 20
-32.9301
 30
0.0
 10
70.9604
 20
-36.0782
 30
0.0
  0
SPLINE
  5
85
330
1F
100
AcDbEntity
  8
Capa 1
 62
   250
100
AcDbSpline
210
0.0
220
0.0
230
1.0
 70
    11
 71
     3
 72
    56
 73
    52
 74
     0
 42
0.0000000001
 43
0.0000000001
 40
0.0
 40
0.0
 40
0.0
 40
0.0
 40
0.0769230769230769
 40
0.0769230769230769
 40
0.0769230769230769
 40
0.0769230769230769
 40
0.1538461538461539
 40
0.1538461538461539
 40
0.1538461538461539
 40
0.1538461538461539
 40
0.2307692307692308
 40
0.2307692307692308
 40
0.2307692307692308
 40
0.2307692307692308
 40
0.3076923076923077
 40
0.3076923076923077
 40
0.3076923076923077
 40
0.3076923076923077
 40
0.3846153846153846
 40
0.3846153846153846
 40
0.3846153846153846
 40
0.3846153846153846
 40
0.4615384615384616
 40
0.4615384615384616
 40
0.4615384615384616
 40
0.4615384615384616
 40
0.5384615384615385
 40
0.5384615384615385
 40
0.5384615384615385
 40
0.5384615384615385
 40
0.6153846153846154
 40
0.6153846153846154
 40
0.6153846153846154
 40
0.6153846153846154
 40
0.6923076923076923
 40
0.6923076923076923
 40
0.6923076923076923
 40
0.6923076923076923
 40
0.7692307692307692
 40
0.7692307692307692
 40
0.7692307692307692
 40
0.7692307692307692
 40
0.846153846153846
 40
0.846153846153846
 40
0.846153846153846
 40
0.846153846153846
 40
0.9230769230769229
 40
0.9230769230769229
 40
0.9230769230769229
 40
0.9230769230769229
 40
1.0
 40
1.0
 40
1.0
 40
1.0
 10
-33.6263
 20
42.9881
 30
0.0
 10
-33.6263
 20
42.9881
 30
0.0
 10
-33.6263
 20
43.1931
 30
0.0
 10
-33.6263
 20
43.1931
 30
0.0
 10
-33.6263
 20
43.1931
 30
0.0
 10
-33.6263
 20
43.1931
 30
0.0
 10
-35.2735
 20
44.1701
 30
0.0
 10
-35.2735
 20
44.1701
 30
0.0
 10
-35.2735
 20
44.1701
 30
0.0
 10
-35.2735
 20
44.1701
 30
0.0
 10
-37.1114
 20
44.4226
 30
0.0
 10
-37.1114
 20
44.4226
 30
0.0
 10
-37.1114
 20
44.4226
 30
0.0
 10
-37.1114
 20
44.4226
 30
0.0
 10
-37.9313
 20
44.4226
 30
0.0
 10
-37.9313
 20
44.4226
 30
0.0
 10
-37.9313
 20
44.4226
 30
0.0
 10
-40.0478
 20
44.4226
 30
0.0
 10
-43.084
 20
43.2894
 30
0.0
 10
-43.6714
 20
41.1438
 30
0.0
 10
-43.6714
 20
41.1438
 30
0.0
 10
-42.5092
 20
41.9125
 30
0.0
 10
-39.8701
 20
44.316
 30
0.0
 10
-38.7326
 20
43.4086
 30
0.0
 10
-38.7326
 20
43.4086
 30
0.0
 10
-38.7326
 20
43.4086
 30
0.0
 10
-39.1614
 20
42.5783
 30
0.0
 10
-39.1614
 20
42.5783
 30
0.0
 10
-39.1614
 20
42.5783
 30
0.0
 10
-39.1614
 20
42.5783
 30
0.0
 10
-39.1614
 20
42.1684
 30
0.0
 10
-39.1614
 20
42.1684
 30
0.0
 10
-39.1614
 20
42.1684
 30
0.0
 10
-39.1614
 20
42.1684
 30
0.0
 10
-39.1614
 20
41.7586
 30
0.0
 10
-39.1614
 20
41.7586
 30
0.0
 10
-39.1614
 20
41.7586
 30
0.0
 10
-39.1614
 20
41.7586
 30
0.0
 10
-39.1614
 20
41.3487
 30
0.0
 10
-39.1614
 20
41.3487
 30
0.0
 10
-39.1614
 20
41.3487
 30
0.0
 10
-38.8736
 20
40.2977
 30
0.0
 10
-38.0374
 20
39.1731
 30
0.0
 10
-36.9063
 20
38.8897
 30
0.0
 10
-36.9063
 20
38.8897
 30
0.0
 10
-35.1
 20
39.3271
 30
0.0
 10
-34.3368
 20
41.2225
 30
0.0
 10
-34.2069
 20
42.9729
 30
0.0
 10
-34.2069
 20
42.9729
 30
0.0
 10
-34.2069
 20
42.9729
 30
0.0
 10
-33.6263
 20
42.9881
 30
0.0
 10
-33.6263
 20
42.9881
 30
0.0
  0
SPLINE
  5
86
330
1F
100
AcDbEntity
  8
Capa 1
100
AcDbSpline
210
0.0
220
0.0
230
1.0
 70
    11
 71
     3
 72
    16
 73
    12
 74
     0
 42
0.0000000001
 43
0.0000000001
 40
0.0
 40
0.0
 40
0.0
 40
0.0
 40
0.3333333333333333
 40
0.3333333333333333
 40
0.3333333333333333
 40
0.3333333333333333
 40
0.6666666666666666
 40
0.6666666666666666
 40
0.6666666666666666
 40
0.6666666666666666
 40
1.0
 40
1.0
 40
1.0
 40
1.0
 10
-41.4164
 20
5.0768
 30
0.0
 10
-41.4164
 20
5.0768
 30
0.0
 10
-33.2162
 20
25.5694
 30
0.0
 10
-33.2162
 20
25.5694
 30
0.0
 10
-33.2162
 20
25.5694
 30
0.0
 10
-35.4106
 20
24.0009
 30
0.0
 10
-37.9004
 20
18.9347
 30
0.0
 10
-38.5491
 20
16.5555
 30
0.0
 10
-38.5491
 20
16.5555
 30
0.0
 10
-39.3032
 20
13.7901
 30
0.0
 10
-41.3602
 20
7.8603
 30
0.0
 10
-41.4164
 20
5.0768
 30
0.0
  0
SPLINE
  5
87
330
1F
100
AcDbEntity
  8
Capa 1
100
AcDbSpline
210
0.0
220
0.0
230
1.0
 70
    11
 71
     3
 72
    28
 73
    24
 74
     0
 42
0.0000000001
 43
0.0000000001
 40
0.0
 40
0.0
 40
0.0
 40
0.0
 40
0.1666666666666667
 40
0.1666666666666667
 40
0.1666666666666667
 40
0.1666666666666667
 40
0.3333333333333333
 40
0.3333333333333333
 40
0.3333333333333333
 40
0.3333333333333333
 40
0.5
 40
0.5
 40
0.5
 40
0.5
 40
0.6666666666666666
 40
0.6666666666666666
 40
0.6666666666666666
 40
0.6666666666666666
 40
0.8333333333333333
 40
0.8333333333333333
 40
0.8333333333333333
 40
0.8333333333333333
 40
1.0
 40
1.0
 40
1.0
 40
1.0
 10
3.6337
 20
-89.9149
 30
0.0
 10
3.6337
 20
-89.9149
 30
0.0
 10
4.134
 20
-90.3651
 30
0.0
 10
4.134
 20
-90.3651
 30
0.0
 10
4.134
 20
-90.3651
 30
0.0
 10
4.134
 20
-90.3651
 30
0.0
 10
3.9527
 20
-90.4654
 30
0.0
 10
3.9527
 20
-90.4654
 30
0.0
 10
3.9527
 20
-90.4654
 30
0.0
 10
3.9527
 20
-90.4654
 30
0.0
 10
7.3743
 20
-99.0256
 30
0.0
 10
7.3743
 20
-99.0256
 30
0.0
 10
7.3743
 20
-99.0256
 30
0.0
 10
7.3743
 20
-95.3978
 30
0.0
 10
5.9601
 20
-91.5455
 30
0.0
 10
4.6303
 20
-88.4484
 30
0.0
 10
4.6303
 20
-88.4484
 30
0.0
 10
4.0053
 20
-86.9927
 30
0.0
 10
0.7687
 20
-80.9509
 30
0.0
 10
-0.514
 20
-80.2144
 30
0.0
 10
-0.514
 20
-80.2144
 30
0.0
 10
-0.514
 20
-80.2144
 30
0.0
 10
3.6337
 20
-89.9149
 30
0.0
 10
3.6337
 20
-89.9149
 30
0.0
  0
SPLINE
  5
88
330
1F
100
AcDbEntity
  8
Capa 1
 62
   250
100
AcDbSpline
210
0.0
220
0.0
230
1.0
 70
    11
 71
     3
 72
    16
 73
    12
 74
     0
 42
0.0000000001
 43
0.0000000001
 40
0.0
 40
0.0
 40
0.0
 40
0.0
 40
0.3333333333333333
 40
0.3333333333333333
 40
0.3333333333333333
 40
0.3333333333333333
 40
0.6666666666666666
 40
0.6666666666666666
 40
0.6666666666666666
 40
0.6666666666666666
 40
1.0
 40
1.0
 40
1.0
 40
1.0
 10
-58.8416
 20
-51.6877
 30
0.0
 10
-58.8416
 20
-51.6877
 30
0.0
 10
-45.3114
 20
-43.6956
 30
0.0
 10
-45.3114
 20
-43.6956
 30
0.0
 10
-45.3114
 20
-43.6956
 30
0.0
 10
-46.5699
 20
-43.8302
 30
0.0
 10
-52.1219
 20
-45.6716
 30
0.0
 10
-53.3347
 20
-46.3315
 30
0.0
 10
-53.3347
 20
-46.3315
 30
0.0
 10
-54.5515
 20
-46.9936
 30
0.0
 10
-58.4855
 20
-50.3722
 30
0.0
 10
-58.8416
 20
-51.6877
 30
0.0
  0
SPLINE
  5
89
330
1F
100
AcDbEntity
  8
Capa 1
 62
   250
100
AcDbSpline
210
0.0
220
0.0
230
1.0
 70
    11
 71
     3
 72
    12
 73
     8
 74
     0
 42
0.0000000001
 43
0.0000000001
 40
0.0
 40
0.0
 40
0.0
 40
0.0
 40
0.5
 40
0.5
 40
0.5
 40
0.5
 40
1.0
 40
1.0
 40
1.0
 40
1.0
 10
13.9274
 20
-90.0157
 30
0.0
 10
13.6429
 20
-86.7755
 30
0.0
 10
8.411
 20
-80.8859
 30
0.0
 10
4.8713
 20
-80.6237
 30
0.0
 10
4.8713
 20
-80.6237
 30
0.0
 10
4.8713
 20
-80.6237
 30
0.0
 10
13.9274
 20
-90.0157
 30
0.0
 10
13.9274
 20
-90.0157
 30
0.0
  0
SPLINE
  5
8A
330
1F
100
AcDbEntity
  8
Capa 1
 62
   250
100
AcDbSpline
210
0.0
220
0.0
230
1.0
 70
    11
 71
     3
 72
    20
 73
    16
 74
     0
 42
0.0000000001
 43
0.0000000001
 40
0.0
 40
0.0
 40
0.0
 40
0.0
 40
0.25
 40
0.25
 40
0.25
 40
0.25
 40
0.5
 40
0.5
 40
0.5
 40
0.5
 40
0.75
 40
0.75
 40
0.75
 40
0.75
 40
1.0
 40
1.0
 40
1.0
 40
1.0
 10
-14.971
 20
-94.3123
 30
0.0
 10
-14.971
 20
-94.3123
 30
0.0
 10
-14.9025
 20
-95.9444
 30
0.0
 10
-14.9025
 20
-95.9444
 30
0.0
 10
-14.9025
 20
-95.9444
 30
0.0
 10
-14.9025
 20
-95.9444
 30
0.0
 10
-14.561
 20
-100.2552
 30
0.0
 10
-14.561
 20
-100.2552
 30
0.0
 10
-14.561
 20
-100.2552
 30
0.0
 10
-13.8334
 20
-99.1088
 30
0.0
 10
-12.7159
 20
-86.7887
 30
0.0
 10
-12.7159
 20
-84.4758
 30
0.0
 10
-12.7159
 20
-84.4758
 30
0.0
 10
-13.3569
 20
-84.9798
 30
0.0
 10
-14.971
 20
-93.1081
 30
0.0
 10
-14.971
 20
-94.3123
 30
0.0
  0
SPLINE
  5
8B
330
1F
100
AcDbEntity
  8
Capa 1
100
AcDbSpline
210
0.0
220
0.0
230
1.0
 70
    11
 71
     3
 72
    20
 73
    16
 74
     0
 42
0.0000000001
 43
0.0000000001
 40
0.0
 40
0.0
 40
0.0
 40
0.0
 40
0.25
 40
0.25
 40
0.25
 40
0.25
 40
0.5
 40
0.5
 40
0.5
 40
0.5
 40
0.75
 40
0.75
 40
0.75
 40
0.75
 40
1.0
 40
1.0
 40
1.0
 40
1.0
 10
-36.9063
 20
0.1586
 30
0.0
 10
-36.9063
 20
0.1586
 30
0.0
 10
-36.8423
 20
0.1834
 30
0.0
 10
-36.8423
 20
0.1834
 30
0.0
 10
-36.8423
 20
0.1834
 30
0.0
 10
-36.8423
 20
0.1834
 30
0.0
 10
-35.8516
 20
5.8878
 30
0.0
 10
-35.8516
 20
5.8878
 30
0.0
 10
-35.8516
 20
5.8878
 30
0.0
 10
-35.8516
 20
5.8878
 30
0.0
 10
-32.6012
 20
16.9625
 30
0.0
 10
-32.6012
 20
16.9625
 30
0.0
 10
-32.6012
 20
16.9625
 30
0.0
 10
-35.7729
 20
14.477
 30
0.0
 10
-36.9063
 20
4.2202
 30
0.0
 10
-36.9063
 20
0.1586
 30
0.0
  0
SPLINE
  5
8C
330
1F
100
AcDbEntity
  8
Capa 1
 62
   250
100
AcDbSpline
210
0.0
220
0.0
230
1.0
 70
    11
 71
     3
 72
    20
 73
    16
 74
     0
 42
0.0000000001
 43
0.0000000001
 40
0.0
 40
0.0
 40
0.0
 40
0.0
 40
0.25
 40
0.25
 40
0.25
 40
0.25
 40
0.5
 40
0.5
 40
0.5
 40
0.5
 40
0.75
 40
0.75
 40
0.75
 40
0.75
 40
1.0
 40
1.0
 40
1.0
 40
1.0
 10
-47.4345
 20
-50.5646
 30
0.0
 10
-47.4345
 20
-50.5646
 30
0.0
 10
-40.0507
 20
-46.1525
 30
0.0
 10
-40.0507
 20
-46.1525
 30
0.0
 10
-40.0507
 20
-46.1525
 30
0.0
 10
-40.0507
 20
-46.1525
 30
0.0
 10
-40.1323
 20
-45.9069
 30
0.0
 10
-40.1323
 20
-45.9069
 30
0.0
 10
-40.1323
 20
-45.9069
 30
0.0
 10
-40.1323
 20
-45.9069
 30
0.0
 10
-40.6795
 20
-45.5577
 30
0.0
 10
-40.6795
 20
-45.5577
 30
0.0
 10
-40.6795
 20
-45.5577
 30
0.0
 10
-40.6795
 20
-45.5577
 30
0.0
 10
-47.4345
 20
-50.5646
 30
0.0
 10
-47.4345
 20
-50.5646
 30
0.0
  0
SPLINE
  5
8D
330
1F
100
AcDbEntity
  8
Capa 1
 62
   250
100
AcDbSpline
210
0.0
220
0.0
230
1.0
 70
    11
 71
     3
 72
    12
 73
     8
 74
     0
 42
0.0000000001
 43
0.0000000001
 40
0.0
 40
0.0
 40
0.0
 40
0.0
 40
0.5
 40
0.5
 40
0.5
 40
0.5
 40
1.0
 40
1.0
 40
1.0
 40
1.0
 10
46.7045
 20
-43.547
 30
0.0
 10
47.1613
 20
-42.7668
 30
0.0
 10
46.7037
 20
-42.6668
 30
0.0
 10
45.8688
 20
-42.3474
 30
0.0
 10
45.8688
 20
-42.3474
 30
0.0
 10
45.8688
 20
-42.3474
 30
0.0
 10
46.7045
 20
-43.547
 30
0.0
 10
46.7045
 20
-43.547
 30
0.0
  0
SPLINE
  5
8E
330
1F
100
AcDbEntity
  8
Capa 1
 62
   254
100
AcDbSpline
210
0.0
220
0.0
230
1.0
 70
    11
 71
     3
 72
    16
 73
    12
 74
     0
 42
0.0000000001
 43
0.0000000001
 40
0.0
 40
0.0
 40
0.0
 40
0.0
 40
0.3333333333333333
 40
0.3333333333333333
 40
0.3333333333333333
 40
0.3333333333333333
 40
0.6666666666666666
 40
0.6666666666666666
 40
0.6666666666666666
 40
0.6666666666666666
 40
1.0
 40
1.0
 40
1.0
 40
1.0
 10
-18.0392
 20
-36.0543
 30
0.0
 10
-18.0392
 20
-36.0543
 30
0.0
 10
-17.4082
 20
-36.0657
 30
0.0
 10
-17.4082
 20
-36.0657
 30
0.0
 10
-17.4082
 20
-36.0657
 30
0.0
 10
-17.4082
 20
-36.0657
 30
0.0
 10
-17.677
 20
-35.4393
 30
0.0
 10
-17.677
 20
-35.4393
 30
0.0
 10
-17.677
 20
-35.4393
 30
0.0
 10
-17.677
 20
-35.4393
 30
0.0
 10
-18.0392
 20
-36.0543
 30
0.0
 10
-18.0392
 20
-36.0543
 30
0.0
  0
ENDSEC
  0
SECTION
  2
OBJECTS
  0
DICTIONARY
  5
C
330
0
100
AcDbDictionary
281
     1
  3
ACAD_GROUP
350
D
  3
ACAD_LAYOUT
350
1A
  3
ACAD_MLEADERSTYLE
350
90
  3
ACAD_MLINESTYLE
350
17
  3
ACAD_PLOTSETTINGS
350
19
  3
ACAD_PLOTSTYLENAME
350
E
  3
ACAD_SCALELIST
350
3B
  3
ACAD_TABLESTYLE
350
8F
  3
ACAD_VISUALSTYLE
350
2A
  0
DICTIONARY
  5
D
102
{ACAD_REACTORS
330
C
102
}
330
C
100
AcDbDictionary
281
     1
  0
DICTIONARY
  5
1A
102
{ACAD_REACTORS
330
C
102
}
330
C
100
AcDbDictionary
281
     1
  3
Layout1
350
1E
  3
Layout2
350
26
  3
Model
350
22
  0
DICTIONARY
  5
90
102
{ACAD_REACTORS
330
C
102
}
330
C
100
AcDbDictionary
281
     1
  0
DICTIONARY
  5
17
102
{ACAD_REACTORS
330
C
102
}
330
C
100
AcDbDictionary
281
     1
  3
Standard
350
18
  0
DICTIONARY
  5
19
102
{ACAD_REACTORS
330
C
102
}
330
C
100
AcDbDictionary
281
     1
  0
ACDBDICTIONARYWDFLT
  5
E
102
{ACAD_REACTORS
330
C
102
}
330
C
100
AcDbDictionary
281
     1
  3
Normal
350
F
100
AcDbDictionaryWithDefault
340
F
  0
DICTIONARY
  5
3B
102
{ACAD_REACTORS
330
C
102
}
330
C
100
AcDbDictionary
281
     1
  3
A0
350
3C
  3
A1
350
3D
  3
A2
350
3E
  3
A3
350
3F
  3
A4
350
40
  3
A5
350
41
  3
A6
350
42
  3
A7
350
43
  3
A8
350
44
  3
A9
350
45
  3
B0
350
46
  3
B1
350
47
  3
B2
350
48
  3
B3
350
49
  3
B4
350
4A
  3
B5
350
4B
  3
B6
350
4C
  3
B7
350
4D
  3
B8
350
4E
  3
B9
350
4F
  3
C0
350
50
  3
C1
350
51
  3
C2
350
52
  3
C3
350
53
  3
C4
350
54
  3
C5
350
55
  3
C6
350
56
  3
C7
350
57
  3
C8
350
58
  3
C9
350
59
  3
D0
350
5A
  3
D1
350
5B
  3
D2
350
5C
  0
DICTIONARY
  5
8F
102
{ACAD_REACTORS
330
C
102
}
330
C
100
AcDbDictionary
281
     1
  0
DICTIONARY
  5
2A
102
{ACAD_REACTORS
330
C
102
}
330
C
100
AcDbDictionary
281
     1
  3
2dWireframe
350
2F
  3
3D Hidden
350
31
  3
3dWireframe
350
30
  3
Basic
350
32
  3
Brighten
350
36
  3
ColorChange
350
3A
  3
Conceptual
350
34
  3
Dim
350
35
  3
Facepattern
350
39
  3
Flat
350
2B
  3
FlatWithEdges
350
2C
  3
Gouraud
350
2D
  3
GouraudWithEdges
350
2E
  3
Linepattern
350
38
  3
Realistic
350
33
  3
Thicken
350
37
  0
LAYOUT
  5
1E
102
{ACAD_REACTORS
330
1A
102
}
330
1A
100
AcDbPlotSettings
  1

  2
none_device
  4

  6

 40
0.0
 41
0.0
 42
0.0
 43
0.0
 44
0.0
 45
0.0
 46
0.0
 47
0.0
 48
0.0
 49
0.0
140
0.0
141
0.0
142
1.0
143
1.0
 70
   688
 72
     0
 73
     0
 74
     5
  7

 75
    16
 76
     0
 77
     2
 78
   300
147
1.0
148
0.0
149
0.0
100
AcDbLayout
  1
Layout1
 70
     1
 71
     1
 10
0.0
 20
0.0
 11
12.0
 21
9.0
 12
0.0
 22
0.0
 32
0.0
 14
1.000000000000000E+20
 24
1.000000000000000E+20
 34
1.000000000000000E+20
 15
-1.000000000000000E+20
 25
-1.000000000000000E+20
 35
-1.000000000000000E+20
146
0.0
 13
0.0
 23
0.0
 33
0.0
 16
1.0
 26
0.0
 36
0.0
 17
0.0
 27
1.0
 37
0.0
 76
     0
330
1B
  0
LAYOUT
  5
26
102
{ACAD_REACTORS
330
1A
102
}
330
1A
100
AcDbPlotSettings
  1

  2
none_device
  4

  6

 40
0.0
 41
0.0
 42
0.0
 43
0.0
 44
0.0
 45
0.0
 46
0.0
 47
0.0
 48
0.0
 49
0.0
140
0.0
141
0.0
142
1.0
143
1.0
 70
   688
 72
     0
 73
     0
 74
     5
  7

 75
    16
 76
     0
 77
     2
 78
   300
147
1.0
148
0.0
149
0.0
100
AcDbLayout
  1
Layout2
 70
     1
 71
     2
 10
0.0
 20
0.0
 11
0.0
 21
0.0
 12
0.0
 22
0.0
 32
0.0
 14
0.0
 24
0.0
 34
0.0
 15
0.0
 25
0.0
 35
0.0
146
0.0
 13
0.0
 23
0.0
 33
0.0
 16
1.0
 26
0.0
 36
0.0
 17
0.0
 27
1.0
 37
0.0
 76
     0
330
23
  0
LAYOUT
  5
22
102
{ACAD_REACTORS
330
1A
102
}
330
1A
100
AcDbPlotSettings
  1

  2
none_device
  4

  6

 40
0.0
 41
0.0
 42
0.0
 43
0.0
 44
0.0
 45
0.0
 46
0.0
 47
0.0
 48
0.0
 49
0.0
140
0.0
141
0.0
142
1.0
143
1.0
 70
  1712
 72
     0
 73
     0
 74
     0
  7

 75
     0
 76
     0
 77
     2
 78
   300
147
1.0
148
0.0
149
0.0
100
AcDbLayout
  1
Model
 70
     1
 71
     0
 10
0.0
 20
0.0
 11
12.0
 21
9.0
 12
0.0
 22
0.0
 32
0.0
 14
-85.2999
 24
-112.3458
 34
0.0
 15
85.4805
 25
111.5265
 35
0.0
146
0.0
 13
0.0
 23
0.0
 33
0.0
 16
1.0
 26
0.0
 36
0.0
 17
0.0
 27
1.0
 37
0.0
 76
     0
330
1F
331
29
  0
MLINESTYLE
  5
18
102
{ACAD_REACTORS
330
17
102
}
330
17
100
AcDbMlineStyle
  2
Standard
 70
     0
  3

 62
   256
 51
90.0
 52
90.0
 71
     2
 49
0.5
 62
   256
  6
BYLAYER
 49
-0.5
 62
   256
  6
BYLAYER
  0
ACDBPLACEHOLDER
  5
F
102
{ACAD_REACTORS
330
E
102
}
330
E
  0
SCALE
  5
3C
102
{ACAD_REACTORS
330
3B
102
}
330
3B
100
AcDbScale
 70
     0
300
1:1
140
1.0
141
1.0
290
     1
  0
SCALE
  5
3D
102
{ACAD_REACTORS
330
3B
102
}
330
3B
100
AcDbScale
 70
     0
300
1:2
140
1.0
141
2.0
290
     0
  0
SCALE
  5
3E
102
{ACAD_REACTORS
330
3B
102
}
330
3B
100
AcDbScale
 70
     0
300
1:4
140
1.0
141
4.0
290
     0
  0
SCALE
  5
3F
102
{ACAD_REACTORS
330
3B
102
}
330
3B
100
AcDbScale
 70
     0
300
1:5
140
1.0
141
5.0
290
     0
  0
SCALE
  5
40
102
{ACAD_REACTORS
330
3B
102
}
330
3B
100
AcDbScale
 70
     0
300
1:8
140
1.0
141
8.0
290
     0
  0
SCALE
  5
41
102
{ACAD_REACTORS
330
3B
102
}
330
3B
100
AcDbScale
 70
     0
300
1:10
140
1.0
141
10.0
290
     0
  0
SCALE
  5
42
102
{ACAD_REACTORS
330
3B
102
}
330
3B
100
AcDbScale
 70
     0
300
1:16
140
1.0
141
16.0
290
     0
  0
SCALE
  5
43
102
{ACAD_REACTORS
330
3B
102
}
330
3B
100
AcDbScale
 70
     0
300
1:20
140
1.0
141
20.0
290
     0
  0
SCALE
  5
44
102
{ACAD_REACTORS
330
3B
102
}
330
3B
100
AcDbScale
 70
     0
300
1:30
140
1.0
141
30.0
290
     0
  0
SCALE
  5
45
102
{ACAD_REACTORS
330
3B
102
}
330
3B
100
AcDbScale
 70
     0
300
1:40
140
1.0
141
40.0
290
     0
  0
SCALE
  5
46
102
{ACAD_REACTORS
330
3B
102
}
330
3B
100
AcDbScale
 70
     0
300
1:50
140
1.0
141
50.0
290
     0
  0
SCALE
  5
47
102
{ACAD_REACTORS
330
3B
102
}
330
3B
100
AcDbScale
 70
     0
300
1:100
140
1.0
141
100.0
290
     0
  0
SCALE
  5
48
102
{ACAD_REACTORS
330
3B
102
}
330
3B
100
AcDbScale
 70
     0
300
2:1
140
2.0
141
1.0
290
     0
  0
SCALE
  5
49
102
{ACAD_REACTORS
330
3B
102
}
330
3B
100
AcDbScale
 70
     0
300
4:1
140
4.0
141
1.0
290
     0
  0
SCALE
  5
4A
102
{ACAD_REACTORS
330
3B
102
}
330
3B
100
AcDbScale
 70
     0
300
8:1
140
8.0
141
1.0
290
     0
  0
SCALE
  5
4B
102
{ACAD_REACTORS
330
3B
102
}
330
3B
100
AcDbScale
 70
     0
300
10:1
140
10.0
141
1.0
290
     0
  0
SCALE
  5
4C
102
{ACAD_REACTORS
330
3B
102
}
330
3B
100
AcDbScale
 70
     0
300
100:1
140
100.0
141
1.0
290
     0
  0
SCALE
  5
4D
102
{ACAD_REACTORS
330
3B
102
}
330
3B
100
AcDbScale
 70
     0
300
1/128" = 1'-0"
140
0.0078125
141
12.0
290
     0
  0
SCALE
  5
4E
102
{ACAD_REACTORS
330
3B
102
}
330
3B
100
AcDbScale
 70
     0
300
1/64" = 1'-0"
140
0.015625
141
12.0
290
     0
  0
SCALE
  5
4F
102
{ACAD_REACTORS
330
3B
102
}
330
3B
100
AcDbScale
 70
     0
300
1/32" = 1'-0"
140
0.03125
141
12.0
290
     0
  0
SCALE
  5
50
102
{ACAD_REACTORS
330
3B
102
}
330
3B
100
AcDbScale
 70
     0
300
1/16" = 1'-0"
140
0.0625
141
12.0
290
     0
  0
SCALE
  5
51
102
{ACAD_REACTORS
330
3B
102
}
330
3B
100
AcDbScale
 70
     0
300
3/32" = 1'-0"
140
0.09375
141
12.0
290
     0
  0
SCALE
  5
52
102
{ACAD_REACTORS
330
3B
102
}
330
3B
100
AcDbScale
 70
     0
300
1/8" = 1'-0"
140
0.125
141
12.0
290
     0
  0
SCALE
  5
53
102
{ACAD_REACTORS
330
3B
102
}
330
3B
100
AcDbScale
 70
     0
300
3/16" = 1'-0"
140
0.1875
141
12.0
290
     0
  0
SCALE
  5
54
102
{ACAD_REACTORS
330
3B
102
}
330
3B
100
AcDbScale
 70
     0
300
1/4" = 1'-0"
140
0.25
141
12.0
290
     0
  0
SCALE
  5
55
102
{ACAD_REACTORS
330
3B
102
}
330
3B
100
AcDbScale
 70
     0
300
3/8" = 1'-0"
140
0.375
141
12.0
290
     0
  0
SCALE
  5
56
102
{ACAD_REACTORS
330
3B
102
}
330
3B
100
AcDbScale
 70
     0
300
1/2" = 1'-0"
140
0.5
141
12.0
290
     0
  0
SCALE
  5
57
102
{ACAD_REACTORS
330
3B
102
}
330
3B
100
AcDbScale
 70
     0
300
3/4" = 1'-0"
140
0.75
141
12.0
290
     0
  0
SCALE
  5
58
102
{ACAD_REACTORS
330
3B
102
}
330
3B
100
AcDbScale
 70
     0
300
1" = 1'-0"
140
1.0
141
12.0
290
     0
  0
SCALE
  5
59
102
{ACAD_REACTORS
330
3B
102
}
330
3B
100
AcDbScale
 70
     0
300
1-1/2" = 1'-0"
140
1.5
141
12.0
290
     0
  0
SCALE
  5
5A
102
{ACAD_REACTORS
330
3B
102
}
330
3B
100
AcDbScale
 70
     0
300
3" = 1'-0"
140
3.0
141
12.0
290
     0
  0
SCALE
  5
5B
102
{ACAD_REACTORS
330
3B
102
}
330
3B
100
AcDbScale
 70
     0
300
6" = 1'-0"
140
6.0
141
12.0
290
     0
  0
SCALE
  5
5C
102
{ACAD_REACTORS
330
3B
102
}
330
3B
100
AcDbScale
 70
     0
300
1'-0" = 1'-0"
140
12.0
141
12.0
290
     0
  0
VISUALSTYLE
  5
2F
102
{ACAD_REACTORS
330
2A
102
}
330
2A
100
AcDbVisualStyle
  2
2dWireframe
 70
     4
 71
     0
 72
     2
 73
     0
 90
        0
 40
-0.6
 41
-30.0
 62
     5
 63
     7
421
 16777215
 74
     1
 91
        4
 64
     7
 65
   257
 75
     1
175
     1
 42
1.0
 92
        0
 66
   257
 43
1.0
 76
     1
 77
     6
 78
     2
 67
     7
 79
     5
170
     0
171
     0
290
     0
174
     0
 93
        1
 44
0.0
173
     0
291
     0
 45
0.0
  0
VISUALSTYLE
  5
31
102
{ACAD_REACTORS
330
2A
102
}
330
2A
100
AcDbVisualStyle
  2
3D Hidden
 70
     6
 71
     1
 72
     2
 73
     2
 90
        0
 40
-0.6
 41
-30.0
 62
     5
 63
     7
421
 16777215
 74
     2
 91
        2
 64
     7
 65
   257
 75
     2
175
     1
 42
40.0
 92
        0
 66
   257
 43
1.0
 76
     1
 77
     6
 78
     2
 67
     7
 79
     3
170
     0
171
     0
290
     0
174
     0
 93
        1
 44
0.0
173
     0
291
     0
 45
0.0
  0
VISUALSTYLE
  5
30
102
{ACAD_REACTORS
330
2A
102
}
330
2A
100
AcDbVisualStyle
  2
3dWireframe
 70
     5
 71
     0
 72
     2
 73
     0
 90
        0
 40
-0.6
 41
-30.0
 62
     5
 63
     7
421
 16777215
 74
     1
 91
        4
 64
     7
 65
   257
 75
     1
175
     1
 42
1.0
 92
        0
 66
   257
 43
1.0
 76
     1
 77
     6
 78
     2
 67
     7
 79
     5
170
     0
171
     0
290
     0
174
     0
 93
        1
 44
0.0
173
     0
291
     0
 45
0.0
  0
VISUALSTYLE
  5
32
102
{ACAD_REACTORS
330
2A
102
}
330
2A
100
AcDbVisualStyle
  2
Basic
 70
     7
 71
     1
 72
     0
 73
     1
 90
        0
 40
-0.6
 41
-30.0
 62
     5
 63
     7
421
 16777215
 74
     0
 91
        4
 64
     7
 65
   257
 75
     1
175
     1
 42
1.0
 92
        8
 66
     7
 43
1.0
 76
     1
 77
     6
 78
     2
 67
     7
 79
     5
170
     0
171
     0
290
     0
174
     0
 93
        1
 44
0.0
173
     0
291
     1
 45
0.0
  0
VISUALSTYLE
  5
36
102
{ACAD_REACTORS
330
2A
102
}
330
2A
100
AcDbVisualStyle
  2
Brighten
 70
    12
 71
     2
 72
     2
 73
     0
 90
        0
 40
-0.6
 41
-30.0
 62
     5
 63
     7
421
 16777215
 74
     1
 91
        4
 64
     7
 65
   257
 75
     1
175
     1
 42
1.0
 92
        8
 66
     7
 43
1.0
 76
     1
 77
     6
 78
     2
 67
     7
 79
     5
170
     0
171
     0
290
     0
174
     0
 93
        1
 44
50.0
173
     0
291
     1
 45
0.0
  0
VISUALSTYLE
  5
3A
102
{ACAD_REACTORS
330
2A
102
}
330
2A
100
AcDbVisualStyle
  2
ColorChange
 70
    16
 71
     2
 72
     2
 73
     3
 90
        0
 40
-0.6
 41
-30.0
 62
     5
 63
     8
421
  8421504
 74
     1
 91
        4
 64
     7
 65
   257
 75
     1
175
     1
 42
1.0
 92
        8
 66
     8
424
  8421504
 43
1.0
 76
     1
 77
     6
 78
     2
 67
     7
 79
     5
170
     0
171
     0
290
     0
174
     0
 93
        1
 44
0.0
173
     0
291
     1
 45
0.0
  0
VISUALSTYLE
  5
34
102
{ACAD_REACTORS
330
2A
102
}
330
2A
100
AcDbVisualStyle
  2
Conceptual
 70
     9
 71
     3
 72
     2
 73
     0
 90
        0
 40
-0.6
 41
-30.0
 62
     5
 63
     7
421
 16777215
 74
     2
 91
        2
 64
     7
 65
   257
 75
     1
175
     1
 42
40.0
 92
        8
 66
     7
 43
1.0
 76
     1
 77
     6
 78
     2
 67
     7
 79
     3
170
     0
171
     0
290
     0
174
     0
 93
        1
 44
0.0
173
     0
291
     0
 45
0.0
  0
VISUALSTYLE
  5
35
102
{ACAD_REACTORS
330
2A
102
}
330
2A
100
AcDbVisualStyle
  2
Dim
 70
    11
 71
     2
 72
     2
 73
     0
 90
        0
 40
-0.6
 41
-30.0
 62
     5
 63
     7
421
 16777215
 74
     1
 91
        4
 64
     7
 65
   257
 75
     1
175
     1
 42
1.0
 92
        8
 66
     7
 43
1.0
 76
     1
 77
     6
 78
     2
 67
     7
 79
     5
170
     0
171
     0
290
     0
174
     0
 93
        1
 44
-50.0
173
     0
291
     1
 45
0.0
  0
VISUALSTYLE
  5
39
102
{ACAD_REACTORS
330
2A
102
}
330
2A
100
AcDbVisualStyle
  2
Facepattern
 70
    15
 71
     2
 72
     2
 73
     0
 90
        0
 40
-0.6
 41
-30.0
 62
     5
 63
     7
421
 16777215
 74
     1
 91
        4
 64
     7
 65
   257
 75
     1
175
     1
 42
1.0
 92
        8
 66
     7
 43
1.0
 76
     1
 77
     6
 78
     2
 67
     7
 79
     5
170
     0
171
     0
290
     0
174
     0
 93
        1
 44
0.0
173
     0
291
     1
 45
0.0
  0
VISUALSTYLE
  5
2B
102
{ACAD_REACTORS
330
2A
102
}
330
2A
100
AcDbVisualStyle
  2
Flat
 70
     0
 71
     2
 72
     1
 73
     1
 90
        2
 40
-0.6
 41
30.0
 62
     5
 63
     7
421
 16777215
 74
     0
 91
        4
 64
     7
 65
   257
 75
     1
175
     1
 42
1.0
 92
        8
 66
     7
 43
1.0
 76
     1
 77
     6
 78
     2
 67
     7
 79
     5
170
     0
171
     0
290
     0
174
     0
 93
       13
 44
0.0
173
     0
291
     1
 45
0.0
  0
VISUALSTYLE
  5
2C
102
{ACAD_REACTORS
330
2A
102
}
330
2A
100
AcDbVisualStyle
  2
FlatWithEdges
 70
     1
 71
     2
 72
     1
 73
     1
 90
        2
 40
-0.6
 41
30.0
 62
     5
 63
     7
421
 16777215
 74
     1
 91
        4
 64
     7
 65
   257
 75
     1
175
     1
 42
1.0
 92
        0
 66
   257
 43
1.0
 76
     1
 77
     6
 78
     2
 67
     7
 79
     5
170
     0
171
     0
290
     0
174
     0
 93
       13
 44
0.0
173
     0
291
     1
 45
0.0
  0
VISUALSTYLE
  5
2D
102
{ACAD_REACTORS
330
2A
102
}
330
2A
100
AcDbVisualStyle
  2
Gouraud
 70
     2
 71
     2
 72
     2
 73
     1
 90
        2
 40
-0.6
 41
30.0
 62
     5
 63
     7
421
 16777215
 74
     0
 91
        4
 64
     7
 65
   257
 75
     1
175
     1
 42
1.0
 92
        0
 66
     7
 43
1.0
 76
     1
 77
     6
 78
     2
 67
     7
 79
     5
170
     0
171
     0
290
     0
174
     0
 93
       13
 44
0.0
173
     0
291
     1
 45
0.0
  0
VISUALSTYLE
  5
2E
102
{ACAD_REACTORS
330
2A
102
}
330
2A
100
AcDbVisualStyle
  2
GouraudWithEdges
 70
     3
 71
     2
 72
     2
 73
     1
 90
        2
 40
-0.6
 41
30.0
 62
     5
 63
     7
421
 16777215
 74
     1
 91
        4
 64
     7
 65
   257
 75
     1
175
     1
 42
1.0
 92
        0
 66
   257
 43
1.0
 76
     1
 77
     6
 78
     2
 67
     7
 79
     5
170
     0
171
     0
290
     0
174
     0
 93
       13
 44
0.0
173
     0
291
     1
 45
0.0
  0
VISUALSTYLE
  5
38
102
{ACAD_REACTORS
330
2A
102
}
330
2A
100
AcDbVisualStyle
  2
Linepattern
 70
    14
 71
     2
 72
     2
 73
     0
 90
        0
 40
-0.6
 41
-30.0
 62
     5
 63
     7
421
 16777215
 74
     1
 91
        4
 64
     7
 65
   257
 75
     7
175
     7
 42
1.0
 92
        8
 66
     7
 43
1.0
 76
     1
 77
     6
 78
     2
 67
     7
 79
     5
170
     0
171
     0
290
     0
174
     0
 93
        1
 44
0.0
173
     0
291
     1
 45
0.0
  0
VISUALSTYLE
  5
33
102
{ACAD_REACTORS
330
2A
102
}
330
2A
100
AcDbVisualStyle
  2
Realistic
 70
     8
 71
     2
 72
     2
 73
     0
 90
        0
 40
-0.6
 41
-30.0
 62
     5
 63
     7
421
 16777215
 74
     1
 91
        0
 64
     7
 65
   257
 75
     1
175
     1
 42
1.0
 92
        8
 66
     8
424
  7895160
 43
1.0
 76
     1
 77
     6
 78
     2
 67
     7
 79
     5
170
     0
171
     0
290
     0
174
     0
 93
       13
 44
0.0
173
     0
291
     0
 45
0.0
  0
VISUALSTYLE
  5
37
102
{ACAD_REACTORS
330
2A
102
}
330
2A
100
AcDbVisualStyle
  2
Thicken
 70
    13
 71
     2
 72
     2
 73
     0
 90
        0
 40
-0.6
 41
-30.0
 62
     5
 63
     7
421
 16777215
 74
     1
 91
        4
 64
     7
 65
   257
 75
     1
175
     1
 42
1.0
 92
       12
 66
     7
 43
1.0
 76
     1
 77
     6
 78
     2
 67
     7
 79
     5
170
     0
171
     0
290
     0
174
     0
 93
        1
 44
0.0
173
     0
291
     1
 45
0.0
  0
ENDSEC
  0
EOF
