  0
SECTION
  2
HEADER
  9
$ACADVER
  1
AC1009
  9
$DWGCODEPAGE
  3
ansi_1252
  9
$INSBASE
 10
0.0
 20
0.0
 30
0.0
  9
$EXTMIN
 10
-0.6462616743465851
 20
-0.585552937732765
 30
0.0
  9
$EXTMAX
 10
9.123934854963899
 20
2.80846320783427
 30
0.5
  9
$LIMMIN
 10
0.0
 20
0.0
  9
$LIMMAX
 10
12.0
 20
9.0
  9
$ORTHOMODE
 70
     0
  9
$REGENMODE
 70
     1
  9
$FILLMODE
 70
     1
  9
$QTEXTMODE
 70
     0
  9
$MIRRTEXT
 70
     1
  9
$DRAGMODE
 70
     2
  9
$LTSCALE
 40
1.0
  9
$OSMODE
 70
    37
  9
$ATTMODE
 70
     1
  9
$TEXTSIZE
 40
0.2
  9
$TRACEWID
 40
0.05
  9
$TEXTSTYLE
  7
STANDARD
  9
$CLAYER
  8
0
  9
$CELTYPE
  6
BYBLOCK
  9
$CECOLOR
 62
   256
  9
$DIMSCALE
 40
1.0
  9
$DIMASZ
 40
0.18
  9
$DIMEXO
 40
0.0625
  9
$DIMDLI
 40
0.38
  9
$DIMRND
 40
0.0
  9
$DIMDLE
 40
0.0
  9
$DIMEXE
 40
0.18
  9
$DIMTP
 40
0.0
  9
$DIMTM
 40
0.0
  9
$DIMTXT
 40
0.18
  9
$DIMCEN
 40
0.09
  9
$DIMTSZ
 40
0.0
  9
$DIMTOL
 70
     0
  9
$DIMLIM
 70
     0
  9
$DIMTIH
 70
     1
  9
$DIMTOH
 70
     1
  9
$DIMSE1
 70
     0
  9
$DIMSE2
 70
     0
  9
$DIMTAD
 70
     0
  9
$DIMZIN
 70
     0
  9
$DIMBLK
  1

  9
$DIMASO
 70
     1
  9
$DIMSHO
 70
     1
  9
$DIMPOST
  1

  9
$DIMAPOST
  1

  9
$DIMALT
 70
     0
  9
$DIMALTD
 70
     2
  9
$DIMALTF
 40
25.4
  9
$DIMLFAC
 40
1.0
  9
$DIMTOFL
 70
     0
  9
$DIMTVP
 40
0.0
  9
$DIMTIX
 70
     0
  9
$DIMSOXD
 70
     0
  9
$DIMSAH
 70
     0
  9
$DIMBLK1
  1

  9
$DIMBLK2
  1

  9
$DIMSTYLE
  2
STANDARD
  9
$DIMCLRD
 70
     0
  9
$DIMCLRE
 70
     0
  9
$DIMCLRT
 70
     0
  9
$DIMTFAC
 40
1.0
  9
$DIMGAP
 40
0.09
  9
$LUNITS
 70
     2
  9
$LUPREC
 70
     4
  9
$SKETCHINC
 40
0.1
  9
$FILLETRAD
 40
0.5
  9
$AUNITS
 70
     0
  9
$AUPREC
 70
     0
  9
$MENU
  1
.
  9
$ELEVATION
 40
0.0
  9
$PELEVATION
 40
0.0
  9
$THICKNESS
 40
0.0
  9
$LIMCHECK
 70
     0
  9
$CHAMFERA
 40
0.5
  9
$CHAMFERB
 40
0.5
  9
$SKPOLY
 70
     0
  9
$TDCREATE
 40
2453353.508792488
  9
$TDUPDATE
 40
9821039.872288888
  9
$TDINDWG
 40
9791572.06217926
  9
$TDUSRTIMER
 40
9791572.06217926
  9
$USRTIMER
 70
     1
  9
$ANGBASE
 50
0.0
  9
$ANGDIR
 70
     0
  9
$PDMODE
 70
     0
  9
$PDSIZE
 40
0.0
  9
$PLINEWID
 40
0.0
  9
$COORDS
 70
     1
  9
$SPLFRAME
 70
     0
  9
$SPLINETYPE
 70
     6
  9
$SPLINESEGS
 70
     8
  9
$ATTDIA
 70
     0
  9
$ATTREQ
 70
     1
  9
$HANDLING
 70
     1
  9
$HANDSEED
  5
58B
  9
$SURFTAB1
 70
     6
  9
$SURFTAB2
 70
     6
  9
$SURFTYPE
 70
     6
  9
$SURFU
 70
     6
  9
$SURFV
 70
     6
  9
$UCSNAME
  2

  9
$UCSORG
 10
0.0
 20
0.0
 30
0.0
  9
$UCSXDIR
 10
1.0
 20
0.0
 30
0.0
  9
$UCSYDIR
 10
0.0
 20
1.0
 30
0.0
  9
$PUCSNAME
  2

  9
$PUCSORG
 10
0.0
 20
0.0
 30
0.0
  9
$PUCSXDIR
 10
1.0
 20
0.0
 30
0.0
  9
$PUCSYDIR
 10
0.0
 20
1.0
 30
0.0
  9
$USERI1
 70
     0
  9
$USERI2
 70
     0
  9
$USERI3
 70
     0
  9
$USERI4
 70
     0
  9
$USERI5
 70
     0
  9
$USERR1
 40
0.0
  9
$USERR2
 40
0.0
  9
$USERR3
 40
0.0
  9
$USERR4
 40
0.0
  9
$USERR5
 40
0.0
  9
$WORLDVIEW
 70
     1
  9
$SHADEDGE
 70
     3
  9
$SHADEDIF
 70
    70
  9
$TILEMODE
 70
     1
  9
$MAXACTVP
 70
    64
  9
$PLIMCHECK
 70
     0
  9
$PEXTMIN
 10
0.0
 20
0.0
 30
0.0
  9
$PEXTMAX
 10
0.0
 20
0.0
 30
0.0
  9
$PLIMMIN
 10
0.0
 20
0.0
  9
$PLIMMAX
 10
0.0
 20
0.0
  9
$UNITMODE
 70
     0
  9
$VISRETAIN
 70
     1
  9
$PLINEGEN
 70
     0
  9
$PSLTSCALE
 70
     1
  0
ENDSEC
  0
SECTION
  2
TABLES
  0
TABLE
  2
VPORT
 70
     1
  0
VPORT
  2
*ACTIVE
 70
     0
 10
0.0
 20
0.0
 11
1.0
 21
1.0
 12
4.076290574388024
 22
1.086012625421628
 13
0.0
 23
0.0
 14
0.5
 24
0.5
 15
0.5
 25
0.5
 16
0.0
 26
0.0
 36
1.0
 17
0.0
 27
0.0
 37
0.0
 40
4.657084728890041
 41
1.0
 42
50.0
 43
0.0
 44
0.0
 50
0.0
 51
0.0
 71
    16
 72
   100
 73
     1
 74
     3
 75
     0
 76
     0
 77
     0
 78
     0
  0
ENDTAB
  0
TABLE
  2
LTYPE
 70
     1
  0
LTYPE
  2
CONTINUOUS
 70
     0
  3
Solid line
 72
    65
 73
     0
 40
0.0
  0
ENDTAB
  0
TABLE
  2
LAYER
 70
     1
  0
LAYER
  2
0
 70
     0
 62
     7
  6
CONTINUOUS
  0
ENDTAB
  0
TABLE
  2
STYLE
 70
     1
  0
STYLE
  2
STANDARD
 70
     0
 40
0.0
 41
1.0
 50
0.0
 71
     0
 42
0.2
  3
txt
  4

  0
ENDTAB
  0
TABLE
  2
VIEW
 70
     0
  0
ENDTAB
  0
TABLE
  2
UCS
 70
     0
  0
ENDTAB
  0
TABLE
  2
APPID
 70
     1
  0
APPID
  2
ACAD
 70
     0
  0
ENDTAB
  0
TABLE
  2
DIMSTYLE
 70
     1
  0
DIMSTYLE
  2
STANDARD
 70
     0
  3

  4

  5

  6

  7

 40
1.0
 41
0.18
 42
0.0625
 43
0.38
 44
0.18
 45
0.0
 46
0.0
 47
0.0
 48
0.0
140
0.18
141
0.09
142
0.0
143
25.4
144
1.0
145
0.0
146
1.0
147
0.09
 71
     0
 72
     0
 73
     1
 74
     1
 75
     0
 76
     0
 77
     0
 78
     0
170
     0
171
     2
172
     0
173
     0
174
     0
175
     0
176
     0
177
     0
178
     0
  0
ENDTAB
  0
ENDSEC
  0
SECTION
  2
BLOCKS
  0
BLOCK
  8
0
  2
$MODEL_SPACE
 70
     0
 10
0.0
 20
0.0
 30
0.0
  3
$MODEL_SPACE
  1

  0
ENDBLK
  5
21
  8
0
  0
BLOCK
 67
     1
  8
0
  2
$PAPER_SPACE
 70
     0
 10
0.0
 20
0.0
 30
0.0
  3
$PAPER_SPACE
  1

  0
ENDBLK
  5
76
 67
     1
  8
0
  0
ENDSEC
  0
SECTION
  2
ENTITIES
  0
LINE
  5
23
  8
0
 62
     6
 10
0.4728707667342809
 20
1.296146044624747
 30
0.5
 11
0.4728707667342809
 21
2.250248044624747
 31
0.5
  0
LINE
  5
24
  8
0
 62
     6
 10
0.4728707667342809
 20
2.250248044624747
 30
0.5
 11
1.116425766734281
 21
2.250248044624747
 31
0.5
  0
LINE
  5
25
  8
0
 62
     6
 10
1.116425766734281
 20
2.250248044624747
 30
0.5
 11
1.116425766734281
 21
2.136966044624747
 31
0.5
  0
LINE
  5
26
  8
0
 62
     6
 10
1.116425766734281
 20
2.136966044624747
 30
0.5
 11
0.5998247667342804
 21
2.136966044624747
 31
0.5
  0
LINE
  5
52D
  8
0
 62
     6
 10
0.5998247667342804
 20
2.136966044624747
 30
0.5
 11
0.5998247667342804
 21
1.842044044624747
 31
0.5
  0
LINE
  5
28
  8
0
 62
     6
 10
0.5998247667342804
 20
1.842044044624747
 30
0.5
 11
1.048066766734281
 21
1.842044044624747
 31
0.5
  0
LINE
  5
29
  8
0
 62
     6
 10
1.048066766734281
 20
1.842044044624747
 30
0.5
 11
1.048066766734281
 21
1.728763044624747
 31
0.5
  0
LINE
  5
2A
  8
0
 62
     6
 10
1.048066766734281
 20
1.728763044624747
 30
0.5
 11
0.5998247667342804
 21
1.728763044624747
 31
0.5
  0
LINE
  5
2B
  8
0
 62
     6
 10
0.5998247667342804
 20
1.728763044624747
 30
0.5
 11
0.5998247667342804
 21
1.296146044624747
 31
0.5
  0
LINE
  5
2C
  8
0
 62
     6
 10
0.5998247667342804
 20
1.296146044624747
 30
0.5
 11
0.4728707667342809
 21
1.296146044624747
 31
0.5
  0
LINE
  5
2D
  8
0
 62
     6
 10
1.414277766734281
 20
1.296146044624747
 30
0.5
 11
1.28732476673428
 21
1.296146044624747
 31
0.5
  0
LINE
  5
2E
  8
0
 62
     6
 10
1.28732476673428
 20
1.296146044624747
 30
0.5
 11
1.28732476673428
 21
2.250248044624747
 31
0.5
  0
LINE
  5
2F
  8
0
 62
     6
 10
1.28732476673428
 20
2.250248044624747
 30
0.5
 11
1.710175766734281
 21
2.250248044624747
 31
0.5
  0
LINE
  5
30
  8
0
 62
     6
 10
1.710175766734281
 20
2.250248044624747
 30
0.5
 11
1.731659766734281
 21
2.250248044624747
 31
0.5
  0
LINE
  5
31
  8
0
 62
     6
 10
1.731659766734281
 20
2.250248044624747
 30
0.5
 11
1.751191766734281
 21
2.249271044624747
 31
0.5
  0
LINE
  5
32
  8
0
 62
     6
 10
1.751191766734281
 20
2.249271044624747
 30
0.5
 11
1.770722766734281
 21
2.249271044624747
 31
0.5
  0
LINE
  5
33
  8
0
 62
     6
 10
1.770722766734281
 20
2.249271044624747
 30
0.5
 11
1.789277766734281
 21
2.247318044624747
 31
0.5
  0
LINE
  5
34
  8
0
 62
     6
 10
1.789277766734281
 20
2.247318044624747
 30
0.5
 11
1.806855766734281
 21
2.246341044624747
 31
0.5
  0
LINE
  5
35
  8
0
 62
     6
 10
1.806855766734281
 20
2.246341044624747
 30
0.5
 11
1.824433766734281
 21
2.244388044624746
 31
0.5
  0
LINE
  5
36
  8
0
 62
     6
 10
1.824433766734281
 20
2.244388044624746
 30
0.5
 11
1.840058766734281
 21
2.241459044624746
 31
0.5
  0
LINE
  5
37
  8
0
 62
     6
 10
1.840058766734281
 20
2.241459044624746
 30
0.5
 11
1.854706766734281
 21
2.239505044624746
 31
0.5
  0
LINE
  5
38
  8
0
 62
     6
 10
1.854706766734281
 20
2.239505044624746
 30
0.5
 11
1.869355766734281
 21
2.236576044624747
 31
0.5
  0
LINE
  5
39
  8
0
 62
     6
 10
1.869355766734281
 20
2.236576044624747
 30
0.5
 11
1.88400376673428
 21
2.232669044624747
 31
0.5
  0
LINE
  5
3A
  8
0
 62
     6
 10
1.88400376673428
 20
2.232669044624747
 30
0.5
 11
1.89669976673428
 21
2.227787044624747
 31
0.5
  0
LINE
  5
3B
  8
0
 62
     6
 10
1.89669976673428
 20
2.227787044624747
 30
0.5
 11
1.910370766734281
 21
2.221927044624747
 31
0.5
  0
LINE
  5
3C
  8
0
 62
     6
 10
1.910370766734281
 20
2.221927044624747
 30
0.5
 11
1.923066766734281
 21
2.216068044624747
 31
0.5
  0
LINE
  5
3D
  8
0
 62
     6
 10
1.923066766734281
 20
2.216068044624747
 30
0.5
 11
1.934784766734281
 21
2.209232044624747
 31
0.5
  0
LINE
  5
3E
  8
0
 62
     6
 10
1.934784766734281
 20
2.209232044624747
 30
0.5
 11
1.94650376673428
 21
2.201419044624747
 31
0.5
  0
LINE
  5
3F
  8
0
 62
     6
 10
1.94650376673428
 20
2.201419044624747
 30
0.5
 11
1.958222766734281
 21
2.192630044624746
 31
0.5
  0
LINE
  5
40
  8
0
 62
     6
 10
1.958222766734281
 20
2.192630044624746
 30
0.5
 11
1.968964766734281
 21
2.183841044624747
 31
0.5
  0
LINE
  5
41
  8
0
 62
     6
 10
1.968964766734281
 20
2.183841044624747
 30
0.5
 11
1.978730766734281
 21
2.174076044624747
 31
0.5
  0
LINE
  5
42
  8
0
 62
     6
 10
1.978730766734281
 20
2.174076044624747
 30
0.5
 11
1.988495766734281
 21
2.163334044624746
 31
0.5
  0
LINE
  5
43
  8
0
 62
     6
 10
1.988495766734281
 20
2.163334044624746
 30
0.5
 11
1.997284766734281
 21
2.152591044624747
 31
0.5
  0
LINE
  5
44
  8
0
 62
     6
 10
1.997284766734281
 20
2.152591044624747
 30
0.5
 11
2.005097766734281
 21
2.140873044624747
 31
0.5
  0
LINE
  5
45
  8
0
 62
     6
 10
2.005097766734281
 20
2.140873044624747
 30
0.5
 11
2.012909766734281
 21
2.129154044624746
 31
0.5
  0
LINE
  5
46
  8
0
 62
     6
 10
2.012909766734281
 20
2.129154044624746
 30
0.5
 11
2.019745766734281
 21
2.116459044624746
 31
0.5
  0
LINE
  5
47
  8
0
 62
     6
 10
2.019745766734281
 20
2.116459044624746
 30
0.5
 11
2.025605766734281
 21
2.102787044624747
 31
0.5
  0
LINE
  5
48
  8
0
 62
     6
 10
2.025605766734281
 20
2.102787044624747
 30
0.5
 11
2.031464766734281
 21
2.090091044624747
 31
0.5
  0
LINE
  5
49
  8
0
 62
     6
 10
2.031464766734281
 20
2.090091044624747
 30
0.5
 11
2.036347766734281
 21
2.075443044624747
 31
0.5
  0
LINE
  5
4A
  8
0
 62
     6
 10
2.036347766734281
 20
2.075443044624747
 30
0.5
 11
2.04025376673428
 21
2.061771044624747
 31
0.5
  0
LINE
  5
4B
  8
0
 62
     6
 10
2.04025376673428
 20
2.061771044624747
 30
0.5
 11
2.044159766734281
 21
2.048099044624747
 31
0.5
  0
LINE
  5
4C
  8
0
 62
     6
 10
2.044159766734281
 20
2.048099044624747
 30
0.5
 11
2.046113766734281
 21
2.033451044624747
 31
0.5
  0
LINE
  5
4D
  8
0
 62
     6
 10
2.046113766734281
 20
2.033451044624747
 30
0.5
 11
2.048066766734281
 21
2.018802044624747
 31
0.5
  0
LINE
  5
4E
  8
0
 62
     6
 10
2.048066766734281
 20
2.018802044624747
 30
0.5
 11
2.049042766734281
 21
2.004154044624746
 31
0.5
  0
LINE
  5
4F
  8
0
 62
     6
 10
2.049042766734281
 20
2.004154044624746
 30
0.5
 11
2.05001976673428
 21
1.989505044624746
 31
0.5
  0
LINE
  5
50
  8
0
 62
     6
 10
2.05001976673428
 20
1.989505044624746
 30
0.5
 11
2.049042766734281
 21
1.963138044624747
 31
0.5
  0
LINE
  5
51
  8
0
 62
     6
 10
2.049042766734281
 20
1.963138044624747
 30
0.5
 11
2.045136766734281
 21
1.937748044624747
 31
0.5
  0
LINE
  5
52
  8
0
 62
     6
 10
2.045136766734281
 20
1.937748044624747
 30
0.5
 11
2.04025376673428
 21
1.914310044624747
 31
0.5
  0
LINE
  5
53
  8
0
 62
     6
 10
2.04025376673428
 20
1.914310044624747
 30
0.5
 11
2.032441766734281
 21
1.891849044624747
 31
0.5
  0
LINE
  5
54
  8
0
 62
     6
 10
2.032441766734281
 20
1.891849044624747
 30
0.5
 11
2.022675766734281
 21
1.870365044624747
 31
0.5
  0
LINE
  5
55
  8
0
 62
     6
 10
2.022675766734281
 20
1.870365044624747
 30
0.5
 11
2.010956766734281
 21
1.850834044624746
 31
0.5
  0
LINE
  5
56
  8
0
 62
     6
 10
2.010956766734281
 20
1.850834044624746
 30
0.5
 11
1.997284766734281
 21
1.832279044624747
 31
0.5
  0
LINE
  5
57
  8
0
 62
     6
 10
1.997284766734281
 20
1.832279044624747
 30
0.5
 11
1.981659766734281
 21
1.815677044624747
 31
0.5
  0
LINE
  5
58
  8
0
 62
     6
 10
1.981659766734281
 20
1.815677044624747
 30
0.5
 11
1.963105766734281
 21
1.800052044624747
 31
0.5
  0
LINE
  5
52E
  8
0
 62
     6
 10
1.963105766734281
 20
1.800052044624747
 30
0.5
 11
1.94357476673428
 21
1.785404044624747
 31
0.5
  0
LINE
  5
52F
  8
0
 62
     6
 10
1.94357476673428
 20
1.785404044624747
 30
0.5
 11
1.921113766734281
 21
1.772709044624747
 31
0.5
  0
LINE
  5
5B
  8
0
 62
     6
 10
1.921113766734281
 20
1.772709044624747
 30
0.5
 11
1.897675766734281
 21
1.761966044624747
 31
0.5
  0
LINE
  5
5C
  8
0
 62
     6
 10
1.897675766734281
 20
1.761966044624747
 30
0.5
 11
1.871308766734281
 21
1.752201044624747
 31
0.5
  0
LINE
  5
5D
  8
0
 62
     6
 10
1.871308766734281
 20
1.752201044624747
 30
0.5
 11
1.843964766734281
 21
1.744388044624747
 31
0.5
  0
LINE
  5
530
  8
0
 62
     6
 10
1.843964766734281
 20
1.744388044624747
 30
0.5
 11
1.813691766734281
 21
1.737552044624747
 31
0.5
  0
LINE
  5
5F
  8
0
 62
     6
 10
1.813691766734281
 20
1.737552044624747
 30
0.5
 11
1.782441766734281
 21
1.732669044624747
 31
0.5
  0
LINE
  5
60
  8
0
 62
     6
 10
1.782441766734281
 20
1.732669044624747
 30
0.5
 11
1.782441766734281
 21
1.729740044624747
 31
0.5
  0
LINE
  5
61
  8
0
 62
     6
 10
1.782441766734281
 20
1.729740044624747
 30
0.5
 11
1.80587876673428
 21
1.718021044624747
 31
0.5
  0
LINE
  5
62
  8
0
 62
     6
 10
1.80587876673428
 20
1.718021044624747
 30
0.5
 11
1.829316766734281
 21
1.703373044624747
 31
0.5
  0
LINE
  5
63
  8
0
 62
     6
 10
1.829316766734281
 20
1.703373044624747
 30
0.5
 11
1.85275376673428
 21
1.685794044624747
 31
0.5
  0
LINE
  5
64
  8
0
 62
     6
 10
1.85275376673428
 20
1.685794044624747
 30
0.5
 11
1.875214766734281
 21
1.665287044624747
 31
0.5
  0
LINE
  5
65
  8
0
 62
     6
 10
1.875214766734281
 20
1.665287044624747
 30
0.5
 11
1.897675766734281
 21
1.641849044624747
 31
0.5
  0
LINE
  5
66
  8
0
 62
     6
 10
1.897675766734281
 20
1.641849044624747
 30
0.5
 11
1.919159766734281
 21
1.616459044624747
 31
0.5
  0
LINE
  5
67
  8
0
 62
     6
 10
1.919159766734281
 20
1.616459044624747
 30
0.5
 11
1.94064476673428
 21
1.587162044624747
 31
0.5
  0
LINE
  5
68
  8
0
 62
     6
 10
1.94064476673428
 20
1.587162044624747
 30
0.5
 11
1.96212876673428
 21
1.555912044624747
 31
0.5
  0
LINE
  5
69
  8
0
 62
     6
 10
1.96212876673428
 20
1.555912044624747
 30
0.5
 11
2.12814476673428
 21
1.296146044624747
 31
0.5
  0
LINE
  5
6A
  8
0
 62
     6
 10
2.12814476673428
 20
1.296146044624747
 30
0.5
 11
1.969941766734281
 21
1.296146044624747
 31
0.5
  0
LINE
  5
531
  8
0
 62
     6
 10
1.969941766734281
 20
1.296146044624747
 30
0.5
 11
1.935761766734281
 21
1.349857044624747
 31
0.5
  0
LINE
  5
532
  8
0
 62
     6
 10
1.935761766734281
 20
1.349857044624747
 30
0.5
 11
1.905488766734281
 21
1.397709044624747
 31
0.5
  0
LINE
  5
6D
  8
0
 62
     6
 10
1.905488766734281
 20
1.397709044624747
 30
0.5
 11
1.87814476673428
 21
1.440677044624747
 31
0.5
  0
LINE
  5
6E
  8
0
 62
     6
 10
1.87814476673428
 20
1.440677044624747
 30
0.5
 11
1.854706766734281
 21
1.477787044624747
 31
0.5
  0
LINE
  5
6F
  8
0
 62
     6
 10
1.854706766734281
 20
1.477787044624747
 30
0.5
 11
1.83419976673428
 21
1.510013044624747
 31
0.5
  0
LINE
  5
70
  8
0
 62
     6
 10
1.83419976673428
 20
1.510013044624747
 30
0.5
 11
1.816620766734281
 21
1.536380044624747
 31
0.5
  0
LINE
  5
71
  8
0
 62
     6
 10
1.816620766734281
 20
1.536380044624747
 30
0.5
 11
1.80294976673428
 21
1.556888044624747
 31
0.5
  0
LINE
  5
72
  8
0
 62
     6
 10
1.80294976673428
 20
1.556888044624747
 30
0.5
 11
1.793183766734281
 21
1.572513044624747
 31
0.5
  0
LINE
  5
533
  8
0
 62
     6
 10
1.793183766734281
 20
1.572513044624747
 30
0.5
 11
1.78439476673428
 21
1.585209044624747
 31
0.5
  0
LINE
  5
534
  8
0
 62
     6
 10
1.78439476673428
 20
1.585209044624747
 30
0.5
 11
1.775605766734281
 21
1.597904044624747
 31
0.5
  0
LINE
  5
535
  8
0
 62
     6
 10
1.775605766734281
 20
1.597904044624747
 30
0.5
 11
1.766816766734281
 21
1.609623044624747
 31
0.5
  0
LINE
  5
536
  8
0
 62
     6
 10
1.766816766734281
 20
1.609623044624747
 30
0.5
 11
1.757050766734281
 21
1.620365044624747
 31
0.5
  0
LINE
  5
77
  8
0
 62
     6
 10
1.757050766734281
 20
1.620365044624747
 30
0.5
 11
1.748261766734281
 21
1.631107044624747
 31
0.5
  0
LINE
  5
78
  8
0
 62
     6
 10
1.748261766734281
 20
1.631107044624747
 30
0.5
 11
1.738495766734281
 21
1.641849044624747
 31
0.5
  0
LINE
  5
79
  8
0
 62
     6
 10
1.738495766734281
 20
1.641849044624747
 30
0.5
 11
1.729706766734281
 21
1.651615044624747
 31
0.5
  0
LINE
  5
7A
  8
0
 62
     6
 10
1.729706766734281
 20
1.651615044624747
 30
0.5
 11
1.719941766734281
 21
1.661380044624747
 31
0.5
  0
LINE
  5
7B
  8
0
 62
     6
 10
1.719941766734281
 20
1.661380044624747
 30
0.5
 11
1.711152766734281
 21
1.670169044624747
 31
0.5
  0
LINE
  5
7C
  8
0
 62
     6
 10
1.711152766734281
 20
1.670169044624747
 30
0.5
 11
1.701386766734281
 21
1.677982044624747
 31
0.5
  0
LINE
  5
7D
  8
0
 62
     6
 10
1.701386766734281
 20
1.677982044624747
 30
0.5
 11
1.692597766734281
 21
1.684818044624747
 31
0.5
  0
LINE
  5
7E
  8
0
 62
     6
 10
1.692597766734281
 20
1.684818044624747
 30
0.5
 11
1.682831766734281
 21
1.690677044624747
 31
0.5
  0
LINE
  5
7F
  8
0
 62
     6
 10
1.682831766734281
 20
1.690677044624747
 30
0.5
 11
1.674042766734281
 21
1.696537044624747
 31
0.5
  0
LINE
  5
80
  8
0
 62
     6
 10
1.674042766734281
 20
1.696537044624747
 30
0.5
 11
1.66525376673428
 21
1.701419044624747
 31
0.5
  0
LINE
  5
81
  8
0
 62
     6
 10
1.66525376673428
 20
1.701419044624747
 30
0.5
 11
1.657441766734281
 21
1.704349044624747
 31
0.5
  0
LINE
  5
82
  8
0
 62
     6
 10
1.657441766734281
 20
1.704349044624747
 30
0.5
 11
1.648652766734281
 21
1.707279044624747
 31
0.5
  0
LINE
  5
83
  8
0
 62
     6
 10
1.648652766734281
 20
1.707279044624747
 30
0.5
 11
1.639863766734281
 21
1.710209044624747
 31
0.5
  0
LINE
  5
84
  8
0
 62
     6
 10
1.639863766734281
 20
1.710209044624747
 30
0.5
 11
1.630097766734281
 21
1.712162044624747
 31
0.5
  0
LINE
  5
85
  8
0
 62
     6
 10
1.630097766734281
 20
1.712162044624747
 30
0.5
 11
1.620331766734281
 21
1.713138044624747
 31
0.5
  0
LINE
  5
86
  8
0
 62
     6
 10
1.620331766734281
 20
1.713138044624747
 30
0.5
 11
1.609589766734281
 21
1.715091044624747
 31
0.5
  0
LINE
  5
87
  8
0
 62
     6
 10
1.609589766734281
 20
1.715091044624747
 30
0.5
 11
1.597870766734281
 21
1.716068044624747
 31
0.5
  0
LINE
  5
88
  8
0
 62
     6
 10
1.597870766734281
 20
1.716068044624747
 30
0.5
 11
1.586152766734281
 21
1.717044044624747
 31
0.5
  0
LINE
  5
89
  8
0
 62
     6
 10
1.586152766734281
 20
1.717044044624747
 30
0.5
 11
1.573456766734281
 21
1.717044044624747
 31
0.5
  0
LINE
  5
8A
  8
0
 62
     6
 10
1.573456766734281
 20
1.717044044624747
 30
0.5
 11
1.559784766734281
 21
1.717044044624747
 31
0.5
  0
LINE
  5
8B
  8
0
 62
     6
 10
1.559784766734281
 20
1.717044044624747
 30
0.5
 11
1.414277766734281
 21
1.717044044624747
 31
0.5
  0
LINE
  5
8C
  8
0
 62
     6
 10
1.414277766734281
 20
1.717044044624747
 30
0.5
 11
1.414277766734281
 21
1.296146044624747
 31
0.5
  0
LINE
  5
8D
  8
0
 62
     6
 10
1.715058766734281
 20
2.145755044624746
 30
0.5
 11
1.741425766734281
 21
2.144779044624746
 31
0.5
  0
LINE
  5
8E
  8
0
 62
     6
 10
1.741425766734281
 20
2.144779044624746
 30
0.5
 11
1.765839766734281
 21
2.142826044624747
 31
0.5
  0
LINE
  5
8F
  8
0
 62
     6
 10
1.765839766734281
 20
2.142826044624747
 30
0.5
 11
1.788300766734281
 21
2.138919044624747
 31
0.5
  0
LINE
  5
90
  8
0
 62
     6
 10
1.788300766734281
 20
2.138919044624747
 30
0.5
 11
1.808808766734281
 21
2.134037044624747
 31
0.5
  0
LINE
  5
91
  8
0
 62
     6
 10
1.808808766734281
 20
2.134037044624747
 30
0.5
 11
1.827363766734281
 21
2.128177044624747
 31
0.5
  0
LINE
  5
537
  8
0
 62
     6
 10
1.827363766734281
 20
2.128177044624747
 30
0.5
 11
1.844941766734281
 21
2.120365044624747
 31
0.5
  0
LINE
  5
538
  8
0
 62
     6
 10
1.844941766734281
 20
2.120365044624747
 30
0.5
 11
1.859589766734281
 21
2.110599044624747
 31
0.5
  0
LINE
  5
94
  8
0
 62
     6
 10
1.859589766734281
 20
2.110599044624747
 30
0.5
 11
1.872284766734281
 21
2.099857044624747
 31
0.5
  0
LINE
  5
95
  8
0
 62
     6
 10
1.872284766734281
 20
2.099857044624747
 30
0.5
 11
1.883027766734281
 21
2.088138044624746
 31
0.5
  0
LINE
  5
96
  8
0
 62
     6
 10
1.883027766734281
 20
2.088138044624746
 30
0.5
 11
1.892792766734281
 21
2.076419044624747
 31
0.5
  0
LINE
  5
539
  8
0
 62
     6
 10
1.892792766734281
 20
2.076419044624747
 30
0.5
 11
1.900605766734281
 21
2.062748044624747
 31
0.5
  0
LINE
  5
53A
  8
0
 62
     6
 10
1.900605766734281
 20
2.062748044624747
 30
0.5
 11
1.907441766734281
 21
2.049076044624747
 31
0.5
  0
LINE
  5
99
  8
0
 62
     6
 10
1.907441766734281
 20
2.049076044624747
 30
0.5
 11
1.913300766734281
 21
2.035404044624746
 31
0.5
  0
LINE
  5
9A
  8
0
 62
     6
 10
1.913300766734281
 20
2.035404044624746
 30
0.5
 11
1.916230766734281
 21
2.020755044624746
 31
0.5
  0
LINE
  5
9B
  8
0
 62
     6
 10
1.916230766734281
 20
2.020755044624746
 30
0.5
 11
1.919159766734281
 21
2.005130044624746
 31
0.5
  0
LINE
  5
9C
  8
0
 62
     6
 10
1.919159766734281
 20
2.005130044624746
 30
0.5
 11
1.919159766734281
 21
1.989505044624746
 31
0.5
  0
LINE
  5
9D
  8
0
 62
     6
 10
1.919159766734281
 20
1.989505044624746
 30
0.5
 11
1.919159766734281
 21
1.976810044624747
 31
0.5
  0
LINE
  5
9E
  8
0
 62
     6
 10
1.919159766734281
 20
1.976810044624747
 30
0.5
 11
1.918183766734281
 21
1.965091044624747
 31
0.5
  0
LINE
  5
9F
  8
0
 62
     6
 10
1.918183766734281
 20
1.965091044624747
 30
0.5
 11
1.91525376673428
 21
1.953373044624747
 31
0.5
  0
LINE
  5
A0
  8
0
 62
     6
 10
1.91525376673428
 20
1.953373044624747
 30
0.5
 11
1.91232476673428
 21
1.941654044624747
 31
0.5
  0
LINE
  5
A1
  8
0
 62
     6
 10
1.91232476673428
 20
1.941654044624747
 30
0.5
 11
1.908417766734281
 21
1.930912044624747
 31
0.5
  0
LINE
  5
A2
  8
0
 62
     6
 10
1.908417766734281
 20
1.930912044624747
 30
0.5
 11
1.903534766734281
 21
1.919193044624747
 31
0.5
  0
LINE
  5
A3
  8
0
 62
     6
 10
1.903534766734281
 20
1.919193044624747
 30
0.5
 11
1.897675766734281
 21
1.909427044624747
 31
0.5
  0
LINE
  5
A4
  8
0
 62
     6
 10
1.897675766734281
 20
1.909427044624747
 30
0.5
 11
1.890839766734281
 21
1.898685044624747
 31
0.5
  0
LINE
  5
A5
  8
0
 62
     6
 10
1.890839766734281
 20
1.898685044624747
 30
0.5
 11
1.88400376673428
 21
1.888919044624747
 31
0.5
  0
LINE
  5
A6
  8
0
 62
     6
 10
1.88400376673428
 20
1.888919044624747
 30
0.5
 11
1.875214766734281
 21
1.880130044624746
 31
0.5
  0
LINE
  5
A7
  8
0
 62
     6
 10
1.875214766734281
 20
1.880130044624746
 30
0.5
 11
1.866425766734281
 21
1.872318044624747
 31
0.5
  0
LINE
  5
A8
  8
0
 62
     6
 10
1.866425766734281
 20
1.872318044624747
 30
0.5
 11
1.857636766734281
 21
1.865482044624747
 31
0.5
  0
LINE
  5
A9
  8
0
 62
     6
 10
1.857636766734281
 20
1.865482044624747
 30
0.5
 11
1.847870766734281
 21
1.858646044624747
 31
0.5
  0
LINE
  5
AA
  8
0
 62
     6
 10
1.847870766734281
 20
1.858646044624747
 30
0.5
 11
1.83712876673428
 21
1.852787044624747
 31
0.5
  0
LINE
  5
AB
  8
0
 62
     6
 10
1.83712876673428
 20
1.852787044624747
 30
0.5
 11
1.826386766734281
 21
1.848880044624746
 31
0.5
  0
LINE
  5
AC
  8
0
 62
     6
 10
1.826386766734281
 20
1.848880044624746
 30
0.5
 11
1.814667766734281
 21
1.844974044624747
 31
0.5
  0
LINE
  5
AD
  8
0
 62
     6
 10
1.814667766734281
 20
1.844974044624747
 30
0.5
 11
1.801972766734281
 21
1.841068044624747
 31
0.5
  0
LINE
  5
AE
  8
0
 62
     6
 10
1.801972766734281
 20
1.841068044624747
 30
0.5
 11
1.788300766734281
 21
1.838138044624747
 31
0.5
  0
LINE
  5
AF
  8
0
 62
     6
 10
1.788300766734281
 20
1.838138044624747
 30
0.5
 11
1.773652766734281
 21
1.836185044624747
 31
0.5
  0
LINE
  5
B0
  8
0
 62
     6
 10
1.773652766734281
 20
1.836185044624747
 30
0.5
 11
1.758027766734281
 21
1.834232044624747
 31
0.5
  0
LINE
  5
B1
  8
0
 62
     6
 10
1.758027766734281
 20
1.834232044624747
 30
0.5
 11
1.741425766734281
 21
1.832279044624747
 31
0.5
  0
LINE
  5
B2
  8
0
 62
     6
 10
1.741425766734281
 20
1.832279044624747
 30
0.5
 11
1.723847766734281
 21
1.831302044624747
 31
0.5
  0
LINE
  5
B3
  8
0
 62
     6
 10
1.723847766734281
 20
1.831302044624747
 30
0.5
 11
1.704316766734281
 21
1.830326044624747
 31
0.5
  0
LINE
  5
B4
  8
0
 62
     6
 10
1.704316766734281
 20
1.830326044624747
 30
0.5
 11
1.684784766734281
 21
1.830326044624747
 31
0.5
  0
LINE
  5
B5
  8
0
 62
     6
 10
1.684784766734281
 20
1.830326044624747
 30
0.5
 11
1.414277766734281
 21
1.830326044624747
 31
0.5
  0
LINE
  5
B6
  8
0
 62
     6
 10
1.414277766734281
 20
1.830326044624747
 30
0.5
 11
1.414277766734281
 21
2.145755044624746
 31
0.5
  0
LINE
  5
B7
  8
0
 62
     6
 10
1.414277766734281
 20
2.145755044624746
 30
0.5
 11
1.715058766734281
 21
2.145755044624746
 31
0.5
  0
LINE
  5
B8
  8
0
 62
     6
 10
2.249238766734281
 20
2.250248044624747
 30
0.5
 11
2.939667766734281
 21
2.250248044624747
 31
0.5
  0
LINE
  5
B9
  8
0
 62
     6
 10
2.939667766734281
 20
2.250248044624747
 30
0.5
 11
2.939667766734281
 21
2.136966044624747
 31
0.5
  0
LINE
  5
BA
  8
0
 62
     6
 10
2.939667766734281
 20
2.136966044624747
 30
0.5
 11
2.375214766734281
 21
2.136966044624747
 31
0.5
  0
LINE
  5
BB
  8
0
 62
     6
 10
2.375214766734281
 20
2.136966044624747
 30
0.5
 11
2.375214766734281
 21
1.845951044624747
 31
0.5
  0
LINE
  5
BC
  8
0
 62
     6
 10
2.375214766734281
 20
1.845951044624747
 30
0.5
 11
2.903534766734281
 21
1.845951044624747
 31
0.5
  0
LINE
  5
BD
  8
0
 62
     6
 10
2.903534766734281
 20
1.845951044624747
 30
0.5
 11
2.903534766734281
 21
1.732669044624747
 31
0.5
  0
LINE
  5
BE
  8
0
 62
     6
 10
2.903534766734281
 20
1.732669044624747
 30
0.5
 11
2.375214766734281
 21
1.732669044624747
 31
0.5
  0
LINE
  5
BF
  8
0
 62
     6
 10
2.375214766734281
 20
1.732669044624747
 30
0.5
 11
2.375214766734281
 21
1.409427044624747
 31
0.5
  0
LINE
  5
C0
  8
0
 62
     6
 10
2.375214766734281
 20
1.409427044624747
 30
0.5
 11
2.96212876673428
 21
1.409427044624747
 31
0.5
  0
LINE
  5
C1
  8
0
 62
     6
 10
2.96212876673428
 20
1.409427044624747
 30
0.5
 11
2.96212876673428
 21
1.296146044624747
 31
0.5
  0
LINE
  5
C2
  8
0
 62
     6
 10
2.96212876673428
 20
1.296146044624747
 30
0.5
 11
2.249238766734281
 21
1.296146044624747
 31
0.5
  0
LINE
  5
C3
  8
0
 62
     6
 10
2.249238766734281
 20
1.296146044624747
 30
0.5
 11
2.249238766734281
 21
2.250248044624747
 31
0.5
  0
LINE
  5
C4
  8
0
 62
     6
 10
3.137909766734281
 20
2.250248044624747
 30
0.5
 11
3.828339766734281
 21
2.250248044624747
 31
0.5
  0
LINE
  5
C5
  8
0
 62
     6
 10
3.828339766734281
 20
2.250248044624747
 30
0.5
 11
3.828339766734281
 21
2.136966044624747
 31
0.5
  0
LINE
  5
C6
  8
0
 62
     6
 10
3.828339766734281
 20
2.136966044624747
 30
0.5
 11
3.263886766734281
 21
2.136966044624747
 31
0.5
  0
LINE
  5
C7
  8
0
 62
     6
 10
3.263886766734281
 20
2.136966044624747
 30
0.5
 11
3.263886766734281
 21
1.845951044624747
 31
0.5
  0
LINE
  5
C8
  8
0
 62
     6
 10
3.263886766734281
 20
1.845951044624747
 30
0.5
 11
3.792206766734281
 21
1.845951044624747
 31
0.5
  0
LINE
  5
C9
  8
0
 62
     6
 10
3.792206766734281
 20
1.845951044624747
 30
0.5
 11
3.792206766734281
 21
1.732669044624747
 31
0.5
  0
LINE
  5
CA
  8
0
 62
     6
 10
3.792206766734281
 20
1.732669044624747
 30
0.5
 11
3.263886766734281
 21
1.732669044624747
 31
0.5
  0
LINE
  5
CB
  8
0
 62
     6
 10
3.263886766734281
 20
1.732669044624747
 30
0.5
 11
3.263886766734281
 21
1.409427044624747
 31
0.5
  0
LINE
  5
CC
  8
0
 62
     6
 10
3.263886766734281
 20
1.409427044624747
 30
0.5
 11
3.850800766734281
 21
1.409427044624747
 31
0.5
  0
LINE
  5
CD
  8
0
 62
     6
 10
3.850800766734281
 20
1.409427044624747
 30
0.5
 11
3.850800766734281
 21
1.296146044624747
 31
0.5
  0
LINE
  5
CE
  8
0
 62
     6
 10
3.850800766734281
 20
1.296146044624747
 30
0.5
 11
3.137909766734281
 21
1.296146044624747
 31
0.5
  0
LINE
  5
CF
  8
0
 62
     6
 10
3.137909766734281
 20
1.296146044624747
 30
0.5
 11
3.137909766734281
 21
2.250248044624747
 31
0.5
  0
LINE
  5
D0
  8
0
 62
     6
 10
4.62814476673428
 20
2.136966044624747
 30
0.5
 11
4.818574766734281
 21
2.136966044624747
 31
0.5
  0
LINE
  5
D1
  8
0
 62
     6
 10
4.818574766734281
 20
2.136966044624747
 30
0.5
 11
4.836152766734281
 21
2.136966044624747
 31
0.5
  0
LINE
  5
D2
  8
0
 62
     6
 10
4.836152766734281
 20
2.136966044624747
 30
0.5
 11
4.85373076673428
 21
2.136966044624747
 31
0.5
  0
LINE
  5
D3
  8
0
 62
     6
 10
4.85373076673428
 20
2.136966044624747
 30
0.5
 11
4.86935576673428
 21
2.135990044624747
 31
0.5
  0
LINE
  5
D4
  8
0
 62
     6
 10
4.86935576673428
 20
2.135990044624747
 30
0.5
 11
4.88498076673428
 21
2.135013044624746
 31
0.5
  0
LINE
  5
D5
  8
0
 62
     6
 10
4.88498076673428
 20
2.135013044624746
 30
0.5
 11
4.899628766734281
 21
2.134037044624747
 31
0.5
  0
LINE
  5
D6
  8
0
 62
     6
 10
4.899628766734281
 20
2.134037044624747
 30
0.5
 11
4.913300766734281
 21
2.133060044624747
 31
0.5
  0
LINE
  5
D7
  8
0
 62
     6
 10
4.913300766734281
 20
2.133060044624747
 30
0.5
 11
4.925995766734281
 21
2.132084044624746
 31
0.5
  0
LINE
  5
D8
  8
0
 62
     6
 10
4.925995766734281
 20
2.132084044624746
 30
0.5
 11
4.937714766734281
 21
2.130130044624746
 31
0.5
  0
LINE
  5
D9
  8
0
 62
     6
 10
4.937714766734281
 20
2.130130044624746
 30
0.5
 11
4.949433766734281
 21
2.128177044624747
 31
0.5
  0
LINE
  5
DA
  8
0
 62
     6
 10
4.949433766734281
 20
2.128177044624747
 30
0.5
 11
4.960175766734281
 21
2.125248044624747
 31
0.5
  0
LINE
  5
DB
  8
0
 62
     6
 10
4.960175766734281
 20
2.125248044624747
 30
0.5
 11
4.970917766734281
 21
2.121341044624747
 31
0.5
  0
LINE
  5
DC
  8
0
 62
     6
 10
4.970917766734281
 20
2.121341044624747
 30
0.5
 11
4.98165976673428
 21
2.116459044624746
 31
0.5
  0
LINE
  5
DD
  8
0
 62
     6
 10
4.98165976673428
 20
2.116459044624746
 30
0.5
 11
4.991425766734281
 21
2.111576044624747
 31
0.5
  0
LINE
  5
DE
  8
0
 62
     6
 10
4.991425766734281
 20
2.111576044624747
 30
0.5
 11
5.000214766734281
 21
2.104740044624747
 31
0.5
  0
LINE
  5
DF
  8
0
 62
     6
 10
5.000214766734281
 20
2.104740044624747
 30
0.5
 11
5.009003766734281
 21
2.097904044624746
 31
0.5
  0
LINE
  5
E0
  8
0
 62
     6
 10
5.009003766734281
 20
2.097904044624746
 30
0.5
 11
5.017792766734281
 21
2.090091044624747
 31
0.5
  0
LINE
  5
E1
  8
0
 62
     6
 10
5.017792766734281
 20
2.090091044624747
 30
0.5
 11
5.02560576673428
 21
2.082279044624746
 31
0.5
  0
LINE
  5
E2
  8
0
 62
     6
 10
5.02560576673428
 20
2.082279044624746
 30
0.5
 11
5.032441766734281
 21
2.072513044624746
 31
0.5
  0
LINE
  5
E3
  8
0
 62
     6
 10
5.032441766734281
 20
2.072513044624746
 30
0.5
 11
5.038300766734281
 21
2.061771044624747
 31
0.5
  0
LINE
  5
E4
  8
0
 62
     6
 10
5.038300766734281
 20
2.061771044624747
 30
0.5
 11
5.043183766734281
 21
2.049076044624747
 31
0.5
  0
LINE
  5
E5
  8
0
 62
     6
 10
5.043183766734281
 20
2.049076044624747
 30
0.5
 11
5.047089766734281
 21
2.036380044624746
 31
0.5
  0
LINE
  5
E6
  8
0
 62
     6
 10
5.047089766734281
 20
2.036380044624746
 30
0.5
 11
5.049042766734281
 21
2.022709044624746
 31
0.5
  0
LINE
  5
E7
  8
0
 62
     6
 10
5.049042766734281
 20
2.022709044624746
 30
0.5
 11
5.050995766734281
 21
2.007084044624746
 31
0.5
  0
LINE
  5
E8
  8
0
 62
     6
 10
5.050995766734281
 20
2.007084044624746
 30
0.5
 11
5.050995766734281
 21
1.990482044624747
 31
0.5
  0
LINE
  5
E9
  8
0
 62
     6
 10
5.050995766734281
 20
1.990482044624747
 30
0.5
 11
5.050995766734281
 21
1.974857044624747
 31
0.5
  0
LINE
  5
EA
  8
0
 62
     6
 10
5.050995766734281
 20
1.974857044624747
 30
0.5
 11
5.049042766734281
 21
1.960209044624746
 31
0.5
  0
LINE
  5
EB
  8
0
 62
     6
 10
5.049042766734281
 20
1.960209044624746
 30
0.5
 11
5.047089766734281
 21
1.947513044624747
 31
0.5
  0
LINE
  5
EC
  8
0
 62
     6
 10
5.047089766734281
 20
1.947513044624747
 30
0.5
 11
5.043183766734281
 21
1.934818044624747
 31
0.5
  0
LINE
  5
ED
  8
0
 62
     6
 10
5.043183766734281
 20
1.934818044624747
 30
0.5
 11
5.038300766734281
 21
1.923099044624747
 31
0.5
  0
LINE
  5
EE
  8
0
 62
     6
 10
5.038300766734281
 20
1.923099044624747
 30
0.5
 11
5.032441766734281
 21
1.913334044624746
 31
0.5
  0
LINE
  5
EF
  8
0
 62
     6
 10
5.032441766734281
 20
1.913334044624746
 30
0.5
 11
5.02560576673428
 21
1.903568044624747
 31
0.5
  0
LINE
  5
F0
  8
0
 62
     6
 10
5.02560576673428
 20
1.903568044624747
 30
0.5
 11
5.01876976673428
 21
1.895755044624746
 31
0.5
  0
LINE
  5
F1
  8
0
 62
     6
 10
5.01876976673428
 20
1.895755044624746
 30
0.5
 11
5.00998076673428
 21
1.887943044624747
 31
0.5
  0
LINE
  5
F2
  8
0
 62
     6
 10
5.00998076673428
 20
1.887943044624747
 30
0.5
 11
5.001191766734281
 21
1.882084044624746
 31
0.5
  0
LINE
  5
F3
  8
0
 62
     6
 10
5.001191766734281
 20
1.882084044624746
 30
0.5
 11
4.992402766734281
 21
1.876224044624747
 31
0.5
  0
LINE
  5
F4
  8
0
 62
     6
 10
4.992402766734281
 20
1.876224044624747
 30
0.5
 11
4.982636766734281
 21
1.871341044624747
 31
0.5
  0
LINE
  5
F5
  8
0
 62
     6
 10
4.982636766734281
 20
1.871341044624747
 30
0.5
 11
4.972870766734281
 21
1.866459044624746
 31
0.5
  0
LINE
  5
F6
  8
0
 62
     6
 10
4.972870766734281
 20
1.866459044624746
 30
0.5
 11
4.96310576673428
 21
1.862552044624747
 31
0.5
  0
LINE
  5
F7
  8
0
 62
     6
 10
4.96310576673428
 20
1.862552044624747
 30
0.5
 11
4.952363766734281
 21
1.859623044624747
 31
0.5
  0
LINE
  5
F8
  8
0
 62
     6
 10
4.952363766734281
 20
1.859623044624747
 30
0.5
 11
4.941620766734281
 21
1.857669044624747
 31
0.5
  0
LINE
  5
F9
  8
0
 62
     6
 10
4.941620766734281
 20
1.857669044624747
 30
0.5
 11
4.930878766734281
 21
1.855716044624747
 31
0.5
  0
LINE
  5
FA
  8
0
 62
     6
 10
4.930878766734281
 20
1.855716044624747
 30
0.5
 11
4.91915976673428
 21
1.854740044624747
 31
0.5
  0
LINE
  5
FB
  8
0
 62
     6
 10
4.91915976673428
 20
1.854740044624747
 30
0.5
 11
4.906464766734281
 21
1.853763044624747
 31
0.5
  0
LINE
  5
FC
  8
0
 62
     6
 10
4.906464766734281
 20
1.853763044624747
 30
0.5
 11
4.89376976673428
 21
1.852787044624747
 31
0.5
  0
LINE
  5
FD
  8
0
 62
     6
 10
4.89376976673428
 20
1.852787044624747
 30
0.5
 11
4.880097766734281
 21
1.851810044624747
 31
0.5
  0
LINE
  5
FE
  8
0
 62
     6
 10
4.880097766734281
 20
1.851810044624747
 30
0.5
 11
4.865449766734281
 21
1.850834044624746
 31
0.5
  0
LINE
  5
FF
  8
0
 62
     6
 10
4.865449766734281
 20
1.850834044624746
 30
0.5
 11
4.850800766734281
 21
1.850834044624746
 31
0.5
  0
LINE
  5
100
  8
0
 62
     6
 10
4.850800766734281
 20
1.850834044624746
 30
0.5
 11
4.835175766734281
 21
1.850834044624746
 31
0.5
  0
LINE
  5
101
  8
0
 62
     6
 10
4.835175766734281
 20
1.850834044624746
 30
0.5
 11
4.62814476673428
 21
1.850834044624746
 31
0.5
  0
LINE
  5
102
  8
0
 62
     6
 10
4.62814476673428
 20
1.850834044624746
 30
0.5
 11
4.62814476673428
 21
2.136966044624747
 31
0.5
  0
LINE
  5
103
  8
0
 62
     6
 10
4.866425766734281
 20
1.296146044624747
 30
0.5
 11
4.501191766734281
 21
1.296146044624747
 31
0.5
  0
LINE
  5
104
  8
0
 62
     6
 10
4.501191766734281
 20
1.296146044624747
 30
0.5
 11
4.501191766734281
 21
2.250248044624747
 31
0.5
  0
LINE
  5
105
  8
0
 62
     6
 10
4.501191766734281
 20
2.250248044624747
 30
0.5
 11
4.859589766734281
 21
2.250248044624747
 31
0.5
  0
LINE
  5
106
  8
0
 62
     6
 10
4.859589766734281
 20
2.250248044624747
 30
0.5
 11
4.901581766734281
 21
2.249271044624747
 31
0.5
  0
LINE
  5
107
  8
0
 62
     6
 10
4.901581766734281
 20
2.249271044624747
 30
0.5
 11
4.939667766734281
 21
2.245365044624747
 31
0.5
  0
LINE
  5
108
  8
0
 62
     6
 10
4.939667766734281
 20
2.245365044624747
 30
0.5
 11
4.975800766734281
 21
2.239505044624746
 31
0.5
  0
LINE
  5
109
  8
0
 62
     6
 10
4.975800766734281
 20
2.239505044624746
 30
0.5
 11
5.008027766734281
 21
2.231693044624747
 31
0.5
  0
LINE
  5
10A
  8
0
 62
     6
 10
5.008027766734281
 20
2.231693044624747
 30
0.5
 11
5.036347766734281
 21
2.220951044624747
 31
0.5
  0
LINE
  5
10B
  8
0
 62
     6
 10
5.036347766734281
 20
2.220951044624747
 30
0.5
 11
5.062714766734281
 21
2.208255044624746
 31
0.5
  0
LINE
  5
10C
  8
0
 62
     6
 10
5.062714766734281
 20
2.208255044624746
 30
0.5
 11
5.085175766734281
 21
2.192630044624746
 31
0.5
  0
LINE
  5
10D
  8
0
 62
     6
 10
5.085175766734281
 20
2.192630044624746
 30
0.5
 11
5.104706766734281
 21
2.175052044624747
 31
0.5
  0
LINE
  5
10E
  8
0
 62
     6
 10
5.104706766734281
 20
2.175052044624747
 30
0.5
 11
5.121308766734281
 21
2.155521044624747
 31
0.5
  0
LINE
  5
10F
  8
0
 62
     6
 10
5.121308766734281
 20
2.155521044624747
 30
0.5
 11
5.135956766734281
 21
2.135990044624747
 31
0.5
  0
LINE
  5
110
  8
0
 62
     6
 10
5.135956766734281
 20
2.135990044624747
 30
0.5
 11
5.147675766734281
 21
2.115482044624747
 31
0.5
  0
LINE
  5
111
  8
0
 62
     6
 10
5.147675766734281
 20
2.115482044624747
 30
0.5
 11
5.158417766734281
 21
2.094974044624747
 31
0.5
  0
LINE
  5
112
  8
0
 62
     6
 10
5.158417766734281
 20
2.094974044624747
 30
0.5
 11
5.16623076673428
 21
2.073490044624747
 31
0.5
  0
LINE
  5
113
  8
0
 62
     6
 10
5.16623076673428
 20
2.073490044624747
 30
0.5
 11
5.171113766734281
 21
2.052005044624746
 31
0.5
  0
LINE
  5
114
  8
0
 62
     6
 10
5.171113766734281
 20
2.052005044624746
 30
0.5
 11
5.17501976673428
 21
2.029544044624747
 31
0.5
  0
LINE
  5
115
  8
0
 62
     6
 10
5.17501976673428
 20
2.029544044624747
 30
0.5
 11
5.175995766734281
 21
2.007084044624746
 31
0.5
  0
LINE
  5
116
  8
0
 62
     6
 10
5.175995766734281
 20
2.007084044624746
 30
0.5
 11
5.17501976673428
 21
1.991459044624746
 31
0.5
  0
LINE
  5
117
  8
0
 62
     6
 10
5.17501976673428
 20
1.991459044624746
 30
0.5
 11
5.174042766734281
 21
1.975834044624746
 31
0.5
  0
LINE
  5
118
  8
0
 62
     6
 10
5.174042766734281
 20
1.975834044624746
 30
0.5
 11
5.171113766734281
 21
1.961185044624747
 31
0.5
  0
LINE
  5
119
  8
0
 62
     6
 10
5.171113766734281
 20
1.961185044624747
 30
0.5
 11
5.167206766734281
 21
1.946537044624747
 31
0.5
  0
LINE
  5
11A
  8
0
 62
     6
 10
5.167206766734281
 20
1.946537044624747
 30
0.5
 11
5.163300766734281
 21
1.932865044624747
 31
0.5
  0
LINE
  5
11B
  8
0
 62
     6
 10
5.163300766734281
 20
1.932865044624747
 30
0.5
 11
5.157441766734281
 21
1.918216044624747
 31
0.5
  0
LINE
  5
11C
  8
0
 62
     6
 10
5.157441766734281
 20
1.918216044624747
 30
0.5
 11
5.15060576673428
 21
1.904544044624747
 31
0.5
  0
LINE
  5
11D
  8
0
 62
     6
 10
5.15060576673428
 20
1.904544044624747
 30
0.5
 11
5.142792766734281
 21
1.891849044624747
 31
0.5
  0
LINE
  5
11E
  8
0
 62
     6
 10
5.142792766734281
 20
1.891849044624747
 30
0.5
 11
5.134003766734281
 21
1.878177044624747
 31
0.5
  0
LINE
  5
11F
  8
0
 62
     6
 10
5.134003766734281
 20
1.878177044624747
 30
0.5
 11
5.124238766734281
 21
1.866459044624746
 31
0.5
  0
LINE
  5
120
  8
0
 62
     6
 10
5.124238766734281
 20
1.866459044624746
 30
0.5
 11
5.113495766734281
 21
1.853763044624747
 31
0.5
  0
LINE
  5
121
  8
0
 62
     6
 10
5.113495766734281
 20
1.853763044624747
 30
0.5
 11
5.101777766734281
 21
1.843021044624747
 31
0.5
  0
LINE
  5
122
  8
0
 62
     6
 10
5.101777766734281
 20
1.843021044624747
 30
0.5
 11
5.089081766734281
 21
1.832279044624747
 31
0.5
  0
LINE
  5
123
  8
0
 62
     6
 10
5.089081766734281
 20
1.832279044624747
 30
0.5
 11
5.074433766734281
 21
1.822513044624747
 31
0.5
  0
LINE
  5
124
  8
0
 62
     6
 10
5.074433766734281
 20
1.822513044624747
 30
0.5
 11
5.05978476673428
 21
1.812748044624747
 31
0.5
  0
LINE
  5
125
  8
0
 62
     6
 10
5.05978476673428
 20
1.812748044624747
 30
0.5
 11
5.043183766734281
 21
1.803959044624746
 31
0.5
  0
LINE
  5
126
  8
0
 62
     6
 10
5.043183766734281
 20
1.803959044624746
 30
0.5
 11
5.06564476673428
 21
1.796146044624747
 31
0.5
  0
LINE
  5
127
  8
0
 62
     6
 10
5.06564476673428
 20
1.796146044624747
 30
0.5
 11
5.086152766734281
 21
1.788334044624747
 31
0.5
  0
LINE
  5
128
  8
0
 62
     6
 10
5.086152766734281
 20
1.788334044624747
 30
0.5
 11
5.104706766734281
 21
1.778568044624747
 31
0.5
  0
LINE
  5
129
  8
0
 62
     6
 10
5.104706766734281
 20
1.778568044624747
 30
0.5
 11
5.12228476673428
 21
1.767826044624747
 31
0.5
  0
LINE
  5
12A
  8
0
 62
     6
 10
5.12228476673428
 20
1.767826044624747
 30
0.5
 11
5.13790976673428
 21
1.756107044624747
 31
0.5
  0
LINE
  5
12B
  8
0
 62
     6
 10
5.13790976673428
 20
1.756107044624747
 30
0.5
 11
5.152558766734281
 21
1.743412044624747
 31
0.5
  0
LINE
  5
12C
  8
0
 62
     6
 10
5.152558766734281
 20
1.743412044624747
 30
0.5
 11
5.16623076673428
 21
1.729740044624747
 31
0.5
  0
LINE
  5
12D
  8
0
 62
     6
 10
5.16623076673428
 20
1.729740044624747
 30
0.5
 11
5.177949766734281
 21
1.715091044624747
 31
0.5
  0
LINE
  5
12E
  8
0
 62
     6
 10
5.177949766734281
 20
1.715091044624747
 30
0.5
 11
5.188691766734281
 21
1.699466044624747
 31
0.5
  0
LINE
  5
12F
  8
0
 62
     6
 10
5.188691766734281
 20
1.699466044624747
 30
0.5
 11
5.19748076673428
 21
1.682865044624747
 31
0.5
  0
LINE
  5
130
  8
0
 62
     6
 10
5.19748076673428
 20
1.682865044624747
 30
0.5
 11
5.205292766734281
 21
1.666263044624747
 31
0.5
  0
LINE
  5
131
  8
0
 62
     6
 10
5.205292766734281
 20
1.666263044624747
 30
0.5
 11
5.211152766734281
 21
1.648685044624747
 31
0.5
  0
LINE
  5
132
  8
0
 62
     6
 10
5.211152766734281
 20
1.648685044624747
 30
0.5
 11
5.21603476673428
 21
1.631107044624747
 31
0.5
  0
LINE
  5
133
  8
0
 62
     6
 10
5.21603476673428
 20
1.631107044624747
 30
0.5
 11
5.219941766734281
 21
1.612552044624747
 31
0.5
  0
LINE
  5
134
  8
0
 62
     6
 10
5.219941766734281
 20
1.612552044624747
 30
0.5
 11
5.22189476673428
 21
1.593021044624747
 31
0.5
  0
LINE
  5
135
  8
0
 62
     6
 10
5.22189476673428
 20
1.593021044624747
 30
0.5
 11
5.222870766734281
 21
1.573490044624747
 31
0.5
  0
LINE
  5
136
  8
0
 62
     6
 10
5.222870766734281
 20
1.573490044624747
 30
0.5
 11
5.22189476673428
 21
1.553959044624747
 31
0.5
  0
LINE
  5
137
  8
0
 62
     6
 10
5.22189476673428
 20
1.553959044624747
 30
0.5
 11
5.219941766734281
 21
1.534427044624747
 31
0.5
  0
LINE
  5
138
  8
0
 62
     6
 10
5.219941766734281
 20
1.534427044624747
 30
0.5
 11
5.217011766734281
 21
1.514896044624747
 31
0.5
  0
LINE
  5
139
  8
0
 62
     6
 10
5.217011766734281
 20
1.514896044624747
 30
0.5
 11
5.212128766734281
 21
1.496341044624747
 31
0.5
  0
LINE
  5
13A
  8
0
 62
     6
 10
5.212128766734281
 20
1.496341044624747
 30
0.5
 11
5.207245766734281
 21
1.478763044624747
 31
0.5
  0
LINE
  5
13B
  8
0
 62
     6
 10
5.207245766734281
 20
1.478763044624747
 30
0.5
 11
5.20040976673428
 21
1.460209044624747
 31
0.5
  0
LINE
  5
13C
  8
0
 62
     6
 10
5.20040976673428
 20
1.460209044624747
 30
0.5
 11
5.191620766734281
 21
1.443607044624747
 31
0.5
  0
LINE
  5
13D
  8
0
 62
     6
 10
5.191620766734281
 20
1.443607044624747
 30
0.5
 11
5.18185576673428
 21
1.426029044624747
 31
0.5
  0
LINE
  5
13E
  8
0
 62
     6
 10
5.18185576673428
 20
1.426029044624747
 30
0.5
 11
5.172089766734281
 21
1.410404044624747
 31
0.5
  0
LINE
  5
13F
  8
0
 62
     6
 10
5.172089766734281
 20
1.410404044624747
 30
0.5
 11
5.160370766734281
 21
1.394779044624747
 31
0.5
  0
LINE
  5
140
  8
0
 62
     6
 10
5.160370766734281
 20
1.394779044624747
 30
0.5
 11
5.147675766734281
 21
1.381107044624747
 31
0.5
  0
LINE
  5
141
  8
0
 62
     6
 10
5.147675766734281
 20
1.381107044624747
 30
0.5
 11
5.133027766734281
 21
1.368412044624747
 31
0.5
  0
LINE
  5
142
  8
0
 62
     6
 10
5.133027766734281
 20
1.368412044624747
 30
0.5
 11
5.118378766734281
 21
1.356693044624747
 31
0.5
  0
LINE
  5
143
  8
0
 62
     6
 10
5.118378766734281
 20
1.356693044624747
 30
0.5
 11
5.102753766734281
 21
1.345951044624747
 31
0.5
  0
LINE
  5
144
  8
0
 62
     6
 10
5.102753766734281
 20
1.345951044624747
 30
0.5
 11
5.086152766734281
 21
1.336185044624747
 31
0.5
  0
LINE
  5
145
  8
0
 62
     6
 10
5.086152766734281
 20
1.336185044624747
 30
0.5
 11
5.067597766734281
 21
1.327396044624747
 31
0.5
  0
LINE
  5
146
  8
0
 62
     6
 10
5.067597766734281
 20
1.327396044624747
 30
0.5
 11
5.048066766734281
 21
1.320560044624747
 31
0.5
  0
LINE
  5
147
  8
0
 62
     6
 10
5.048066766734281
 20
1.320560044624747
 30
0.5
 11
5.027558766734281
 21
1.313724044624747
 31
0.5
  0
LINE
  5
148
  8
0
 62
     6
 10
5.027558766734281
 20
1.313724044624747
 30
0.5
 11
5.005097766734281
 21
1.308841044624747
 31
0.5
  0
LINE
  5
149
  8
0
 62
     6
 10
5.005097766734281
 20
1.308841044624747
 30
0.5
 11
4.980683766734281
 21
1.303959044624747
 31
0.5
  0
LINE
  5
14A
  8
0
 62
     6
 10
4.980683766734281
 20
1.303959044624747
 30
0.5
 11
4.954316766734281
 21
1.301029044624747
 31
0.5
  0
LINE
  5
14B
  8
0
 62
     6
 10
4.954316766734281
 20
1.301029044624747
 30
0.5
 11
4.926972766734281
 21
1.298099044624747
 31
0.5
  0
LINE
  5
14C
  8
0
 62
     6
 10
4.926972766734281
 20
1.298099044624747
 30
0.5
 11
4.897675766734281
 21
1.297123044624747
 31
0.5
  0
LINE
  5
14D
  8
0
 62
     6
 10
4.897675766734281
 20
1.297123044624747
 30
0.5
 11
4.866425766734281
 21
1.296146044624747
 31
0.5
  0
LINE
  5
14E
  8
0
 62
     6
 10
4.848847766734281
 20
1.737552044624747
 30
0.5
 11
4.882050766734281
 21
1.736576044624747
 31
0.5
  0
LINE
  5
14F
  8
0
 62
     6
 10
4.882050766734281
 20
1.736576044624747
 30
0.5
 11
4.912324766734281
 21
1.734623044624747
 31
0.5
  0
LINE
  5
150
  8
0
 62
     6
 10
4.912324766734281
 20
1.734623044624747
 30
0.5
 11
4.94064476673428
 21
1.731693044624747
 31
0.5
  0
LINE
  5
151
  8
0
 62
     6
 10
4.94064476673428
 20
1.731693044624747
 30
0.5
 11
4.965058766734281
 21
1.726810044624747
 31
0.5
  0
LINE
  5
152
  8
0
 62
     6
 10
4.965058766734281
 20
1.726810044624747
 30
0.5
 11
4.98751976673428
 21
1.720951044624747
 31
0.5
  0
LINE
  5
153
  8
0
 62
     6
 10
4.98751976673428
 20
1.720951044624747
 30
0.5
 11
5.007050766734281
 21
1.713138044624747
 31
0.5
  0
LINE
  5
154
  8
0
 62
     6
 10
5.007050766734281
 20
1.713138044624747
 30
0.5
 11
5.024628766734281
 21
1.704349044624747
 31
0.5
  0
LINE
  5
155
  8
0
 62
     6
 10
5.024628766734281
 20
1.704349044624747
 30
0.5
 11
5.039277766734281
 21
1.694584044624747
 31
0.5
  0
LINE
  5
156
  8
0
 62
     6
 10
5.039277766734281
 20
1.694584044624747
 30
0.5
 11
5.050995766734281
 21
1.682865044624747
 31
0.5
  0
LINE
  5
157
  8
0
 62
     6
 10
5.050995766734281
 20
1.682865044624747
 30
0.5
 11
5.061738766734281
 21
1.670169044624747
 31
0.5
  0
LINE
  5
158
  8
0
 62
     6
 10
5.061738766734281
 20
1.670169044624747
 30
0.5
 11
5.071503766734281
 21
1.656498044624747
 31
0.5
  0
LINE
  5
159
  8
0
 62
     6
 10
5.071503766734281
 20
1.656498044624747
 30
0.5
 11
5.078339766734281
 21
1.642826044624747
 31
0.5
  0
LINE
  5
15A
  8
0
 62
     6
 10
5.078339766734281
 20
1.642826044624747
 30
0.5
 11
5.084199766734281
 21
1.627201044624747
 31
0.5
  0
LINE
  5
15B
  8
0
 62
     6
 10
5.084199766734281
 20
1.627201044624747
 30
0.5
 11
5.08810576673428
 21
1.609623044624747
 31
0.5
  0
LINE
  5
15C
  8
0
 62
     6
 10
5.08810576673428
 20
1.609623044624747
 30
0.5
 11
5.09103476673428
 21
1.592044044624747
 31
0.5
  0
LINE
  5
15D
  8
0
 62
     6
 10
5.09103476673428
 20
1.592044044624747
 30
0.5
 11
5.092011766734281
 21
1.573490044624747
 31
0.5
  0
LINE
  5
15E
  8
0
 62
     6
 10
5.092011766734281
 20
1.573490044624747
 30
0.5
 11
5.09103476673428
 21
1.554935044624747
 31
0.5
  0
LINE
  5
15F
  8
0
 62
     6
 10
5.09103476673428
 20
1.554935044624747
 30
0.5
 11
5.089081766734281
 21
1.537357044624747
 31
0.5
  0
LINE
  5
160
  8
0
 62
     6
 10
5.089081766734281
 20
1.537357044624747
 30
0.5
 11
5.085175766734281
 21
1.520755044624747
 31
0.5
  0
LINE
  5
161
  8
0
 62
     6
 10
5.085175766734281
 20
1.520755044624747
 30
0.5
 11
5.079316766734281
 21
1.505130044624747
 31
0.5
  0
LINE
  5
162
  8
0
 62
     6
 10
5.079316766734281
 20
1.505130044624747
 30
0.5
 11
5.07248076673428
 21
1.490482044624747
 31
0.5
  0
LINE
  5
163
  8
0
 62
     6
 10
5.07248076673428
 20
1.490482044624747
 30
0.5
 11
5.063691766734281
 21
1.476810044624747
 31
0.5
  0
LINE
  5
164
  8
0
 62
     6
 10
5.063691766734281
 20
1.476810044624747
 30
0.5
 11
5.053925766734281
 21
1.464115044624747
 31
0.5
  0
LINE
  5
165
  8
0
 62
     6
 10
5.053925766734281
 20
1.464115044624747
 30
0.5
 11
5.042206766734281
 21
1.453373044624747
 31
0.5
  0
LINE
  5
166
  8
0
 62
     6
 10
5.042206766734281
 20
1.453373044624747
 30
0.5
 11
5.02853476673428
 21
1.442630044624747
 31
0.5
  0
LINE
  5
167
  8
0
 62
     6
 10
5.02853476673428
 20
1.442630044624747
 30
0.5
 11
5.01290976673428
 21
1.433841044624747
 31
0.5
  0
LINE
  5
168
  8
0
 62
     6
 10
5.01290976673428
 20
1.433841044624747
 30
0.5
 11
4.99435576673428
 21
1.426029044624747
 31
0.5
  0
LINE
  5
169
  8
0
 62
     6
 10
4.99435576673428
 20
1.426029044624747
 30
0.5
 11
4.973847766734281
 21
1.420169044624747
 31
0.5
  0
LINE
  5
16A
  8
0
 62
     6
 10
4.973847766734281
 20
1.420169044624747
 30
0.5
 11
4.95040976673428
 21
1.415287044624747
 31
0.5
  0
LINE
  5
16B
  8
0
 62
     6
 10
4.95040976673428
 20
1.415287044624747
 30
0.5
 11
4.924042766734281
 21
1.412357044624747
 31
0.5
  0
LINE
  5
16C
  8
0
 62
     6
 10
4.924042766734281
 20
1.412357044624747
 30
0.5
 11
4.895722766734281
 21
1.410404044624747
 31
0.5
  0
LINE
  5
16D
  8
0
 62
     6
 10
4.895722766734281
 20
1.410404044624747
 30
0.5
 11
4.865449766734281
 21
1.409427044624747
 31
0.5
  0
LINE
  5
16E
  8
0
 62
     6
 10
4.865449766734281
 20
1.409427044624747
 30
0.5
 11
4.62814476673428
 21
1.409427044624747
 31
0.5
  0
LINE
  5
16F
  8
0
 62
     6
 10
4.62814476673428
 20
1.409427044624747
 30
0.5
 11
4.62814476673428
 21
1.737552044624747
 31
0.5
  0
LINE
  5
170
  8
0
 62
     6
 10
4.62814476673428
 20
1.737552044624747
 30
0.5
 11
4.848847766734281
 21
1.737552044624747
 31
0.5
  0
LINE
  5
171
  8
0
 62
     6
 10
5.396699766734281
 20
2.250248044624747
 30
0.5
 11
6.087128766734281
 21
2.250248044624747
 31
0.5
  0
LINE
  5
172
  8
0
 62
     6
 10
6.087128766734281
 20
2.250248044624747
 30
0.5
 11
6.087128766734281
 21
2.136966044624747
 31
0.5
  0
LINE
  5
173
  8
0
 62
     6
 10
6.087128766734281
 20
2.136966044624747
 30
0.5
 11
5.522675766734281
 21
2.136966044624747
 31
0.5
  0
LINE
  5
174
  8
0
 62
     6
 10
5.522675766734281
 20
2.136966044624747
 30
0.5
 11
5.522675766734281
 21
1.845951044624747
 31
0.5
  0
LINE
  5
175
  8
0
 62
     6
 10
5.522675766734281
 20
1.845951044624747
 30
0.5
 11
6.050995766734281
 21
1.845951044624747
 31
0.5
  0
LINE
  5
176
  8
0
 62
     6
 10
6.050995766734281
 20
1.845951044624747
 30
0.5
 11
6.050995766734281
 21
1.732669044624747
 31
0.5
  0
LINE
  5
177
  8
0
 62
     6
 10
6.050995766734281
 20
1.732669044624747
 30
0.5
 11
5.522675766734281
 21
1.732669044624747
 31
0.5
  0
LINE
  5
178
  8
0
 62
     6
 10
5.522675766734281
 20
1.732669044624747
 30
0.5
 11
5.522675766734281
 21
1.409427044624747
 31
0.5
  0
LINE
  5
179
  8
0
 62
     6
 10
5.522675766734281
 20
1.409427044624747
 30
0.5
 11
6.109589766734281
 21
1.409427044624747
 31
0.5
  0
LINE
  5
17A
  8
0
 62
     6
 10
6.109589766734281
 20
1.409427044624747
 30
0.5
 11
6.109589766734281
 21
1.296146044624747
 31
0.5
  0
LINE
  5
17B
  8
0
 62
     6
 10
6.109589766734281
 20
1.296146044624747
 30
0.5
 11
5.396699766734281
 21
1.296146044624747
 31
0.5
  0
LINE
  5
17C
  8
0
 62
     6
 10
5.396699766734281
 20
1.296146044624747
 30
0.5
 11
5.396699766734281
 21
2.250248044624747
 31
0.5
  0
LINE
  5
17D
  8
0
 62
     6
 10
6.285370766734281
 20
2.250248044624747
 30
0.5
 11
6.975800766734281
 21
2.250248044624747
 31
0.5
  0
LINE
  5
17E
  8
0
 62
     6
 10
6.975800766734281
 20
2.250248044624747
 30
0.5
 11
6.975800766734281
 21
2.136966044624747
 31
0.5
  0
LINE
  5
17F
  8
0
 62
     6
 10
6.975800766734281
 20
2.136966044624747
 30
0.5
 11
6.411347766734281
 21
2.136966044624747
 31
0.5
  0
LINE
  5
180
  8
0
 62
     6
 10
6.411347766734281
 20
2.136966044624747
 30
0.5
 11
6.411347766734281
 21
1.845951044624747
 31
0.5
  0
LINE
  5
181
  8
0
 62
     6
 10
6.411347766734281
 20
1.845951044624747
 30
0.5
 11
6.939667766734281
 21
1.845951044624747
 31
0.5
  0
LINE
  5
182
  8
0
 62
     6
 10
6.939667766734281
 20
1.845951044624747
 30
0.5
 11
6.939667766734281
 21
1.732669044624747
 31
0.5
  0
LINE
  5
183
  8
0
 62
     6
 10
6.939667766734281
 20
1.732669044624747
 30
0.5
 11
6.411347766734281
 21
1.732669044624747
 31
0.5
  0
LINE
  5
184
  8
0
 62
     6
 10
6.411347766734281
 20
1.732669044624747
 30
0.5
 11
6.411347766734281
 21
1.409427044624747
 31
0.5
  0
LINE
  5
185
  8
0
 62
     6
 10
6.411347766734281
 20
1.409427044624747
 30
0.5
 11
6.998261766734281
 21
1.409427044624747
 31
0.5
  0
LINE
  5
186
  8
0
 62
     6
 10
6.998261766734281
 20
1.409427044624747
 30
0.5
 11
6.998261766734281
 21
1.296146044624747
 31
0.5
  0
LINE
  5
187
  8
0
 62
     6
 10
6.998261766734281
 20
1.296146044624747
 30
0.5
 11
6.285370766734281
 21
1.296146044624747
 31
0.5
  0
LINE
  5
188
  8
0
 62
     6
 10
6.285370766734281
 20
1.296146044624747
 30
0.5
 11
6.285370766734281
 21
2.250248044624747
 31
0.5
  0
LINE
  5
189
  8
0
 62
     6
 10
7.301972766734281
 20
1.296146044624747
 30
0.5
 11
7.17501976673428
 21
1.296146044624747
 31
0.5
  0
LINE
  5
18A
  8
0
 62
     6
 10
7.17501976673428
 20
1.296146044624747
 30
0.5
 11
7.17501976673428
 21
2.250248044624747
 31
0.5
  0
LINE
  5
18B
  8
0
 62
     6
 10
7.17501976673428
 20
2.250248044624747
 30
0.5
 11
7.597870766734281
 21
2.250248044624747
 31
0.5
  0
LINE
  5
18C
  8
0
 62
     6
 10
7.597870766734281
 20
2.250248044624747
 30
0.5
 11
7.619355766734281
 21
2.250248044624747
 31
0.5
  0
LINE
  5
18D
  8
0
 62
     6
 10
7.619355766734281
 20
2.250248044624747
 30
0.5
 11
7.638886766734281
 21
2.249271044624747
 31
0.5
  0
LINE
  5
18E
  8
0
 62
     6
 10
7.638886766734281
 20
2.249271044624747
 30
0.5
 11
7.658417766734281
 21
2.249271044624747
 31
0.5
  0
LINE
  5
18F
  8
0
 62
     6
 10
7.658417766734281
 20
2.249271044624747
 30
0.5
 11
7.676972766734281
 21
2.247318044624747
 31
0.5
  0
LINE
  5
190
  8
0
 62
     6
 10
7.676972766734281
 20
2.247318044624747
 30
0.5
 11
7.694550766734281
 21
2.246341044624747
 31
0.5
  0
LINE
  5
191
  8
0
 62
     6
 10
7.694550766734281
 20
2.246341044624747
 30
0.5
 11
7.71212876673428
 21
2.244388044624746
 31
0.5
  0
LINE
  5
192
  8
0
 62
     6
 10
7.71212876673428
 20
2.244388044624746
 30
0.5
 11
7.72775376673428
 21
2.241459044624746
 31
0.5
  0
LINE
  5
193
  8
0
 62
     6
 10
7.72775376673428
 20
2.241459044624746
 30
0.5
 11
7.742402766734281
 21
2.239505044624746
 31
0.5
  0
LINE
  5
194
  8
0
 62
     6
 10
7.742402766734281
 20
2.239505044624746
 30
0.5
 11
7.757050766734281
 21
2.236576044624747
 31
0.5
  0
LINE
  5
195
  8
0
 62
     6
 10
7.757050766734281
 20
2.236576044624747
 30
0.5
 11
7.77169976673428
 21
2.232669044624747
 31
0.5
  0
LINE
  5
196
  8
0
 62
     6
 10
7.77169976673428
 20
2.232669044624747
 30
0.5
 11
7.78439476673428
 21
2.227787044624747
 31
0.5
  0
LINE
  5
197
  8
0
 62
     6
 10
7.78439476673428
 20
2.227787044624747
 30
0.5
 11
7.798066766734281
 21
2.221927044624747
 31
0.5
  0
LINE
  5
198
  8
0
 62
     6
 10
7.798066766734281
 20
2.221927044624747
 30
0.5
 11
7.810761766734281
 21
2.216068044624747
 31
0.5
  0
LINE
  5
199
  8
0
 62
     6
 10
7.810761766734281
 20
2.216068044624747
 30
0.5
 11
7.822480766734281
 21
2.209232044624747
 31
0.5
  0
LINE
  5
19A
  8
0
 62
     6
 10
7.822480766734281
 20
2.209232044624747
 30
0.5
 11
7.83419976673428
 21
2.201419044624747
 31
0.5
  0
LINE
  5
19B
  8
0
 62
     6
 10
7.83419976673428
 20
2.201419044624747
 30
0.5
 11
7.845917766734281
 21
2.192630044624746
 31
0.5
  0
LINE
  5
19C
  8
0
 62
     6
 10
7.845917766734281
 20
2.192630044624746
 30
0.5
 11
7.856659766734281
 21
2.183841044624747
 31
0.5
  0
LINE
  5
19D
  8
0
 62
     6
 10
7.856659766734281
 20
2.183841044624747
 30
0.5
 11
7.866425766734281
 21
2.174076044624747
 31
0.5
  0
LINE
  5
19E
  8
0
 62
     6
 10
7.866425766734281
 20
2.174076044624747
 30
0.5
 11
7.876191766734281
 21
2.163334044624746
 31
0.5
  0
LINE
  5
19F
  8
0
 62
     6
 10
7.876191766734281
 20
2.163334044624746
 30
0.5
 11
7.884980766734281
 21
2.152591044624747
 31
0.5
  0
LINE
  5
1A0
  8
0
 62
     6
 10
7.884980766734281
 20
2.152591044624747
 30
0.5
 11
7.892792766734281
 21
2.140873044624747
 31
0.5
  0
LINE
  5
1A1
  8
0
 62
     6
 10
7.892792766734281
 20
2.140873044624747
 30
0.5
 11
7.900605766734281
 21
2.129154044624746
 31
0.5
  0
LINE
  5
1A2
  8
0
 62
     6
 10
7.900605766734281
 20
2.129154044624746
 30
0.5
 11
7.907441766734281
 21
2.116459044624746
 31
0.5
  0
LINE
  5
1A3
  8
0
 62
     6
 10
7.907441766734281
 20
2.116459044624746
 30
0.5
 11
7.913300766734281
 21
2.102787044624747
 31
0.5
  0
LINE
  5
1A4
  8
0
 62
     6
 10
7.913300766734281
 20
2.102787044624747
 30
0.5
 11
7.919159766734281
 21
2.090091044624747
 31
0.5
  0
LINE
  5
1A5
  8
0
 62
     6
 10
7.919159766734281
 20
2.090091044624747
 30
0.5
 11
7.924042766734281
 21
2.075443044624747
 31
0.5
  0
LINE
  5
1A6
  8
0
 62
     6
 10
7.924042766734281
 20
2.075443044624747
 30
0.5
 11
7.92794976673428
 21
2.061771044624747
 31
0.5
  0
LINE
  5
1A7
  8
0
 62
     6
 10
7.92794976673428
 20
2.061771044624747
 30
0.5
 11
7.931855766734281
 21
2.048099044624747
 31
0.5
  0
LINE
  5
1A8
  8
0
 62
     6
 10
7.931855766734281
 20
2.048099044624747
 30
0.5
 11
7.933808766734281
 21
2.033451044624747
 31
0.5
  0
LINE
  5
1A9
  8
0
 62
     6
 10
7.933808766734281
 20
2.033451044624747
 30
0.5
 11
7.935761766734281
 21
2.018802044624747
 31
0.5
  0
LINE
  5
1AA
  8
0
 62
     6
 10
7.935761766734281
 20
2.018802044624747
 30
0.5
 11
7.936738766734281
 21
2.004154044624746
 31
0.5
  0
LINE
  5
1AB
  8
0
 62
     6
 10
7.936738766734281
 20
2.004154044624746
 30
0.5
 11
7.937714766734281
 21
1.989505044624746
 31
0.5
  0
LINE
  5
1AC
  8
0
 62
     6
 10
7.937714766734281
 20
1.989505044624746
 30
0.5
 11
7.936738766734281
 21
1.963138044624747
 31
0.5
  0
LINE
  5
1AD
  8
0
 62
     6
 10
7.936738766734281
 20
1.963138044624747
 30
0.5
 11
7.932831766734281
 21
1.937748044624747
 31
0.5
  0
LINE
  5
1AE
  8
0
 62
     6
 10
7.932831766734281
 20
1.937748044624747
 30
0.5
 11
7.92794976673428
 21
1.914310044624747
 31
0.5
  0
LINE
  5
1AF
  8
0
 62
     6
 10
7.92794976673428
 20
1.914310044624747
 30
0.5
 11
7.920136766734281
 21
1.891849044624747
 31
0.5
  0
LINE
  5
1B0
  8
0
 62
     6
 10
7.920136766734281
 20
1.891849044624747
 30
0.5
 11
7.910370766734281
 21
1.870365044624747
 31
0.5
  0
LINE
  5
1B1
  8
0
 62
     6
 10
7.910370766734281
 20
1.870365044624747
 30
0.5
 11
7.898652766734281
 21
1.850834044624746
 31
0.5
  0
LINE
  5
1B2
  8
0
 62
     6
 10
7.898652766734281
 20
1.850834044624746
 30
0.5
 11
7.884980766734281
 21
1.832279044624747
 31
0.5
  0
LINE
  5
1B3
  8
0
 62
     6
 10
7.884980766734281
 20
1.832279044624747
 30
0.5
 11
7.869355766734281
 21
1.815677044624747
 31
0.5
  0
LINE
  5
1B4
  8
0
 62
     6
 10
7.869355766734281
 20
1.815677044624747
 30
0.5
 11
7.850800766734281
 21
1.800052044624747
 31
0.5
  0
LINE
  5
1B5
  8
0
 62
     6
 10
7.850800766734281
 20
1.800052044624747
 30
0.5
 11
7.83126976673428
 21
1.785404044624747
 31
0.5
  0
LINE
  5
1B6
  8
0
 62
     6
 10
7.83126976673428
 20
1.785404044624747
 30
0.5
 11
7.808808766734281
 21
1.772709044624747
 31
0.5
  0
LINE
  5
1B7
  8
0
 62
     6
 10
7.808808766734281
 20
1.772709044624747
 30
0.5
 11
7.785370766734281
 21
1.761966044624747
 31
0.5
  0
LINE
  5
1B8
  8
0
 62
     6
 10
7.785370766734281
 20
1.761966044624747
 30
0.5
 11
7.75900376673428
 21
1.752201044624747
 31
0.5
  0
LINE
  5
1B9
  8
0
 62
     6
 10
7.75900376673428
 20
1.752201044624747
 30
0.5
 11
7.731659766734281
 21
1.744388044624747
 31
0.5
  0
LINE
  5
1BA
  8
0
 62
     6
 10
7.731659766734281
 20
1.744388044624747
 30
0.5
 11
7.701386766734281
 21
1.737552044624747
 31
0.5
  0
LINE
  5
1BB
  8
0
 62
     6
 10
7.701386766734281
 20
1.737552044624747
 30
0.5
 11
7.670136766734281
 21
1.732669044624747
 31
0.5
  0
LINE
  5
1BC
  8
0
 62
     6
 10
7.670136766734281
 20
1.732669044624747
 30
0.5
 11
7.670136766734281
 21
1.729740044624747
 31
0.5
  0
LINE
  5
1BD
  8
0
 62
     6
 10
7.670136766734281
 20
1.729740044624747
 30
0.5
 11
7.69357476673428
 21
1.718021044624747
 31
0.5
  0
LINE
  5
1BE
  8
0
 62
     6
 10
7.69357476673428
 20
1.718021044624747
 30
0.5
 11
7.717011766734281
 21
1.703373044624747
 31
0.5
  0
LINE
  5
1BF
  8
0
 62
     6
 10
7.717011766734281
 20
1.703373044624747
 30
0.5
 11
7.74044976673428
 21
1.685794044624747
 31
0.5
  0
LINE
  5
1C0
  8
0
 62
     6
 10
7.74044976673428
 20
1.685794044624747
 30
0.5
 11
7.762909766734281
 21
1.665287044624747
 31
0.5
  0
LINE
  5
1C1
  8
0
 62
     6
 10
7.762909766734281
 20
1.665287044624747
 30
0.5
 11
7.785370766734281
 21
1.641849044624747
 31
0.5
  0
LINE
  5
1C2
  8
0
 62
     6
 10
7.785370766734281
 20
1.641849044624747
 30
0.5
 11
7.806855766734281
 21
1.616459044624747
 31
0.5
  0
LINE
  5
1C3
  8
0
 62
     6
 10
7.806855766734281
 20
1.616459044624747
 30
0.5
 11
7.828339766734281
 21
1.587162044624747
 31
0.5
  0
LINE
  5
1C4
  8
0
 62
     6
 10
7.828339766734281
 20
1.587162044624747
 30
0.5
 11
7.84982476673428
 21
1.555912044624747
 31
0.5
  0
LINE
  5
1C5
  8
0
 62
     6
 10
7.84982476673428
 20
1.555912044624747
 30
0.5
 11
8.015839766734281
 21
1.296146044624747
 31
0.5
  0
LINE
  5
1C6
  8
0
 62
     6
 10
8.015839766734281
 20
1.296146044624747
 30
0.5
 11
7.857636766734281
 21
1.296146044624747
 31
0.5
  0
LINE
  5
1C7
  8
0
 62
     6
 10
7.857636766734281
 20
1.296146044624747
 30
0.5
 11
7.823456766734281
 21
1.349857044624747
 31
0.5
  0
LINE
  5
1C8
  8
0
 62
     6
 10
7.823456766734281
 20
1.349857044624747
 30
0.5
 11
7.793183766734281
 21
1.397709044624747
 31
0.5
  0
LINE
  5
1C9
  8
0
 62
     6
 10
7.793183766734281
 20
1.397709044624747
 30
0.5
 11
7.765839766734281
 21
1.440677044624747
 31
0.5
  0
LINE
  5
1CA
  8
0
 62
     6
 10
7.765839766734281
 20
1.440677044624747
 30
0.5
 11
7.742402766734281
 21
1.477787044624747
 31
0.5
  0
LINE
  5
1CB
  8
0
 62
     6
 10
7.742402766734281
 20
1.477787044624747
 30
0.5
 11
7.72189476673428
 21
1.510013044624747
 31
0.5
  0
LINE
  5
1CC
  8
0
 62
     6
 10
7.72189476673428
 20
1.510013044624747
 30
0.5
 11
7.704316766734281
 21
1.536380044624747
 31
0.5
  0
LINE
  5
1CD
  8
0
 62
     6
 10
7.704316766734281
 20
1.536380044624747
 30
0.5
 11
7.69064476673428
 21
1.556888044624747
 31
0.5
  0
LINE
  5
1CE
  8
0
 62
     6
 10
7.69064476673428
 20
1.556888044624747
 30
0.5
 11
7.68087876673428
 21
1.572513044624747
 31
0.5
  0
LINE
  5
1CF
  8
0
 62
     6
 10
7.68087876673428
 20
1.572513044624747
 30
0.5
 11
7.672089766734281
 21
1.585209044624747
 31
0.5
  0
LINE
  5
1D0
  8
0
 62
     6
 10
7.672089766734281
 20
1.585209044624747
 30
0.5
 11
7.663300766734281
 21
1.597904044624747
 31
0.5
  0
LINE
  5
1D1
  8
0
 62
     6
 10
7.663300766734281
 20
1.597904044624747
 30
0.5
 11
7.654511766734281
 21
1.609623044624747
 31
0.5
  0
LINE
  5
1D2
  8
0
 62
     6
 10
7.654511766734281
 20
1.609623044624747
 30
0.5
 11
7.644745766734281
 21
1.620365044624747
 31
0.5
  0
LINE
  5
1D3
  8
0
 62
     6
 10
7.644745766734281
 20
1.620365044624747
 30
0.5
 11
7.635956766734281
 21
1.631107044624747
 31
0.5
  0
LINE
  5
1D4
  8
0
 62
     6
 10
7.635956766734281
 20
1.631107044624747
 30
0.5
 11
7.626191766734281
 21
1.641849044624747
 31
0.5
  0
LINE
  5
1D5
  8
0
 62
     6
 10
7.626191766734281
 20
1.641849044624747
 30
0.5
 11
7.617402766734281
 21
1.651615044624747
 31
0.5
  0
LINE
  5
1D6
  8
0
 62
     6
 10
7.617402766734281
 20
1.651615044624747
 30
0.5
 11
7.607636766734281
 21
1.661380044624747
 31
0.5
  0
LINE
  5
1D7
  8
0
 62
     6
 10
7.607636766734281
 20
1.661380044624747
 30
0.5
 11
7.598847766734281
 21
1.670169044624747
 31
0.5
  0
LINE
  5
1D8
  8
0
 62
     6
 10
7.598847766734281
 20
1.670169044624747
 30
0.5
 11
7.589081766734281
 21
1.677982044624747
 31
0.5
  0
LINE
  5
1D9
  8
0
 62
     6
 10
7.589081766734281
 20
1.677982044624747
 30
0.5
 11
7.580292766734281
 21
1.684818044624747
 31
0.5
  0
LINE
  5
1DA
  8
0
 62
     6
 10
7.580292766734281
 20
1.684818044624747
 30
0.5
 11
7.570527766734281
 21
1.690677044624747
 31
0.5
  0
LINE
  5
1DB
  8
0
 62
     6
 10
7.570527766734281
 20
1.690677044624747
 30
0.5
 11
7.561738766734281
 21
1.696537044624747
 31
0.5
  0
LINE
  5
1DC
  8
0
 62
     6
 10
7.561738766734281
 20
1.696537044624747
 30
0.5
 11
7.55294976673428
 21
1.701419044624747
 31
0.5
  0
LINE
  5
1DD
  8
0
 62
     6
 10
7.55294976673428
 20
1.701419044624747
 30
0.5
 11
7.545136766734281
 21
1.704349044624747
 31
0.5
  0
LINE
  5
1DE
  8
0
 62
     6
 10
7.545136766734281
 20
1.704349044624747
 30
0.5
 11
7.536347766734281
 21
1.707279044624747
 31
0.5
  0
LINE
  5
1DF
  8
0
 62
     6
 10
7.536347766734281
 20
1.707279044624747
 30
0.5
 11
7.527558766734281
 21
1.710209044624747
 31
0.5
  0
LINE
  5
1E0
  8
0
 62
     6
 10
7.527558766734281
 20
1.710209044624747
 30
0.5
 11
7.517792766734281
 21
1.712162044624747
 31
0.5
  0
LINE
  5
1E1
  8
0
 62
     6
 10
7.517792766734281
 20
1.712162044624747
 30
0.5
 11
7.508027766734281
 21
1.713138044624747
 31
0.5
  0
LINE
  5
1E2
  8
0
 62
     6
 10
7.508027766734281
 20
1.713138044624747
 30
0.5
 11
7.497284766734281
 21
1.715091044624747
 31
0.5
  0
LINE
  5
1E3
  8
0
 62
     6
 10
7.497284766734281
 20
1.715091044624747
 30
0.5
 11
7.485566766734281
 21
1.716068044624747
 31
0.5
  0
LINE
  5
1E4
  8
0
 62
     6
 10
7.485566766734281
 20
1.716068044624747
 30
0.5
 11
7.473847766734281
 21
1.717044044624747
 31
0.5
  0
LINE
  5
1E5
  8
0
 62
     6
 10
7.473847766734281
 20
1.717044044624747
 30
0.5
 11
7.461152766734281
 21
1.717044044624747
 31
0.5
  0
LINE
  5
1E6
  8
0
 62
     6
 10
7.461152766734281
 20
1.717044044624747
 30
0.5
 11
7.447480766734281
 21
1.717044044624747
 31
0.5
  0
LINE
  5
1E7
  8
0
 62
     6
 10
7.447480766734281
 20
1.717044044624747
 30
0.5
 11
7.301972766734281
 21
1.717044044624747
 31
0.5
  0
LINE
  5
1E8
  8
0
 62
     6
 10
7.301972766734281
 20
1.717044044624747
 30
0.5
 11
7.301972766734281
 21
1.296146044624747
 31
0.5
  0
LINE
  5
1E9
  8
0
 62
     6
 10
7.60275376673428
 20
2.145755044624746
 30
0.5
 11
7.629120766734281
 21
2.144779044624746
 31
0.5
  0
LINE
  5
1EA
  8
0
 62
     6
 10
7.629120766734281
 20
2.144779044624746
 30
0.5
 11
7.653534766734281
 21
2.142826044624747
 31
0.5
  0
LINE
  5
1EB
  8
0
 62
     6
 10
7.653534766734281
 20
2.142826044624747
 30
0.5
 11
7.675995766734281
 21
2.138919044624747
 31
0.5
  0
LINE
  5
1EC
  8
0
 62
     6
 10
7.675995766734281
 20
2.138919044624747
 30
0.5
 11
7.69650376673428
 21
2.134037044624747
 31
0.5
  0
LINE
  5
1ED
  8
0
 62
     6
 10
7.69650376673428
 20
2.134037044624747
 30
0.5
 11
7.715058766734281
 21
2.128177044624747
 31
0.5
  0
LINE
  5
1EE
  8
0
 62
     6
 10
7.715058766734281
 20
2.128177044624747
 30
0.5
 11
7.732636766734281
 21
2.120365044624747
 31
0.5
  0
LINE
  5
1EF
  8
0
 62
     6
 10
7.732636766734281
 20
2.120365044624747
 30
0.5
 11
7.747284766734281
 21
2.110599044624747
 31
0.5
  0
LINE
  5
1F0
  8
0
 62
     6
 10
7.747284766734281
 20
2.110599044624747
 30
0.5
 11
7.759980766734281
 21
2.099857044624747
 31
0.5
  0
LINE
  5
1F1
  8
0
 62
     6
 10
7.759980766734281
 20
2.099857044624747
 30
0.5
 11
7.770722766734281
 21
2.088138044624746
 31
0.5
  0
LINE
  5
1F2
  8
0
 62
     6
 10
7.770722766734281
 20
2.088138044624746
 30
0.5
 11
7.780488766734281
 21
2.076419044624747
 31
0.5
  0
LINE
  5
1F3
  8
0
 62
     6
 10
7.780488766734281
 20
2.076419044624747
 30
0.5
 11
7.788300766734281
 21
2.062748044624747
 31
0.5
  0
LINE
  5
1F4
  8
0
 62
     6
 10
7.788300766734281
 20
2.062748044624747
 30
0.5
 11
7.795136766734281
 21
2.049076044624747
 31
0.5
  0
LINE
  5
1F5
  8
0
 62
     6
 10
7.795136766734281
 20
2.049076044624747
 30
0.5
 11
7.800995766734281
 21
2.035404044624746
 31
0.5
  0
LINE
  5
1F6
  8
0
 62
     6
 10
7.800995766734281
 20
2.035404044624746
 30
0.5
 11
7.803925766734281
 21
2.020755044624746
 31
0.5
  0
LINE
  5
1F7
  8
0
 62
     6
 10
7.803925766734281
 20
2.020755044624746
 30
0.5
 11
7.806855766734281
 21
2.005130044624746
 31
0.5
  0
LINE
  5
1F8
  8
0
 62
     6
 10
7.806855766734281
 20
2.005130044624746
 30
0.5
 11
7.806855766734281
 21
1.989505044624746
 31
0.5
  0
LINE
  5
1F9
  8
0
 62
     6
 10
7.806855766734281
 20
1.989505044624746
 30
0.5
 11
7.806855766734281
 21
1.976810044624747
 31
0.5
  0
LINE
  5
1FA
  8
0
 62
     6
 10
7.806855766734281
 20
1.976810044624747
 30
0.5
 11
7.80587876673428
 21
1.965091044624747
 31
0.5
  0
LINE
  5
1FB
  8
0
 62
     6
 10
7.80587876673428
 20
1.965091044624747
 30
0.5
 11
7.80294976673428
 21
1.953373044624747
 31
0.5
  0
LINE
  5
1FC
  8
0
 62
     6
 10
7.80294976673428
 20
1.953373044624747
 30
0.5
 11
7.80001976673428
 21
1.941654044624747
 31
0.5
  0
LINE
  5
1FD
  8
0
 62
     6
 10
7.80001976673428
 20
1.941654044624747
 30
0.5
 11
7.796113766734281
 21
1.930912044624747
 31
0.5
  0
LINE
  5
1FE
  8
0
 62
     6
 10
7.796113766734281
 20
1.930912044624747
 30
0.5
 11
7.791230766734281
 21
1.919193044624747
 31
0.5
  0
LINE
  5
1FF
  8
0
 62
     6
 10
7.791230766734281
 20
1.919193044624747
 30
0.5
 11
7.785370766734281
 21
1.909427044624747
 31
0.5
  0
LINE
  5
200
  8
0
 62
     6
 10
7.785370766734281
 20
1.909427044624747
 30
0.5
 11
7.778534766734281
 21
1.898685044624747
 31
0.5
  0
LINE
  5
201
  8
0
 62
     6
 10
7.778534766734281
 20
1.898685044624747
 30
0.5
 11
7.77169976673428
 21
1.888919044624747
 31
0.5
  0
LINE
  5
202
  8
0
 62
     6
 10
7.77169976673428
 20
1.888919044624747
 30
0.5
 11
7.762909766734281
 21
1.880130044624746
 31
0.5
  0
LINE
  5
203
  8
0
 62
     6
 10
7.762909766734281
 20
1.880130044624746
 30
0.5
 11
7.754120766734281
 21
1.872318044624747
 31
0.5
  0
LINE
  5
204
  8
0
 62
     6
 10
7.754120766734281
 20
1.872318044624747
 30
0.5
 11
7.745331766734281
 21
1.865482044624747
 31
0.5
  0
LINE
  5
205
  8
0
 62
     6
 10
7.745331766734281
 20
1.865482044624747
 30
0.5
 11
7.735566766734281
 21
1.858646044624747
 31
0.5
  0
LINE
  5
206
  8
0
 62
     6
 10
7.735566766734281
 20
1.858646044624747
 30
0.5
 11
7.72482476673428
 21
1.852787044624747
 31
0.5
  0
LINE
  5
207
  8
0
 62
     6
 10
7.72482476673428
 20
1.852787044624747
 30
0.5
 11
7.714081766734281
 21
1.848880044624746
 31
0.5
  0
LINE
  5
208
  8
0
 62
     6
 10
7.714081766734281
 20
1.848880044624746
 30
0.5
 11
7.702363766734281
 21
1.844974044624747
 31
0.5
  0
LINE
  5
209
  8
0
 62
     6
 10
7.702363766734281
 20
1.844974044624747
 30
0.5
 11
7.689667766734281
 21
1.841068044624747
 31
0.5
  0
LINE
  5
20A
  8
0
 62
     6
 10
7.689667766734281
 20
1.841068044624747
 30
0.5
 11
7.675995766734281
 21
1.838138044624747
 31
0.5
  0
LINE
  5
20B
  8
0
 62
     6
 10
7.675995766734281
 20
1.838138044624747
 30
0.5
 11
7.661347766734281
 21
1.836185044624747
 31
0.5
  0
LINE
  5
20C
  8
0
 62
     6
 10
7.661347766734281
 20
1.836185044624747
 30
0.5
 11
7.645722766734281
 21
1.834232044624747
 31
0.5
  0
LINE
  5
20D
  8
0
 62
     6
 10
7.645722766734281
 20
1.834232044624747
 30
0.5
 11
7.629120766734281
 21
1.832279044624747
 31
0.5
  0
LINE
  5
20E
  8
0
 62
     6
 10
7.629120766734281
 20
1.832279044624747
 30
0.5
 11
7.611542766734281
 21
1.831302044624747
 31
0.5
  0
LINE
  5
20F
  8
0
 62
     6
 10
7.611542766734281
 20
1.831302044624747
 30
0.5
 11
7.592011766734281
 21
1.830326044624747
 31
0.5
  0
LINE
  5
210
  8
0
 62
     6
 10
7.592011766734281
 20
1.830326044624747
 30
0.5
 11
7.572480766734281
 21
1.830326044624747
 31
0.5
  0
LINE
  5
211
  8
0
 62
     6
 10
7.572480766734281
 20
1.830326044624747
 30
0.5
 11
7.301972766734281
 21
1.830326044624747
 31
0.5
  0
LINE
  5
212
  8
0
 62
     6
 10
7.301972766734281
 20
1.830326044624747
 30
0.5
 11
7.301972766734281
 21
2.145755044624746
 31
0.5
  0
LINE
  5
213
  8
0
 62
     6
 10
7.301972766734281
 20
2.145755044624746
 30
0.5
 11
7.60275376673428
 21
2.145755044624746
 31
0.5
  0
LINE
  5
214
  8
0
 62
     6
 10
0.181152
 20
0.84082
 30
0.5
 11
0.181152
 21
0.954102
 31
0.5
  0
LINE
  5
215
  8
0
 62
     6
 10
0.181152
 20
0.954102
 30
0.5
 11
0.937012
 21
0.954102
 31
0.5
  0
LINE
  5
216
  8
0
 62
     6
 10
0.937012
 20
0.954102
 30
0.5
 11
0.937012
 21
0.84082
 31
0.5
  0
LINE
  5
217
  8
0
 62
     6
 10
0.937012
 20
0.84082
 30
0.5
 11
0.621582
 21
0.84082
 31
0.5
  0
LINE
  5
218
  8
0
 62
     6
 10
0.621582
 20
0.84082
 30
0.5
 11
0.621582
 21
0.0
 31
0.5
  0
LINE
  5
219
  8
0
 62
     6
 10
0.621582
 20
0.0
 30
0.5
 11
0.494629
 21
0.0
 31
0.5
  0
LINE
  5
21A
  8
0
 62
     6
 10
0.494629
 20
0.0
 30
0.5
 11
0.494629
 21
0.84082
 31
0.5
  0
LINE
  5
21B
  8
0
 62
     6
 10
0.494629
 20
0.84082
 30
0.5
 11
0.181152
 21
0.84082
 31
0.5
  0
LINE
  5
21C
  8
0
 62
     6
 10
1.030762
 20
0.522461
 30
0.5
 11
1.036621
 21
0.576172
 31
0.5
  0
LINE
  5
21D
  8
0
 62
     6
 10
1.036621
 20
0.576172
 30
0.5
 11
1.046387
 21
0.62793
 31
0.5
  0
LINE
  5
21E
  8
0
 62
     6
 10
1.046387
 20
0.62793
 30
0.5
 11
1.061035
 21
0.675781
 31
0.5
  0
LINE
  5
21F
  8
0
 62
     6
 10
1.061035
 20
0.675781
 30
0.5
 11
1.078613
 21
0.719727
 31
0.5
  0
LINE
  5
220
  8
0
 62
     6
 10
1.078613
 20
0.719727
 30
0.5
 11
1.100098
 21
0.761719
 31
0.5
  0
LINE
  5
221
  8
0
 62
     6
 10
1.100098
 20
0.761719
 30
0.5
 11
1.126465
 21
0.799805
 31
0.5
  0
LINE
  5
222
  8
0
 62
     6
 10
1.126465
 20
0.799805
 30
0.5
 11
1.155762
 21
0.834961
 31
0.5
  0
LINE
  5
223
  8
0
 62
     6
 10
1.155762
 20
0.834961
 30
0.5
 11
1.188965
 21
0.867188
 31
0.5
  0
LINE
  5
224
  8
0
 62
     6
 10
1.188965
 20
0.867188
 30
0.5
 11
1.224121
 21
0.894531
 31
0.5
  0
LINE
  5
225
  8
0
 62
     6
 10
1.224121
 20
0.894531
 30
0.5
 11
1.262207
 21
0.917969
 31
0.5
  0
LINE
  5
226
  8
0
 62
     6
 10
1.262207
 20
0.917969
 30
0.5
 11
1.302246
 21
0.936523
 31
0.5
  0
LINE
  5
227
  8
0
 62
     6
 10
1.302246
 20
0.936523
 30
0.5
 11
1.344238
 21
0.951172
 31
0.5
  0
LINE
  5
228
  8
0
 62
     6
 10
1.344238
 20
0.951172
 30
0.5
 11
1.38916
 21
0.9619140000000001
 31
0.5
  0
LINE
  5
229
  8
0
 62
     6
 10
1.38916
 20
0.9619140000000001
 30
0.5
 11
1.437012
 21
0.96875
 31
0.5
  0
LINE
  5
22A
  8
0
 62
     6
 10
1.437012
 20
0.96875
 30
0.5
 11
1.486816
 21
0.970703
 31
0.5
  0
LINE
  5
22B
  8
0
 62
     6
 10
1.486816
 20
0.970703
 30
0.5
 11
1.535645
 21
0.96875
 31
0.5
  0
LINE
  5
22C
  8
0
 62
     6
 10
1.535645
 20
0.96875
 30
0.5
 11
1.58252
 21
0.9619140000000001
 31
0.5
  0
LINE
  5
22D
  8
0
 62
     6
 10
1.58252
 20
0.9619140000000001
 30
0.5
 11
1.626465
 21
0.951172
 31
0.5
  0
LINE
  5
22E
  8
0
 62
     6
 10
1.626465
 20
0.951172
 30
0.5
 11
1.668457
 21
0.936523
 31
0.5
  0
LINE
  5
22F
  8
0
 62
     6
 10
1.668457
 20
0.936523
 30
0.5
 11
1.708496
 21
0.916992
 31
0.5
  0
LINE
  5
230
  8
0
 62
     6
 10
1.708496
 20
0.916992
 30
0.5
 11
1.745605
 21
0.893555
 31
0.5
  0
LINE
  5
231
  8
0
 62
     6
 10
1.745605
 20
0.893555
 30
0.5
 11
1.781738
 21
0.866211
 31
0.5
  0
LINE
  5
232
  8
0
 62
     6
 10
1.781738
 20
0.866211
 30
0.5
 11
1.813965
 21
0.833984
 31
0.5
  0
LINE
  5
233
  8
0
 62
     6
 10
1.813965
 20
0.833984
 30
0.5
 11
1.844238
 21
0.798828
 31
0.5
  0
LINE
  5
234
  8
0
 62
     6
 10
1.844238
 20
0.798828
 30
0.5
 11
1.870605
 21
0.760742
 31
0.5
  0
LINE
  5
235
  8
0
 62
     6
 10
1.870605
 20
0.760742
 30
0.5
 11
1.89209
 21
0.720703
 31
0.5
  0
LINE
  5
236
  8
0
 62
     6
 10
1.89209
 20
0.720703
 30
0.5
 11
1.909668
 21
0.676758
 31
0.5
  0
LINE
  5
237
  8
0
 62
     6
 10
1.909668
 20
0.676758
 30
0.5
 11
1.924316
 21
0.630859
 31
0.5
  0
LINE
  5
238
  8
0
 62
     6
 10
1.924316
 20
0.630859
 30
0.5
 11
1.934082
 21
0.582031
 31
0.5
  0
LINE
  5
239
  8
0
 62
     6
 10
1.934082
 20
0.582031
 30
0.5
 11
1.939941
 21
0.530273
 31
0.5
  0
LINE
  5
23A
  8
0
 62
     6
 10
1.939941
 20
0.530273
 30
0.5
 11
1.941895
 21
0.475586
 31
0.5
  0
LINE
  5
23B
  8
0
 62
     6
 10
1.941895
 20
0.475586
 30
0.5
 11
1.939941
 21
0.421875
 31
0.5
  0
LINE
  5
23C
  8
0
 62
     6
 10
1.939941
 20
0.421875
 30
0.5
 11
1.934082
 21
0.370117
 31
0.5
  0
LINE
  5
23D
  8
0
 62
     6
 10
1.934082
 20
0.370117
 30
0.5
 11
1.924316
 21
0.321289
 31
0.5
  0
LINE
  5
23E
  8
0
 62
     6
 10
1.924316
 20
0.321289
 30
0.5
 11
1.909668
 21
0.275391
 31
0.5
  0
LINE
  5
23F
  8
0
 62
     6
 10
1.909668
 20
0.275391
 30
0.5
 11
1.89209
 21
0.232422
 31
0.5
  0
LINE
  5
240
  8
0
 62
     6
 10
1.89209
 20
0.232422
 30
0.5
 11
1.869629
 21
0.191406
 31
0.5
  0
LINE
  5
241
  8
0
 62
     6
 10
1.869629
 20
0.191406
 30
0.5
 11
1.844238
 21
0.154297
 31
0.5
  0
LINE
  5
242
  8
0
 62
     6
 10
1.844238
 20
0.154297
 30
0.5
 11
1.813965
 21
0.119141
 31
0.5
  0
LINE
  5
243
  8
0
 62
     6
 10
1.813965
 20
0.119141
 30
0.5
 11
1.780762
 21
0.086914
 31
0.5
  0
LINE
  5
244
  8
0
 62
     6
 10
1.780762
 20
0.086914
 30
0.5
 11
1.745605
 21
0.05957
 31
0.5
  0
LINE
  5
245
  8
0
 62
     6
 10
1.745605
 20
0.05957
 30
0.5
 11
1.70752
 21
0.036133
 31
0.5
  0
LINE
  5
246
  8
0
 62
     6
 10
1.70752
 20
0.036133
 30
0.5
 11
1.66748
 21
0.017578
 31
0.5
  0
LINE
  5
247
  8
0
 62
     6
 10
1.66748
 20
0.017578
 30
0.5
 11
1.625488
 21
0.00293
 31
0.5
  0
LINE
  5
248
  8
0
 62
     6
 10
1.625488
 20
0.00293
 30
0.5
 11
1.581543
 21
-0.007813
 31
0.5
  0
LINE
  5
249
  8
0
 62
     6
 10
1.581543
 20
-0.007813
 30
0.5
 11
1.534668
 21
-0.013672
 31
0.5
  0
LINE
  5
24A
  8
0
 62
     6
 10
1.534668
 20
-0.013672
 30
0.5
 11
1.486816
 21
-0.016602
 31
0.5
  0
LINE
  5
24B
  8
0
 62
     6
 10
1.486816
 20
-0.016602
 30
0.5
 11
1.436035
 21
-0.013672
 31
0.5
  0
LINE
  5
24C
  8
0
 62
     6
 10
1.436035
 20
-0.013672
 30
0.5
 11
1.388184
 21
-0.007813
 31
0.5
  0
LINE
  5
24D
  8
0
 62
     6
 10
1.388184
 20
-0.007813
 30
0.5
 11
1.343262
 21
0.00293
 31
0.5
  0
LINE
  5
24E
  8
0
 62
     6
 10
1.343262
 20
0.00293
 30
0.5
 11
1.300293
 21
0.018555
 31
0.5
  0
LINE
  5
24F
  8
0
 62
     6
 10
1.300293
 20
0.018555
 30
0.5
 11
1.260254
 21
0.038086
 31
0.5
  0
LINE
  5
250
  8
0
 62
     6
 10
1.260254
 20
0.038086
 30
0.5
 11
1.222168
 21
0.0625
 31
0.5
  0
LINE
  5
251
  8
0
 62
     6
 10
1.222168
 20
0.0625
 30
0.5
 11
1.187012
 21
0.09082
 31
0.5
  0
LINE
  5
252
  8
0
 62
     6
 10
1.187012
 20
0.09082
 30
0.5
 11
1.154785
 21
0.124023
 31
0.5
  0
LINE
  5
253
  8
0
 62
     6
 10
1.154785
 20
0.124023
 30
0.5
 11
1.124512
 21
0.15918
 31
0.5
  0
LINE
  5
254
  8
0
 62
     6
 10
1.124512
 20
0.15918
 30
0.5
 11
1.099121
 21
0.197266
 31
0.5
  0
LINE
  5
255
  8
0
 62
     6
 10
1.099121
 20
0.197266
 30
0.5
 11
1.077637
 21
0.237305
 31
0.5
  0
LINE
  5
256
  8
0
 62
     6
 10
1.077637
 20
0.237305
 30
0.5
 11
1.060059
 21
0.279297
 31
0.5
  0
LINE
  5
257
  8
0
 62
     6
 10
1.060059
 20
0.279297
 30
0.5
 11
1.046387
 21
0.322266
 31
0.5
  0
LINE
  5
258
  8
0
 62
     6
 10
1.046387
 20
0.322266
 30
0.5
 11
1.036621
 21
0.368164
 31
0.5
  0
LINE
  5
259
  8
0
 62
     6
 10
1.036621
 20
0.368164
 30
0.5
 11
1.030762
 21
0.416016
 31
0.5
  0
LINE
  5
25A
  8
0
 62
     6
 10
1.030762
 20
0.416016
 30
0.5
 11
1.028809
 21
0.46582
 31
0.5
  0
LINE
  5
25B
  8
0
 62
     6
 10
1.028809
 20
0.46582
 30
0.5
 11
1.030762
 21
0.522461
 31
0.5
  0
LINE
  5
25C
  8
0
 62
     6
 10
1.160645
 20
0.511719
 30
0.5
 11
1.165527
 21
0.557617
 31
0.5
  0
LINE
  5
25D
  8
0
 62
     6
 10
1.165527
 20
0.557617
 30
0.5
 11
1.172363
 21
0.600586
 31
0.5
  0
LINE
  5
25E
  8
0
 62
     6
 10
1.172363
 20
0.600586
 30
0.5
 11
1.183105
 21
0.639648
 31
0.5
  0
LINE
  5
25F
  8
0
 62
     6
 10
1.183105
 20
0.639648
 30
0.5
 11
1.195801
 21
0.675781
 31
0.5
  0
LINE
  5
260
  8
0
 62
     6
 10
1.195801
 20
0.675781
 30
0.5
 11
1.211426
 21
0.708008
 31
0.5
  0
LINE
  5
261
  8
0
 62
     6
 10
1.211426
 20
0.708008
 30
0.5
 11
1.22998
 21
0.738281
 31
0.5
  0
LINE
  5
262
  8
0
 62
     6
 10
1.22998
 20
0.738281
 30
0.5
 11
1.252441
 21
0.763672
 31
0.5
  0
LINE
  5
263
  8
0
 62
     6
 10
1.252441
 20
0.763672
 30
0.5
 11
1.275879
 21
0.787109
 31
0.5
  0
LINE
  5
264
  8
0
 62
     6
 10
1.275879
 20
0.787109
 30
0.5
 11
1.30127
 21
0.807617
 31
0.5
  0
LINE
  5
265
  8
0
 62
     6
 10
1.30127
 20
0.807617
 30
0.5
 11
1.328613
 21
0.824219
 31
0.5
  0
LINE
  5
266
  8
0
 62
     6
 10
1.328613
 20
0.824219
 30
0.5
 11
1.356934
 21
0.8378910000000001
 31
0.5
  0
LINE
  5
267
  8
0
 62
     6
 10
1.356934
 20
0.8378910000000001
 30
0.5
 11
1.387207
 21
0.848633
 31
0.5
  0
LINE
  5
268
  8
0
 62
     6
 10
1.387207
 20
0.848633
 30
0.5
 11
1.419434
 21
0.856445
 31
0.5
  0
LINE
  5
269
  8
0
 62
     6
 10
1.419434
 20
0.856445
 30
0.5
 11
1.452637
 21
0.861328
 31
0.5
  0
LINE
  5
26A
  8
0
 62
     6
 10
1.452637
 20
0.861328
 30
0.5
 11
1.487793
 21
0.862305
 31
0.5
  0
LINE
  5
26B
  8
0
 62
     6
 10
1.487793
 20
0.862305
 30
0.5
 11
1.521973
 21
0.861328
 31
0.5
  0
LINE
  5
26C
  8
0
 62
     6
 10
1.521973
 20
0.861328
 30
0.5
 11
1.554199
 21
0.856445
 31
0.5
  0
LINE
  5
26D
  8
0
 62
     6
 10
1.554199
 20
0.856445
 30
0.5
 11
1.585449
 21
0.848633
 31
0.5
  0
LINE
  5
26E
  8
0
 62
     6
 10
1.585449
 20
0.848633
 30
0.5
 11
1.614746
 21
0.8369140000000001
 31
0.5
  0
LINE
  5
26F
  8
0
 62
     6
 10
1.614746
 20
0.8369140000000001
 30
0.5
 11
1.643066
 21
0.823242
 31
0.5
  0
LINE
  5
270
  8
0
 62
     6
 10
1.643066
 20
0.823242
 30
0.5
 11
1.67041
 21
0.8056640000000001
 31
0.5
  0
LINE
  5
271
  8
0
 62
     6
 10
1.67041
 20
0.8056640000000001
 30
0.5
 11
1.694824
 21
0.786133
 31
0.5
  0
LINE
  5
272
  8
0
 62
     6
 10
1.694824
 20
0.786133
 30
0.5
 11
1.719238
 21
0.761719
 31
0.5
  0
LINE
  5
273
  8
0
 62
     6
 10
1.719238
 20
0.761719
 30
0.5
 11
1.740723
 21
0.735352
 31
0.5
  0
LINE
  5
274
  8
0
 62
     6
 10
1.740723
 20
0.735352
 30
0.5
 11
1.759277
 21
0.707031
 31
0.5
  0
LINE
  5
275
  8
0
 62
     6
 10
1.759277
 20
0.707031
 30
0.5
 11
1.774902
 21
0.674805
 31
0.5
  0
LINE
  5
276
  8
0
 62
     6
 10
1.774902
 20
0.674805
 30
0.5
 11
1.788574
 21
0.640625
 31
0.5
  0
LINE
  5
277
  8
0
 62
     6
 10
1.788574
 20
0.640625
 30
0.5
 11
1.79834
 21
0.6035160000000001
 31
0.5
  0
LINE
  5
278
  8
0
 62
     6
 10
1.79834
 20
0.6035160000000001
 30
0.5
 11
1.805176
 21
0.563477
 31
0.5
  0
LINE
  5
279
  8
0
 62
     6
 10
1.805176
 20
0.563477
 30
0.5
 11
1.810059
 21
0.520508
 31
0.5
  0
LINE
  5
27A
  8
0
 62
     6
 10
1.810059
 20
0.520508
 30
0.5
 11
1.811035
 21
0.475586
 31
0.5
  0
LINE
  5
27B
  8
0
 62
     6
 10
1.811035
 20
0.475586
 30
0.5
 11
1.810059
 21
0.431641
 31
0.5
  0
LINE
  5
27C
  8
0
 62
     6
 10
1.810059
 20
0.431641
 30
0.5
 11
1.805176
 21
0.390625
 31
0.5
  0
LINE
  5
27D
  8
0
 62
     6
 10
1.805176
 20
0.390625
 30
0.5
 11
1.79834
 21
0.351563
 31
0.5
  0
LINE
  5
27E
  8
0
 62
     6
 10
1.79834
 20
0.351563
 30
0.5
 11
1.788574
 21
0.314453
 31
0.5
  0
LINE
  5
27F
  8
0
 62
     6
 10
1.788574
 20
0.314453
 30
0.5
 11
1.774902
 21
0.280273
 31
0.5
  0
LINE
  5
280
  8
0
 62
     6
 10
1.774902
 20
0.280273
 30
0.5
 11
1.760254
 21
0.249023
 31
0.5
  0
LINE
  5
281
  8
0
 62
     6
 10
1.760254
 20
0.249023
 30
0.5
 11
1.741699
 21
0.219727
 31
0.5
  0
LINE
  5
282
  8
0
 62
     6
 10
1.741699
 20
0.219727
 30
0.5
 11
1.720215
 21
0.193359
 31
0.5
  0
LINE
  5
283
  8
0
 62
     6
 10
1.720215
 20
0.193359
 30
0.5
 11
1.696777
 21
0.169922
 31
0.5
  0
LINE
  5
284
  8
0
 62
     6
 10
1.696777
 20
0.169922
 30
0.5
 11
1.671387
 21
0.148438
 31
0.5
  0
LINE
  5
285
  8
0
 62
     6
 10
1.671387
 20
0.148438
 30
0.5
 11
1.64502
 21
0.131836
 31
0.5
  0
LINE
  5
286
  8
0
 62
     6
 10
1.64502
 20
0.131836
 30
0.5
 11
1.616699
 21
0.117188
 31
0.5
  0
LINE
  5
287
  8
0
 62
     6
 10
1.616699
 20
0.117188
 30
0.5
 11
1.586426
 21
0.106445
 31
0.5
  0
LINE
  5
288
  8
0
 62
     6
 10
1.586426
 20
0.106445
 30
0.5
 11
1.554199
 21
0.097656
 31
0.5
  0
LINE
  5
289
  8
0
 62
     6
 10
1.554199
 20
0.097656
 30
0.5
 11
1.52002
 21
0.09375
 31
0.5
  0
LINE
  5
28A
  8
0
 62
     6
 10
1.52002
 20
0.09375
 30
0.5
 11
1.484863
 21
0.091797
 31
0.5
  0
LINE
  5
28B
  8
0
 62
     6
 10
1.484863
 20
0.091797
 30
0.5
 11
1.449707
 21
0.09375
 31
0.5
  0
LINE
  5
28C
  8
0
 62
     6
 10
1.449707
 20
0.09375
 30
0.5
 11
1.416504
 21
0.098633
 31
0.5
  0
LINE
  5
28D
  8
0
 62
     6
 10
1.416504
 20
0.098633
 30
0.5
 11
1.384277
 21
0.106445
 31
0.5
  0
LINE
  5
28E
  8
0
 62
     6
 10
1.384277
 20
0.106445
 30
0.5
 11
1.354004
 21
0.117188
 31
0.5
  0
LINE
  5
28F
  8
0
 62
     6
 10
1.354004
 20
0.117188
 30
0.5
 11
1.325684
 21
0.131836
 31
0.5
  0
LINE
  5
290
  8
0
 62
     6
 10
1.325684
 20
0.131836
 30
0.5
 11
1.29834
 21
0.149414
 31
0.5
  0
LINE
  5
291
  8
0
 62
     6
 10
1.29834
 20
0.149414
 30
0.5
 11
1.273926
 21
0.169922
 31
0.5
  0
LINE
  5
292
  8
0
 62
     6
 10
1.273926
 20
0.169922
 30
0.5
 11
1.250488
 21
0.194336
 31
0.5
  0
LINE
  5
293
  8
0
 62
     6
 10
1.250488
 20
0.194336
 30
0.5
 11
1.229004
 21
0.220703
 31
0.5
  0
LINE
  5
294
  8
0
 62
     6
 10
1.229004
 20
0.220703
 30
0.5
 11
1.210449
 21
0.25
 31
0.5
  0
LINE
  5
295
  8
0
 62
     6
 10
1.210449
 20
0.25
 30
0.5
 11
1.194824
 21
0.280273
 31
0.5
  0
LINE
  5
296
  8
0
 62
     6
 10
1.194824
 20
0.280273
 30
0.5
 11
1.182129
 21
0.3125
 31
0.5
  0
LINE
  5
297
  8
0
 62
     6
 10
1.182129
 20
0.3125
 30
0.5
 11
1.172363
 21
0.347656
 31
0.5
  0
LINE
  5
298
  8
0
 62
     6
 10
1.172363
 20
0.347656
 30
0.5
 11
1.165527
 21
0.383789
 31
0.5
  0
LINE
  5
299
  8
0
 62
     6
 10
1.165527
 20
0.383789
 30
0.5
 11
1.160645
 21
0.421875
 31
0.5
  0
LINE
  5
29A
  8
0
 62
     6
 10
1.160645
 20
0.421875
 30
0.5
 11
1.159668
 21
0.462891
 31
0.5
  0
LINE
  5
29B
  8
0
 62
     6
 10
1.159668
 20
0.462891
 30
0.5
 11
1.160645
 21
0.511719
 31
0.5
  0
LINE
  5
29C
  8
0
 62
     6
 10
2.10498
 20
0.0
 30
0.5
 11
2.10498
 21
0.954102
 31
0.5
  0
LINE
  5
29D
  8
0
 62
     6
 10
2.10498
 20
0.954102
 30
0.5
 11
2.293457
 21
0.954102
 31
0.5
  0
LINE
  5
29E
  8
0
 62
     6
 10
2.293457
 20
0.954102
 30
0.5
 11
2.52002
 21
0.27832
 31
0.5
  0
LINE
  5
29F
  8
0
 62
     6
 10
2.52002
 20
0.27832
 30
0.5
 11
2.528809
 21
0.251953
 31
0.5
  0
LINE
  5
2A0
  8
0
 62
     6
 10
2.528809
 20
0.251953
 30
0.5
 11
2.536621
 21
0.227539
 31
0.5
  0
LINE
  5
2A1
  8
0
 62
     6
 10
2.536621
 20
0.227539
 30
0.5
 11
2.543457
 21
0.206055
 31
0.5
  0
LINE
  5
2A2
  8
0
 62
     6
 10
2.543457
 20
0.206055
 30
0.5
 11
2.549316
 21
0.186523
 31
0.5
  0
LINE
  5
2A3
  8
0
 62
     6
 10
2.549316
 20
0.186523
 30
0.5
 11
2.554199
 21
0.170898
 31
0.5
  0
LINE
  5
2A4
  8
0
 62
     6
 10
2.554199
 20
0.170898
 30
0.5
 11
2.558105
 21
0.157227
 31
0.5
  0
LINE
  5
2A5
  8
0
 62
     6
 10
2.558105
 20
0.157227
 30
0.5
 11
2.561035
 21
0.145508
 31
0.5
  0
LINE
  5
2A6
  8
0
 62
     6
 10
2.561035
 20
0.145508
 30
0.5
 11
2.562988
 21
0.137695
 31
0.5
  0
LINE
  5
2A7
  8
0
 62
     6
 10
2.562988
 20
0.137695
 30
0.5
 11
2.565918
 21
0.137695
 31
0.5
  0
LINE
  5
2A8
  8
0
 62
     6
 10
2.565918
 20
0.137695
 30
0.5
 11
2.570801
 21
0.151367
 31
0.5
  0
LINE
  5
2A9
  8
0
 62
     6
 10
2.570801
 20
0.151367
 30
0.5
 11
2.575684
 21
0.167969
 31
0.5
  0
LINE
  5
2AA
  8
0
 62
     6
 10
2.575684
 20
0.167969
 30
0.5
 11
2.581543
 21
0.18457
 31
0.5
  0
LINE
  5
2AB
  8
0
 62
     6
 10
2.581543
 20
0.18457
 30
0.5
 11
2.587402
 21
0.203125
 31
0.5
  0
LINE
  5
2AC
  8
0
 62
     6
 10
2.587402
 20
0.203125
 30
0.5
 11
2.594238
 21
0.222656
 31
0.5
  0
LINE
  5
2AD
  8
0
 62
     6
 10
2.594238
 20
0.222656
 30
0.5
 11
2.601074
 21
0.244141
 31
0.5
  0
LINE
  5
2AE
  8
0
 62
     6
 10
2.601074
 20
0.244141
 30
0.5
 11
2.608887
 21
0.266602
 31
0.5
  0
LINE
  5
2AF
  8
0
 62
     6
 10
2.608887
 20
0.266602
 30
0.5
 11
2.616699
 21
0.290039
 31
0.5
  0
LINE
  5
2B0
  8
0
 62
     6
 10
2.616699
 20
0.290039
 30
0.5
 11
2.844238
 21
0.954102
 31
0.5
  0
LINE
  5
2B1
  8
0
 62
     6
 10
2.844238
 20
0.954102
 30
0.5
 11
3.012207
 21
0.954102
 31
0.5
  0
LINE
  5
2B2
  8
0
 62
     6
 10
3.012207
 20
0.954102
 30
0.5
 11
3.012207
 21
0.0
 31
0.5
  0
LINE
  5
2B3
  8
0
 62
     6
 10
3.012207
 20
0.0
 30
0.5
 11
2.89209
 21
0.0
 31
0.5
  0
LINE
  5
2B4
  8
0
 62
     6
 10
2.89209
 20
0.0
 30
0.5
 11
2.89209
 21
0.798828
 31
0.5
  0
LINE
  5
2B5
  8
0
 62
     6
 10
2.89209
 20
0.798828
 30
0.5
 11
2.890137
 21
0.798828
 31
0.5
  0
LINE
  5
2B6
  8
0
 62
     6
 10
2.890137
 20
0.798828
 30
0.5
 11
2.615723
 21
0.0
 31
0.5
  0
LINE
  5
2B7
  8
0
 62
     6
 10
2.615723
 20
0.0
 30
0.5
 11
2.502441
 21
0.0
 31
0.5
  0
LINE
  5
2B8
  8
0
 62
     6
 10
2.502441
 20
0.0
 30
0.5
 11
2.229004
 21
0.811523
 31
0.5
  0
LINE
  5
2B9
  8
0
 62
     6
 10
2.229004
 20
0.811523
 30
0.5
 11
2.225098
 21
0.811523
 31
0.5
  0
LINE
  5
2BA
  8
0
 62
     6
 10
2.225098
 20
0.811523
 30
0.5
 11
2.225098
 21
0.0
 31
0.5
  0
LINE
  5
2BB
  8
0
 62
     6
 10
2.225098
 20
0.0
 30
0.5
 11
2.10498
 21
0.0
 31
0.5
  0
LINE
  5
2BC
  8
0
 62
     6
 10
3.178223
 20
0.522461
 30
0.5
 11
3.184082
 21
0.576172
 31
0.5
  0
LINE
  5
2BD
  8
0
 62
     6
 10
3.184082
 20
0.576172
 30
0.5
 11
3.193848
 21
0.62793
 31
0.5
  0
LINE
  5
2BE
  8
0
 62
     6
 10
3.193848
 20
0.62793
 30
0.5
 11
3.208496
 21
0.675781
 31
0.5
  0
LINE
  5
2BF
  8
0
 62
     6
 10
3.208496
 20
0.675781
 30
0.5
 11
3.226074
 21
0.719727
 31
0.5
  0
LINE
  5
2C0
  8
0
 62
     6
 10
3.226074
 20
0.719727
 30
0.5
 11
3.247559
 21
0.761719
 31
0.5
  0
LINE
  5
2C1
  8
0
 62
     6
 10
3.247559
 20
0.761719
 30
0.5
 11
3.273926
 21
0.799805
 31
0.5
  0
LINE
  5
2C2
  8
0
 62
     6
 10
3.273926
 20
0.799805
 30
0.5
 11
3.303223
 21
0.834961
 31
0.5
  0
LINE
  5
2C3
  8
0
 62
     6
 10
3.303223
 20
0.834961
 30
0.5
 11
3.336426
 21
0.867188
 31
0.5
  0
LINE
  5
2C4
  8
0
 62
     6
 10
3.336426
 20
0.867188
 30
0.5
 11
3.371582
 21
0.894531
 31
0.5
  0
LINE
  5
2C5
  8
0
 62
     6
 10
3.371582
 20
0.894531
 30
0.5
 11
3.409668
 21
0.917969
 31
0.5
  0
LINE
  5
2C6
  8
0
 62
     6
 10
3.409668
 20
0.917969
 30
0.5
 11
3.449707
 21
0.936523
 31
0.5
  0
LINE
  5
2C7
  8
0
 62
     6
 10
3.449707
 20
0.936523
 30
0.5
 11
3.491699
 21
0.951172
 31
0.5
  0
LINE
  5
2C8
  8
0
 62
     6
 10
3.491699
 20
0.951172
 30
0.5
 11
3.536621
 21
0.9619140000000001
 31
0.5
  0
LINE
  5
2C9
  8
0
 62
     6
 10
3.536621
 20
0.9619140000000001
 30
0.5
 11
3.584473
 21
0.96875
 31
0.5
  0
LINE
  5
2CA
  8
0
 62
     6
 10
3.584473
 20
0.96875
 30
0.5
 11
3.634277
 21
0.970703
 31
0.5
  0
LINE
  5
2CB
  8
0
 62
     6
 10
3.634277
 20
0.970703
 30
0.5
 11
3.683105
 21
0.96875
 31
0.5
  0
LINE
  5
2CC
  8
0
 62
     6
 10
3.683105
 20
0.96875
 30
0.5
 11
3.72998
 21
0.9619140000000001
 31
0.5
  0
LINE
  5
2CD
  8
0
 62
     6
 10
3.72998
 20
0.9619140000000001
 30
0.5
 11
3.773926
 21
0.951172
 31
0.5
  0
LINE
  5
2CE
  8
0
 62
     6
 10
3.773926
 20
0.951172
 30
0.5
 11
3.815918
 21
0.936523
 31
0.5
  0
LINE
  5
2CF
  8
0
 62
     6
 10
3.815918
 20
0.936523
 30
0.5
 11
3.855957
 21
0.916992
 31
0.5
  0
LINE
  5
2D0
  8
0
 62
     6
 10
3.855957
 20
0.916992
 30
0.5
 11
3.893066
 21
0.893555
 31
0.5
  0
LINE
  5
2D1
  8
0
 62
     6
 10
3.893066
 20
0.893555
 30
0.5
 11
3.929199
 21
0.866211
 31
0.5
  0
LINE
  5
2D2
  8
0
 62
     6
 10
3.929199
 20
0.866211
 30
0.5
 11
3.961426
 21
0.833984
 31
0.5
  0
LINE
  5
2D3
  8
0
 62
     6
 10
3.961426
 20
0.833984
 30
0.5
 11
3.991699
 21
0.798828
 31
0.5
  0
LINE
  5
2D4
  8
0
 62
     6
 10
3.991699
 20
0.798828
 30
0.5
 11
4.018066
 21
0.760742
 31
0.5
  0
LINE
  5
2D5
  8
0
 62
     6
 10
4.018066
 20
0.760742
 30
0.5
 11
4.039551
 21
0.720703
 31
0.5
  0
LINE
  5
2D6
  8
0
 62
     6
 10
4.039551
 20
0.720703
 30
0.5
 11
4.057129
 21
0.676758
 31
0.5
  0
LINE
  5
2D7
  8
0
 62
     6
 10
4.057129
 20
0.676758
 30
0.5
 11
4.071777
 21
0.630859
 31
0.5
  0
LINE
  5
2D8
  8
0
 62
     6
 10
4.071777
 20
0.630859
 30
0.5
 11
4.081543
 21
0.582031
 31
0.5
  0
LINE
  5
2D9
  8
0
 62
     6
 10
4.081543
 20
0.582031
 30
0.5
 11
4.087402
 21
0.530273
 31
0.5
  0
LINE
  5
2DA
  8
0
 62
     6
 10
4.087402
 20
0.530273
 30
0.5
 11
4.089355
 21
0.475586
 31
0.5
  0
LINE
  5
2DB
  8
0
 62
     6
 10
4.089355
 20
0.475586
 30
0.5
 11
4.087402
 21
0.421875
 31
0.5
  0
LINE
  5
2DC
  8
0
 62
     6
 10
4.087402
 20
0.421875
 30
0.5
 11
4.081543
 21
0.370117
 31
0.5
  0
LINE
  5
2DD
  8
0
 62
     6
 10
4.081543
 20
0.370117
 30
0.5
 11
4.071777
 21
0.321289
 31
0.5
  0
LINE
  5
2DE
  8
0
 62
     6
 10
4.071777
 20
0.321289
 30
0.5
 11
4.057129
 21
0.275391
 31
0.5
  0
LINE
  5
2DF
  8
0
 62
     6
 10
4.057129
 20
0.275391
 30
0.5
 11
4.039551
 21
0.232422
 31
0.5
  0
LINE
  5
2E0
  8
0
 62
     6
 10
4.039551
 20
0.232422
 30
0.5
 11
4.01709
 21
0.191406
 31
0.5
  0
LINE
  5
2E1
  8
0
 62
     6
 10
4.01709
 20
0.191406
 30
0.5
 11
3.991699
 21
0.154297
 31
0.5
  0
LINE
  5
2E2
  8
0
 62
     6
 10
3.991699
 20
0.154297
 30
0.5
 11
3.961426
 21
0.119141
 31
0.5
  0
LINE
  5
2E3
  8
0
 62
     6
 10
3.961426
 20
0.119141
 30
0.5
 11
3.928223
 21
0.086914
 31
0.5
  0
LINE
  5
2E4
  8
0
 62
     6
 10
3.928223
 20
0.086914
 30
0.5
 11
3.893066
 21
0.05957
 31
0.5
  0
LINE
  5
2E5
  8
0
 62
     6
 10
3.893066
 20
0.05957
 30
0.5
 11
3.85498
 21
0.036133
 31
0.5
  0
LINE
  5
2E6
  8
0
 62
     6
 10
3.85498
 20
0.036133
 30
0.5
 11
3.814941
 21
0.017578
 31
0.5
  0
LINE
  5
2E7
  8
0
 62
     6
 10
3.814941
 20
0.017578
 30
0.5
 11
3.772949
 21
0.00293
 31
0.5
  0
LINE
  5
2E8
  8
0
 62
     6
 10
3.772949
 20
0.00293
 30
0.5
 11
3.729004
 21
-0.007813
 31
0.5
  0
LINE
  5
2E9
  8
0
 62
     6
 10
3.729004
 20
-0.007813
 30
0.5
 11
3.682129
 21
-0.013672
 31
0.5
  0
LINE
  5
2EA
  8
0
 62
     6
 10
3.682129
 20
-0.013672
 30
0.5
 11
3.634277
 21
-0.016602
 31
0.5
  0
LINE
  5
2EB
  8
0
 62
     6
 10
3.634277
 20
-0.016602
 30
0.5
 11
3.583496
 21
-0.013672
 31
0.5
  0
LINE
  5
2EC
  8
0
 62
     6
 10
3.583496
 20
-0.013672
 30
0.5
 11
3.535645
 21
-0.007813
 31
0.5
  0
LINE
  5
2ED
  8
0
 62
     6
 10
3.535645
 20
-0.007813
 30
0.5
 11
3.490723
 21
0.00293
 31
0.5
  0
LINE
  5
2EE
  8
0
 62
     6
 10
3.490723
 20
0.00293
 30
0.5
 11
3.447754
 21
0.018555
 31
0.5
  0
LINE
  5
2EF
  8
0
 62
     6
 10
3.447754
 20
0.018555
 30
0.5
 11
3.407715
 21
0.038086
 31
0.5
  0
LINE
  5
2F0
  8
0
 62
     6
 10
3.407715
 20
0.038086
 30
0.5
 11
3.369629
 21
0.0625
 31
0.5
  0
LINE
  5
2F1
  8
0
 62
     6
 10
3.369629
 20
0.0625
 30
0.5
 11
3.334473
 21
0.09082
 31
0.5
  0
LINE
  5
2F2
  8
0
 62
     6
 10
3.334473
 20
0.09082
 30
0.5
 11
3.302246
 21
0.124023
 31
0.5
  0
LINE
  5
2F3
  8
0
 62
     6
 10
3.302246
 20
0.124023
 30
0.5
 11
3.271973
 21
0.15918
 31
0.5
  0
LINE
  5
2F4
  8
0
 62
     6
 10
3.271973
 20
0.15918
 30
0.5
 11
3.246582
 21
0.197266
 31
0.5
  0
LINE
  5
2F5
  8
0
 62
     6
 10
3.246582
 20
0.197266
 30
0.5
 11
3.225098
 21
0.237305
 31
0.5
  0
LINE
  5
2F6
  8
0
 62
     6
 10
3.225098
 20
0.237305
 30
0.5
 11
3.20752
 21
0.279297
 31
0.5
  0
LINE
  5
2F7
  8
0
 62
     6
 10
3.20752
 20
0.279297
 30
0.5
 11
3.193848
 21
0.322266
 31
0.5
  0
LINE
  5
2F8
  8
0
 62
     6
 10
3.193848
 20
0.322266
 30
0.5
 11
3.184082
 21
0.368164
 31
0.5
  0
LINE
  5
2F9
  8
0
 62
     6
 10
3.184082
 20
0.368164
 30
0.5
 11
3.178223
 21
0.416016
 31
0.5
  0
LINE
  5
2FA
  8
0
 62
     6
 10
3.178223
 20
0.416016
 30
0.5
 11
3.17627
 21
0.46582
 31
0.5
  0
LINE
  5
2FB
  8
0
 62
     6
 10
3.17627
 20
0.46582
 30
0.5
 11
3.178223
 21
0.522461
 31
0.5
  0
LINE
  5
2FC
  8
0
 62
     6
 10
3.308105
 20
0.511719
 30
0.5
 11
3.312988
 21
0.557617
 31
0.5
  0
LINE
  5
2FD
  8
0
 62
     6
 10
3.312988
 20
0.557617
 30
0.5
 11
3.319824
 21
0.600586
 31
0.5
  0
LINE
  5
2FE
  8
0
 62
     6
 10
3.319824
 20
0.600586
 30
0.5
 11
3.330566
 21
0.639648
 31
0.5
  0
LINE
  5
2FF
  8
0
 62
     6
 10
3.330566
 20
0.639648
 30
0.5
 11
3.343262
 21
0.675781
 31
0.5
  0
LINE
  5
300
  8
0
 62
     6
 10
3.343262
 20
0.675781
 30
0.5
 11
3.358887
 21
0.708008
 31
0.5
  0
LINE
  5
301
  8
0
 62
     6
 10
3.358887
 20
0.708008
 30
0.5
 11
3.377441
 21
0.738281
 31
0.5
  0
LINE
  5
302
  8
0
 62
     6
 10
3.377441
 20
0.738281
 30
0.5
 11
3.399902
 21
0.763672
 31
0.5
  0
LINE
  5
303
  8
0
 62
     6
 10
3.399902
 20
0.763672
 30
0.5
 11
3.42334
 21
0.787109
 31
0.5
  0
LINE
  5
304
  8
0
 62
     6
 10
3.42334
 20
0.787109
 30
0.5
 11
3.44873
 21
0.807617
 31
0.5
  0
LINE
  5
305
  8
0
 62
     6
 10
3.44873
 20
0.807617
 30
0.5
 11
3.476074
 21
0.824219
 31
0.5
  0
LINE
  5
306
  8
0
 62
     6
 10
3.476074
 20
0.824219
 30
0.5
 11
3.504395
 21
0.8378910000000001
 31
0.5
  0
LINE
  5
307
  8
0
 62
     6
 10
3.504395
 20
0.8378910000000001
 30
0.5
 11
3.534668
 21
0.848633
 31
0.5
  0
LINE
  5
308
  8
0
 62
     6
 10
3.534668
 20
0.848633
 30
0.5
 11
3.566895
 21
0.856445
 31
0.5
  0
LINE
  5
309
  8
0
 62
     6
 10
3.566895
 20
0.856445
 30
0.5
 11
3.600098
 21
0.861328
 31
0.5
  0
LINE
  5
30A
  8
0
 62
     6
 10
3.600098
 20
0.861328
 30
0.5
 11
3.635254
 21
0.862305
 31
0.5
  0
LINE
  5
30B
  8
0
 62
     6
 10
3.635254
 20
0.862305
 30
0.5
 11
3.669434
 21
0.861328
 31
0.5
  0
LINE
  5
30C
  8
0
 62
     6
 10
3.669434
 20
0.861328
 30
0.5
 11
3.70166
 21
0.856445
 31
0.5
  0
LINE
  5
30D
  8
0
 62
     6
 10
3.70166
 20
0.856445
 30
0.5
 11
3.73291
 21
0.848633
 31
0.5
  0
LINE
  5
30E
  8
0
 62
     6
 10
3.73291
 20
0.848633
 30
0.5
 11
3.762207
 21
0.8369140000000001
 31
0.5
  0
LINE
  5
30F
  8
0
 62
     6
 10
3.762207
 20
0.8369140000000001
 30
0.5
 11
3.790527
 21
0.823242
 31
0.5
  0
LINE
  5
310
  8
0
 62
     6
 10
3.790527
 20
0.823242
 30
0.5
 11
3.817871
 21
0.8056640000000001
 31
0.5
  0
LINE
  5
311
  8
0
 62
     6
 10
3.817871
 20
0.8056640000000001
 30
0.5
 11
3.842285
 21
0.786133
 31
0.5
  0
LINE
  5
312
  8
0
 62
     6
 10
3.842285
 20
0.786133
 30
0.5
 11
3.866699
 21
0.761719
 31
0.5
  0
LINE
  5
313
  8
0
 62
     6
 10
3.866699
 20
0.761719
 30
0.5
 11
3.888184
 21
0.735352
 31
0.5
  0
LINE
  5
314
  8
0
 62
     6
 10
3.888184
 20
0.735352
 30
0.5
 11
3.906738
 21
0.707031
 31
0.5
  0
LINE
  5
315
  8
0
 62
     6
 10
3.906738
 20
0.707031
 30
0.5
 11
3.922363
 21
0.674805
 31
0.5
  0
LINE
  5
316
  8
0
 62
     6
 10
3.922363
 20
0.674805
 30
0.5
 11
3.936035
 21
0.640625
 31
0.5
  0
LINE
  5
317
  8
0
 62
     6
 10
3.936035
 20
0.640625
 30
0.5
 11
3.945801
 21
0.6035160000000001
 31
0.5
  0
LINE
  5
318
  8
0
 62
     6
 10
3.945801
 20
0.6035160000000001
 30
0.5
 11
3.952637
 21
0.563477
 31
0.5
  0
LINE
  5
319
  8
0
 62
     6
 10
3.952637
 20
0.563477
 30
0.5
 11
3.95752
 21
0.520508
 31
0.5
  0
LINE
  5
31A
  8
0
 62
     6
 10
3.95752
 20
0.520508
 30
0.5
 11
3.958496
 21
0.475586
 31
0.5
  0
LINE
  5
31B
  8
0
 62
     6
 10
3.958496
 20
0.475586
 30
0.5
 11
3.95752
 21
0.431641
 31
0.5
  0
LINE
  5
31C
  8
0
 62
     6
 10
3.95752
 20
0.431641
 30
0.5
 11
3.952637
 21
0.390625
 31
0.5
  0
LINE
  5
31D
  8
0
 62
     6
 10
3.952637
 20
0.390625
 30
0.5
 11
3.945801
 21
0.351563
 31
0.5
  0
LINE
  5
31E
  8
0
 62
     6
 10
3.945801
 20
0.351563
 30
0.5
 11
3.936035
 21
0.314453
 31
0.5
  0
LINE
  5
31F
  8
0
 62
     6
 10
3.936035
 20
0.314453
 30
0.5
 11
3.922363
 21
0.280273
 31
0.5
  0
LINE
  5
320
  8
0
 62
     6
 10
3.922363
 20
0.280273
 30
0.5
 11
3.907715
 21
0.249023
 31
0.5
  0
LINE
  5
321
  8
0
 62
     6
 10
3.907715
 20
0.249023
 30
0.5
 11
3.88916
 21
0.219727
 31
0.5
  0
LINE
  5
322
  8
0
 62
     6
 10
3.88916
 20
0.219727
 30
0.5
 11
3.867676
 21
0.193359
 31
0.5
  0
LINE
  5
323
  8
0
 62
     6
 10
3.867676
 20
0.193359
 30
0.5
 11
3.844238
 21
0.169922
 31
0.5
  0
LINE
  5
324
  8
0
 62
     6
 10
3.844238
 20
0.169922
 30
0.5
 11
3.818848
 21
0.148438
 31
0.5
  0
LINE
  5
325
  8
0
 62
     6
 10
3.818848
 20
0.148438
 30
0.5
 11
3.79248
 21
0.131836
 31
0.5
  0
LINE
  5
326
  8
0
 62
     6
 10
3.79248
 20
0.131836
 30
0.5
 11
3.76416
 21
0.117188
 31
0.5
  0
LINE
  5
327
  8
0
 62
     6
 10
3.76416
 20
0.117188
 30
0.5
 11
3.733887
 21
0.106445
 31
0.5
  0
LINE
  5
328
  8
0
 62
     6
 10
3.733887
 20
0.106445
 30
0.5
 11
3.70166
 21
0.097656
 31
0.5
  0
LINE
  5
329
  8
0
 62
     6
 10
3.70166
 20
0.097656
 30
0.5
 11
3.66748
 21
0.09375
 31
0.5
  0
LINE
  5
32A
  8
0
 62
     6
 10
3.66748
 20
0.09375
 30
0.5
 11
3.632324
 21
0.091797
 31
0.5
  0
LINE
  5
32B
  8
0
 62
     6
 10
3.632324
 20
0.091797
 30
0.5
 11
3.597168
 21
0.09375
 31
0.5
  0
LINE
  5
32C
  8
0
 62
     6
 10
3.597168
 20
0.09375
 30
0.5
 11
3.563965
 21
0.098633
 31
0.5
  0
LINE
  5
32D
  8
0
 62
     6
 10
3.563965
 20
0.098633
 30
0.5
 11
3.531738
 21
0.106445
 31
0.5
  0
LINE
  5
32E
  8
0
 62
     6
 10
3.531738
 20
0.106445
 30
0.5
 11
3.501465
 21
0.117188
 31
0.5
  0
LINE
  5
32F
  8
0
 62
     6
 10
3.501465
 20
0.117188
 30
0.5
 11
3.473145
 21
0.131836
 31
0.5
  0
LINE
  5
330
  8
0
 62
     6
 10
3.473145
 20
0.131836
 30
0.5
 11
3.445801
 21
0.149414
 31
0.5
  0
LINE
  5
331
  8
0
 62
     6
 10
3.445801
 20
0.149414
 30
0.5
 11
3.421387
 21
0.169922
 31
0.5
  0
LINE
  5
332
  8
0
 62
     6
 10
3.421387
 20
0.169922
 30
0.5
 11
3.397949
 21
0.194336
 31
0.5
  0
LINE
  5
333
  8
0
 62
     6
 10
3.397949
 20
0.194336
 30
0.5
 11
3.376465
 21
0.220703
 31
0.5
  0
LINE
  5
334
  8
0
 62
     6
 10
3.376465
 20
0.220703
 30
0.5
 11
3.35791
 21
0.25
 31
0.5
  0
LINE
  5
335
  8
0
 62
     6
 10
3.35791
 20
0.25
 30
0.5
 11
3.342285
 21
0.280273
 31
0.5
  0
LINE
  5
336
  8
0
 62
     6
 10
3.342285
 20
0.280273
 30
0.5
 11
3.32959
 21
0.3125
 31
0.5
  0
LINE
  5
337
  8
0
 62
     6
 10
3.32959
 20
0.3125
 30
0.5
 11
3.319824
 21
0.347656
 31
0.5
  0
LINE
  5
338
  8
0
 62
     6
 10
3.319824
 20
0.347656
 30
0.5
 11
3.312988
 21
0.383789
 31
0.5
  0
LINE
  5
339
  8
0
 62
     6
 10
3.312988
 20
0.383789
 30
0.5
 11
3.308105
 21
0.421875
 31
0.5
  0
LINE
  5
33A
  8
0
 62
     6
 10
3.308105
 20
0.421875
 30
0.5
 11
3.307129
 21
0.462891
 31
0.5
  0
LINE
  5
33B
  8
0
 62
     6
 10
3.307129
 20
0.462891
 30
0.5
 11
3.308105
 21
0.511719
 31
0.5
  0
LINE
  5
33C
  8
0
 62
     6
 10
4.384277
 20
0.0
 30
0.5
 11
4.257324
 21
0.0
 31
0.5
  0
LINE
  5
33D
  8
0
 62
     6
 10
4.257324
 20
0.0
 30
0.5
 11
4.257324
 21
0.954102
 31
0.5
  0
LINE
  5
33E
  8
0
 62
     6
 10
4.257324
 20
0.954102
 30
0.5
 11
4.680176
 21
0.954102
 31
0.5
  0
LINE
  5
33F
  8
0
 62
     6
 10
4.680176
 20
0.954102
 30
0.5
 11
4.70166
 21
0.954102
 31
0.5
  0
LINE
  5
340
  8
0
 62
     6
 10
4.70166
 20
0.954102
 30
0.5
 11
4.721191
 21
0.953125
 31
0.5
  0
LINE
  5
341
  8
0
 62
     6
 10
4.721191
 20
0.953125
 30
0.5
 11
4.740723
 21
0.953125
 31
0.5
  0
LINE
  5
342
  8
0
 62
     6
 10
4.740723
 20
0.953125
 30
0.5
 11
4.759277
 21
0.951172
 31
0.5
  0
LINE
  5
343
  8
0
 62
     6
 10
4.759277
 20
0.951172
 30
0.5
 11
4.776855
 21
0.950195
 31
0.5
  0
LINE
  5
344
  8
0
 62
     6
 10
4.776855
 20
0.950195
 30
0.5
 11
4.794434
 21
0.948242
 31
0.5
  0
LINE
  5
345
  8
0
 62
     6
 10
4.794434
 20
0.948242
 30
0.5
 11
4.810059
 21
0.945313
 31
0.5
  0
LINE
  5
346
  8
0
 62
     6
 10
4.810059
 20
0.945313
 30
0.5
 11
4.824707
 21
0.943359
 31
0.5
  0
LINE
  5
347
  8
0
 62
     6
 10
4.824707
 20
0.943359
 30
0.5
 11
4.839355
 21
0.94043
 31
0.5
  0
LINE
  5
348
  8
0
 62
     6
 10
4.839355
 20
0.94043
 30
0.5
 11
4.854004
 21
0.936523
 31
0.5
  0
LINE
  5
349
  8
0
 62
     6
 10
4.854004
 20
0.936523
 30
0.5
 11
4.866699
 21
0.9316410000000001
 31
0.5
  0
LINE
  5
34A
  8
0
 62
     6
 10
4.866699
 20
0.9316410000000001
 30
0.5
 11
4.880371
 21
0.925781
 31
0.5
  0
LINE
  5
34B
  8
0
 62
     6
 10
4.880371
 20
0.925781
 30
0.5
 11
4.893066
 21
0.919922
 31
0.5
  0
LINE
  5
34C
  8
0
 62
     6
 10
4.893066
 20
0.919922
 30
0.5
 11
4.904785
 21
0.913086
 31
0.5
  0
LINE
  5
34D
  8
0
 62
     6
 10
4.904785
 20
0.913086
 30
0.5
 11
4.916504
 21
0.905273
 31
0.5
  0
LINE
  5
34E
  8
0
 62
     6
 10
4.916504
 20
0.905273
 30
0.5
 11
4.928223
 21
0.896484
 31
0.5
  0
LINE
  5
34F
  8
0
 62
     6
 10
4.928223
 20
0.896484
 30
0.5
 11
4.938965
 21
0.887695
 31
0.5
  0
LINE
  5
350
  8
0
 62
     6
 10
4.938965
 20
0.887695
 30
0.5
 11
4.94873
 21
0.87793
 31
0.5
  0
LINE
  5
351
  8
0
 62
     6
 10
4.94873
 20
0.87793
 30
0.5
 11
4.958496
 21
0.867188
 31
0.5
  0
LINE
  5
352
  8
0
 62
     6
 10
4.958496
 20
0.867188
 30
0.5
 11
4.967285
 21
0.856445
 31
0.5
  0
LINE
  5
353
  8
0
 62
     6
 10
4.967285
 20
0.856445
 30
0.5
 11
4.975098
 21
0.844727
 31
0.5
  0
LINE
  5
354
  8
0
 62
     6
 10
4.975098
 20
0.844727
 30
0.5
 11
4.98291
 21
0.833008
 31
0.5
  0
LINE
  5
355
  8
0
 62
     6
 10
4.98291
 20
0.833008
 30
0.5
 11
4.989746
 21
0.820313
 31
0.5
  0
LINE
  5
356
  8
0
 62
     6
 10
4.989746
 20
0.820313
 30
0.5
 11
4.995605
 21
0.8066410000000001
 31
0.5
  0
LINE
  5
357
  8
0
 62
     6
 10
4.995605
 20
0.8066410000000001
 30
0.5
 11
5.001465
 21
0.793945
 31
0.5
  0
LINE
  5
358
  8
0
 62
     6
 10
5.001465
 20
0.793945
 30
0.5
 11
5.006348
 21
0.779297
 31
0.5
  0
LINE
  5
359
  8
0
 62
     6
 10
5.006348
 20
0.779297
 30
0.5
 11
5.010254
 21
0.765625
 31
0.5
  0
LINE
  5
35A
  8
0
 62
     6
 10
5.010254
 20
0.765625
 30
0.5
 11
5.01416
 21
0.751953
 31
0.5
  0
LINE
  5
35B
  8
0
 62
     6
 10
5.01416
 20
0.751953
 30
0.5
 11
5.016113
 21
0.737305
 31
0.5
  0
LINE
  5
35C
  8
0
 62
     6
 10
5.016113
 20
0.737305
 30
0.5
 11
5.018066
 21
0.722656
 31
0.5
  0
LINE
  5
35D
  8
0
 62
     6
 10
5.018066
 20
0.722656
 30
0.5
 11
5.019043
 21
0.708008
 31
0.5
  0
LINE
  5
35E
  8
0
 62
     6
 10
5.019043
 20
0.708008
 30
0.5
 11
5.02002
 21
0.693359
 31
0.5
  0
LINE
  5
35F
  8
0
 62
     6
 10
5.02002
 20
0.693359
 30
0.5
 11
5.019043
 21
0.666992
 31
0.5
  0
LINE
  5
360
  8
0
 62
     6
 10
5.019043
 20
0.666992
 30
0.5
 11
5.015137
 21
0.641602
 31
0.5
  0
LINE
  5
361
  8
0
 62
     6
 10
5.015137
 20
0.641602
 30
0.5
 11
5.010254
 21
0.6181640000000001
 31
0.5
  0
LINE
  5
362
  8
0
 62
     6
 10
5.010254
 20
0.6181640000000001
 30
0.5
 11
5.002441
 21
0.595703
 31
0.5
  0
LINE
  5
363
  8
0
 62
     6
 10
5.002441
 20
0.595703
 30
0.5
 11
4.992676
 21
0.574219
 31
0.5
  0
LINE
  5
364
  8
0
 62
     6
 10
4.992676
 20
0.574219
 30
0.5
 11
4.980957
 21
0.554688
 31
0.5
  0
LINE
  5
365
  8
0
 62
     6
 10
4.980957
 20
0.554688
 30
0.5
 11
4.967285
 21
0.536133
 31
0.5
  0
LINE
  5
366
  8
0
 62
     6
 10
4.967285
 20
0.536133
 30
0.5
 11
4.95166
 21
0.519531
 31
0.5
  0
LINE
  5
367
  8
0
 62
     6
 10
4.95166
 20
0.519531
 30
0.5
 11
4.933105
 21
0.503906
 31
0.5
  0
LINE
  5
368
  8
0
 62
     6
 10
4.933105
 20
0.503906
 30
0.5
 11
4.913574
 21
0.489258
 31
0.5
  0
LINE
  5
369
  8
0
 62
     6
 10
4.913574
 20
0.489258
 30
0.5
 11
4.891113
 21
0.476563
 31
0.5
  0
LINE
  5
36A
  8
0
 62
     6
 10
4.891113
 20
0.476563
 30
0.5
 11
4.867676
 21
0.46582
 31
0.5
  0
LINE
  5
36B
  8
0
 62
     6
 10
4.867676
 20
0.46582
 30
0.5
 11
4.841309
 21
0.456055
 31
0.5
  0
LINE
  5
36C
  8
0
 62
     6
 10
4.841309
 20
0.456055
 30
0.5
 11
4.813965
 21
0.448242
 31
0.5
  0
LINE
  5
36D
  8
0
 62
     6
 10
4.813965
 20
0.448242
 30
0.5
 11
4.783691
 21
0.441406
 31
0.5
  0
LINE
  5
36E
  8
0
 62
     6
 10
4.783691
 20
0.441406
 30
0.5
 11
4.752441
 21
0.436523
 31
0.5
  0
LINE
  5
36F
  8
0
 62
     6
 10
4.752441
 20
0.436523
 30
0.5
 11
4.752441
 21
0.433594
 31
0.5
  0
LINE
  5
370
  8
0
 62
     6
 10
4.752441
 20
0.433594
 30
0.5
 11
4.775879
 21
0.421875
 31
0.5
  0
LINE
  5
371
  8
0
 62
     6
 10
4.775879
 20
0.421875
 30
0.5
 11
4.799316
 21
0.407227
 31
0.5
  0
LINE
  5
372
  8
0
 62
     6
 10
4.799316
 20
0.407227
 30
0.5
 11
4.822754
 21
0.389648
 31
0.5
  0
LINE
  5
373
  8
0
 62
     6
 10
4.822754
 20
0.389648
 30
0.5
 11
4.845215
 21
0.369141
 31
0.5
  0
LINE
  5
374
  8
0
 62
     6
 10
4.845215
 20
0.369141
 30
0.5
 11
4.867676
 21
0.345703
 31
0.5
  0
LINE
  5
375
  8
0
 62
     6
 10
4.867676
 20
0.345703
 30
0.5
 11
4.88916
 21
0.320313
 31
0.5
  0
LINE
  5
376
  8
0
 62
     6
 10
4.88916
 20
0.320313
 30
0.5
 11
4.910645
 21
0.291016
 31
0.5
  0
LINE
  5
377
  8
0
 62
     6
 10
4.910645
 20
0.291016
 30
0.5
 11
4.932129
 21
0.259766
 31
0.5
  0
LINE
  5
378
  8
0
 62
     6
 10
4.932129
 20
0.259766
 30
0.5
 11
5.098145
 21
0.0
 31
0.5
  0
LINE
  5
379
  8
0
 62
     6
 10
5.098145
 20
0.0
 30
0.5
 11
4.939941
 21
0.0
 31
0.5
  0
LINE
  5
37A
  8
0
 62
     6
 10
4.939941
 20
0.0
 30
0.5
 11
4.905762
 21
0.053711
 31
0.5
  0
LINE
  5
37B
  8
0
 62
     6
 10
4.905762
 20
0.053711
 30
0.5
 11
4.875488
 21
0.101563
 31
0.5
  0
LINE
  5
37C
  8
0
 62
     6
 10
4.875488
 20
0.101563
 30
0.5
 11
4.848145
 21
0.144531
 31
0.5
  0
LINE
  5
37D
  8
0
 62
     6
 10
4.848145
 20
0.144531
 30
0.5
 11
4.824707
 21
0.181641
 31
0.5
  0
LINE
  5
37E
  8
0
 62
     6
 10
4.824707
 20
0.181641
 30
0.5
 11
4.804199
 21
0.213867
 31
0.5
  0
LINE
  5
37F
  8
0
 62
     6
 10
4.804199
 20
0.213867
 30
0.5
 11
4.786621
 21
0.240234
 31
0.5
  0
LINE
  5
380
  8
0
 62
     6
 10
4.786621
 20
0.240234
 30
0.5
 11
4.772949
 21
0.260742
 31
0.5
  0
LINE
  5
381
  8
0
 62
     6
 10
4.772949
 20
0.260742
 30
0.5
 11
4.763184
 21
0.276367
 31
0.5
  0
LINE
  5
382
  8
0
 62
     6
 10
4.763184
 20
0.276367
 30
0.5
 11
4.754395
 21
0.289063
 31
0.5
  0
LINE
  5
383
  8
0
 62
     6
 10
4.754395
 20
0.289063
 30
0.5
 11
4.745605
 21
0.301758
 31
0.5
  0
LINE
  5
384
  8
0
 62
     6
 10
4.745605
 20
0.301758
 30
0.5
 11
4.736816
 21
0.313477
 31
0.5
  0
LINE
  5
385
  8
0
 62
     6
 10
4.736816
 20
0.313477
 30
0.5
 11
4.727051
 21
0.324219
 31
0.5
  0
LINE
  5
386
  8
0
 62
     6
 10
4.727051
 20
0.324219
 30
0.5
 11
4.718262
 21
0.334961
 31
0.5
  0
LINE
  5
387
  8
0
 62
     6
 10
4.718262
 20
0.334961
 30
0.5
 11
4.708496
 21
0.345703
 31
0.5
  0
LINE
  5
388
  8
0
 62
     6
 10
4.708496
 20
0.345703
 30
0.5
 11
4.699707
 21
0.355469
 31
0.5
  0
LINE
  5
389
  8
0
 62
     6
 10
4.699707
 20
0.355469
 30
0.5
 11
4.689941
 21
0.365234
 31
0.5
  0
LINE
  5
38A
  8
0
 62
     6
 10
4.689941
 20
0.365234
 30
0.5
 11
4.681152
 21
0.374023
 31
0.5
  0
LINE
  5
38B
  8
0
 62
     6
 10
4.681152
 20
0.374023
 30
0.5
 11
4.671387
 21
0.381836
 31
0.5
  0
LINE
  5
38C
  8
0
 62
     6
 10
4.671387
 20
0.381836
 30
0.5
 11
4.662598
 21
0.388672
 31
0.5
  0
LINE
  5
38D
  8
0
 62
     6
 10
4.662598
 20
0.388672
 30
0.5
 11
4.652832
 21
0.394531
 31
0.5
  0
LINE
  5
38E
  8
0
 62
     6
 10
4.652832
 20
0.394531
 30
0.5
 11
4.644043
 21
0.400391
 31
0.5
  0
LINE
  5
38F
  8
0
 62
     6
 10
4.644043
 20
0.400391
 30
0.5
 11
4.635254
 21
0.405273
 31
0.5
  0
LINE
  5
390
  8
0
 62
     6
 10
4.635254
 20
0.405273
 30
0.5
 11
4.627441
 21
0.408203
 31
0.5
  0
LINE
  5
391
  8
0
 62
     6
 10
4.627441
 20
0.408203
 30
0.5
 11
4.618652
 21
0.411133
 31
0.5
  0
LINE
  5
392
  8
0
 62
     6
 10
4.618652
 20
0.411133
 30
0.5
 11
4.609863
 21
0.414063
 31
0.5
  0
LINE
  5
393
  8
0
 62
     6
 10
4.609863
 20
0.414063
 30
0.5
 11
4.600098
 21
0.416016
 31
0.5
  0
LINE
  5
394
  8
0
 62
     6
 10
4.600098
 20
0.416016
 30
0.5
 11
4.590332
 21
0.416992
 31
0.5
  0
LINE
  5
395
  8
0
 62
     6
 10
4.590332
 20
0.416992
 30
0.5
 11
4.57959
 21
0.418945
 31
0.5
  0
LINE
  5
396
  8
0
 62
     6
 10
4.57959
 20
0.418945
 30
0.5
 11
4.567871
 21
0.419922
 31
0.5
  0
LINE
  5
397
  8
0
 62
     6
 10
4.567871
 20
0.419922
 30
0.5
 11
4.556152
 21
0.420898
 31
0.5
  0
LINE
  5
398
  8
0
 62
     6
 10
4.556152
 20
0.420898
 30
0.5
 11
4.543457
 21
0.420898
 31
0.5
  0
LINE
  5
399
  8
0
 62
     6
 10
4.543457
 20
0.420898
 30
0.5
 11
4.529785
 21
0.420898
 31
0.5
  0
LINE
  5
39A
  8
0
 62
     6
 10
4.529785
 20
0.420898
 30
0.5
 11
4.384277
 21
0.420898
 31
0.5
  0
LINE
  5
39B
  8
0
 62
     6
 10
4.384277
 20
0.420898
 30
0.5
 11
4.384277
 21
0.0
 31
0.5
  0
LINE
  5
39C
  8
0
 62
     6
 10
4.685059
 20
0.849609
 30
0.5
 11
4.711426
 21
0.848633
 31
0.5
  0
LINE
  5
39D
  8
0
 62
     6
 10
4.711426
 20
0.848633
 30
0.5
 11
4.73584
 21
0.84668
 31
0.5
  0
LINE
  5
39E
  8
0
 62
     6
 10
4.73584
 20
0.84668
 30
0.5
 11
4.758301
 21
0.842773
 31
0.5
  0
LINE
  5
39F
  8
0
 62
     6
 10
4.758301
 20
0.842773
 30
0.5
 11
4.778809
 21
0.8378910000000001
 31
0.5
  0
LINE
  5
3A0
  8
0
 62
     6
 10
4.778809
 20
0.8378910000000001
 30
0.5
 11
4.797363
 21
0.832031
 31
0.5
  0
LINE
  5
3A1
  8
0
 62
     6
 10
4.797363
 20
0.832031
 30
0.5
 11
4.814941
 21
0.824219
 31
0.5
  0
LINE
  5
3A2
  8
0
 62
     6
 10
4.814941
 20
0.824219
 30
0.5
 11
4.82959
 21
0.814453
 31
0.5
  0
LINE
  5
3A3
  8
0
 62
     6
 10
4.82959
 20
0.814453
 30
0.5
 11
4.842285
 21
0.803711
 31
0.5
  0
LINE
  5
3A4
  8
0
 62
     6
 10
4.842285
 20
0.803711
 30
0.5
 11
4.853027
 21
0.791992
 31
0.5
  0
LINE
  5
3A5
  8
0
 62
     6
 10
4.853027
 20
0.791992
 30
0.5
 11
4.862793
 21
0.780273
 31
0.5
  0
LINE
  5
3A6
  8
0
 62
     6
 10
4.862793
 20
0.780273
 30
0.5
 11
4.870605
 21
0.766602
 31
0.5
  0
LINE
  5
3A7
  8
0
 62
     6
 10
4.870605
 20
0.766602
 30
0.5
 11
4.877441
 21
0.75293
 31
0.5
  0
LINE
  5
3A8
  8
0
 62
     6
 10
4.877441
 20
0.75293
 30
0.5
 11
4.883301
 21
0.739258
 31
0.5
  0
LINE
  5
3A9
  8
0
 62
     6
 10
4.883301
 20
0.739258
 30
0.5
 11
4.88623
 21
0.724609
 31
0.5
  0
LINE
  5
3AA
  8
0
 62
     6
 10
4.88623
 20
0.724609
 30
0.5
 11
4.88916
 21
0.708984
 31
0.5
  0
LINE
  5
3AB
  8
0
 62
     6
 10
4.88916
 20
0.708984
 30
0.5
 11
4.88916
 21
0.693359
 31
0.5
  0
LINE
  5
3AC
  8
0
 62
     6
 10
4.88916
 20
0.693359
 30
0.5
 11
4.88916
 21
0.6806640000000001
 31
0.5
  0
LINE
  5
3AD
  8
0
 62
     6
 10
4.88916
 20
0.6806640000000001
 30
0.5
 11
4.888184
 21
0.668945
 31
0.5
  0
LINE
  5
3AE
  8
0
 62
     6
 10
4.888184
 20
0.668945
 30
0.5
 11
4.885254
 21
0.657227
 31
0.5
  0
LINE
  5
3AF
  8
0
 62
     6
 10
4.885254
 20
0.657227
 30
0.5
 11
4.882324
 21
0.645508
 31
0.5
  0
LINE
  5
3B0
  8
0
 62
     6
 10
4.882324
 20
0.645508
 30
0.5
 11
4.878418
 21
0.6347660000000001
 31
0.5
  0
LINE
  5
3B1
  8
0
 62
     6
 10
4.878418
 20
0.6347660000000001
 30
0.5
 11
4.873535
 21
0.623047
 31
0.5
  0
LINE
  5
3B2
  8
0
 62
     6
 10
4.873535
 20
0.623047
 30
0.5
 11
4.867676
 21
0.613281
 31
0.5
  0
LINE
  5
3B3
  8
0
 62
     6
 10
4.867676
 20
0.613281
 30
0.5
 11
4.86084
 21
0.6025390000000001
 31
0.5
  0
LINE
  5
3B4
  8
0
 62
     6
 10
4.86084
 20
0.6025390000000001
 30
0.5
 11
4.854004
 21
0.592773
 31
0.5
  0
LINE
  5
3B5
  8
0
 62
     6
 10
4.854004
 20
0.592773
 30
0.5
 11
4.845215
 21
0.583984
 31
0.5
  0
LINE
  5
3B6
  8
0
 62
     6
 10
4.845215
 20
0.583984
 30
0.5
 11
4.836426
 21
0.576172
 31
0.5
  0
LINE
  5
3B7
  8
0
 62
     6
 10
4.836426
 20
0.576172
 30
0.5
 11
4.827637
 21
0.569336
 31
0.5
  0
LINE
  5
3B8
  8
0
 62
     6
 10
4.827637
 20
0.569336
 30
0.5
 11
4.817871
 21
0.5625
 31
0.5
  0
LINE
  5
3B9
  8
0
 62
     6
 10
4.817871
 20
0.5625
 30
0.5
 11
4.807129
 21
0.5566410000000001
 31
0.5
  0
LINE
  5
3BA
  8
0
 62
     6
 10
4.807129
 20
0.5566410000000001
 30
0.5
 11
4.796387
 21
0.552734
 31
0.5
  0
LINE
  5
3BB
  8
0
 62
     6
 10
4.796387
 20
0.552734
 30
0.5
 11
4.784668
 21
0.548828
 31
0.5
  0
LINE
  5
3BC
  8
0
 62
     6
 10
4.784668
 20
0.548828
 30
0.5
 11
4.771973
 21
0.544922
 31
0.5
  0
LINE
  5
3BD
  8
0
 62
     6
 10
4.771973
 20
0.544922
 30
0.5
 11
4.758301
 21
0.541992
 31
0.5
  0
LINE
  5
3BE
  8
0
 62
     6
 10
4.758301
 20
0.541992
 30
0.5
 11
4.743652
 21
0.5400390000000001
 31
0.5
  0
LINE
  5
3BF
  8
0
 62
     6
 10
4.743652
 20
0.5400390000000001
 30
0.5
 11
4.728027
 21
0.538086
 31
0.5
  0
LINE
  5
3C0
  8
0
 62
     6
 10
4.728027
 20
0.538086
 30
0.5
 11
4.711426
 21
0.536133
 31
0.5
  0
LINE
  5
3C1
  8
0
 62
     6
 10
4.711426
 20
0.536133
 30
0.5
 11
4.693848
 21
0.535156
 31
0.5
  0
LINE
  5
3C2
  8
0
 62
     6
 10
4.693848
 20
0.535156
 30
0.5
 11
4.674316
 21
0.53418
 31
0.5
  0
LINE
  5
3C3
  8
0
 62
     6
 10
4.674316
 20
0.53418
 30
0.5
 11
4.654785
 21
0.53418
 31
0.5
  0
LINE
  5
3C4
  8
0
 62
     6
 10
4.654785
 20
0.53418
 30
0.5
 11
4.384277
 21
0.53418
 31
0.5
  0
LINE
  5
3C5
  8
0
 62
     6
 10
4.384277
 20
0.53418
 30
0.5
 11
4.384277
 21
0.849609
 31
0.5
  0
LINE
  5
3C6
  8
0
 62
     6
 10
4.384277
 20
0.849609
 30
0.5
 11
4.685059
 21
0.849609
 31
0.5
  0
LINE
  5
3C7
  8
0
 62
     6
 10
5.347168
 20
0.0
 30
0.5
 11
5.220215
 21
0.0
 31
0.5
  0
LINE
  5
3C8
  8
0
 62
     6
 10
5.220215
 20
0.0
 30
0.5
 11
5.220215
 21
0.954102
 31
0.5
  0
LINE
  5
3C9
  8
0
 62
     6
 10
5.220215
 20
0.954102
 30
0.5
 11
5.643066
 21
0.954102
 31
0.5
  0
LINE
  5
3CA
  8
0
 62
     6
 10
5.643066
 20
0.954102
 30
0.5
 11
5.664551
 21
0.954102
 31
0.5
  0
LINE
  5
3CB
  8
0
 62
     6
 10
5.664551
 20
0.954102
 30
0.5
 11
5.684082
 21
0.953125
 31
0.5
  0
LINE
  5
3CC
  8
0
 62
     6
 10
5.684082
 20
0.953125
 30
0.5
 11
5.703613
 21
0.953125
 31
0.5
  0
LINE
  5
3CD
  8
0
 62
     6
 10
5.703613
 20
0.953125
 30
0.5
 11
5.722168
 21
0.951172
 31
0.5
  0
LINE
  5
3CE
  8
0
 62
     6
 10
5.722168
 20
0.951172
 30
0.5
 11
5.739746
 21
0.950195
 31
0.5
  0
LINE
  5
3CF
  8
0
 62
     6
 10
5.739746
 20
0.950195
 30
0.5
 11
5.757324
 21
0.948242
 31
0.5
  0
LINE
  5
3D0
  8
0
 62
     6
 10
5.757324
 20
0.948242
 30
0.5
 11
5.772949
 21
0.945313
 31
0.5
  0
LINE
  5
3D1
  8
0
 62
     6
 10
5.772949
 20
0.945313
 30
0.5
 11
5.787598
 21
0.943359
 31
0.5
  0
LINE
  5
3D2
  8
0
 62
     6
 10
5.787598
 20
0.943359
 30
0.5
 11
5.802246
 21
0.94043
 31
0.5
  0
LINE
  5
3D3
  8
0
 62
     6
 10
5.802246
 20
0.94043
 30
0.5
 11
5.816895
 21
0.936523
 31
0.5
  0
LINE
  5
3D4
  8
0
 62
     6
 10
5.816895
 20
0.936523
 30
0.5
 11
5.82959
 21
0.9316410000000001
 31
0.5
  0
LINE
  5
3D5
  8
0
 62
     6
 10
5.82959
 20
0.9316410000000001
 30
0.5
 11
5.843262
 21
0.925781
 31
0.5
  0
LINE
  5
3D6
  8
0
 62
     6
 10
5.843262
 20
0.925781
 30
0.5
 11
5.855957
 21
0.919922
 31
0.5
  0
LINE
  5
3D7
  8
0
 62
     6
 10
5.855957
 20
0.919922
 30
0.5
 11
5.867676
 21
0.913086
 31
0.5
  0
LINE
  5
3D8
  8
0
 62
     6
 10
5.867676
 20
0.913086
 30
0.5
 11
5.879395
 21
0.905273
 31
0.5
  0
LINE
  5
3D9
  8
0
 62
     6
 10
5.879395
 20
0.905273
 30
0.5
 11
5.891113
 21
0.896484
 31
0.5
  0
LINE
  5
3DA
  8
0
 62
     6
 10
5.891113
 20
0.896484
 30
0.5
 11
5.901855
 21
0.887695
 31
0.5
  0
LINE
  5
3DB
  8
0
 62
     6
 10
5.901855
 20
0.887695
 30
0.5
 11
5.911621
 21
0.87793
 31
0.5
  0
LINE
  5
3DC
  8
0
 62
     6
 10
5.911621
 20
0.87793
 30
0.5
 11
5.921387
 21
0.867188
 31
0.5
  0
LINE
  5
3DD
  8
0
 62
     6
 10
5.921387
 20
0.867188
 30
0.5
 11
5.930176
 21
0.856445
 31
0.5
  0
LINE
  5
3DE
  8
0
 62
     6
 10
5.930176
 20
0.856445
 30
0.5
 11
5.937988
 21
0.844727
 31
0.5
  0
LINE
  5
3DF
  8
0
 62
     6
 10
5.937988
 20
0.844727
 30
0.5
 11
5.945801
 21
0.833008
 31
0.5
  0
LINE
  5
3E0
  8
0
 62
     6
 10
5.945801
 20
0.833008
 30
0.5
 11
5.952637
 21
0.820313
 31
0.5
  0
LINE
  5
3E1
  8
0
 62
     6
 10
5.952637
 20
0.820313
 30
0.5
 11
5.958496
 21
0.8066410000000001
 31
0.5
  0
LINE
  5
3E2
  8
0
 62
     6
 10
5.958496
 20
0.8066410000000001
 30
0.5
 11
5.964355
 21
0.793945
 31
0.5
  0
LINE
  5
3E3
  8
0
 62
     6
 10
5.964355
 20
0.793945
 30
0.5
 11
5.969238
 21
0.779297
 31
0.5
  0
LINE
  5
3E4
  8
0
 62
     6
 10
5.969238
 20
0.779297
 30
0.5
 11
5.973145
 21
0.765625
 31
0.5
  0
LINE
  5
3E5
  8
0
 62
     6
 10
5.973145
 20
0.765625
 30
0.5
 11
5.977051
 21
0.751953
 31
0.5
  0
LINE
  5
3E6
  8
0
 62
     6
 10
5.977051
 20
0.751953
 30
0.5
 11
5.979004
 21
0.737305
 31
0.5
  0
LINE
  5
3E7
  8
0
 62
     6
 10
5.979004
 20
0.737305
 30
0.5
 11
5.980957
 21
0.722656
 31
0.5
  0
LINE
  5
3E8
  8
0
 62
     6
 10
5.980957
 20
0.722656
 30
0.5
 11
5.981934
 21
0.708008
 31
0.5
  0
LINE
  5
3E9
  8
0
 62
     6
 10
5.981934
 20
0.708008
 30
0.5
 11
5.98291
 21
0.693359
 31
0.5
  0
LINE
  5
3EA
  8
0
 62
     6
 10
5.98291
 20
0.693359
 30
0.5
 11
5.981934
 21
0.666992
 31
0.5
  0
LINE
  5
3EB
  8
0
 62
     6
 10
5.981934
 20
0.666992
 30
0.5
 11
5.978027
 21
0.641602
 31
0.5
  0
LINE
  5
3EC
  8
0
 62
     6
 10
5.978027
 20
0.641602
 30
0.5
 11
5.973145
 21
0.6181640000000001
 31
0.5
  0
LINE
  5
3ED
  8
0
 62
     6
 10
5.973145
 20
0.6181640000000001
 30
0.5
 11
5.965332
 21
0.595703
 31
0.5
  0
LINE
  5
3EE
  8
0
 62
     6
 10
5.965332
 20
0.595703
 30
0.5
 11
5.955566
 21
0.574219
 31
0.5
  0
LINE
  5
3EF
  8
0
 62
     6
 10
5.955566
 20
0.574219
 30
0.5
 11
5.943848
 21
0.554688
 31
0.5
  0
LINE
  5
3F0
  8
0
 62
     6
 10
5.943848
 20
0.554688
 30
0.5
 11
5.930176
 21
0.536133
 31
0.5
  0
LINE
  5
3F1
  8
0
 62
     6
 10
5.930176
 20
0.536133
 30
0.5
 11
5.914551
 21
0.519531
 31
0.5
  0
LINE
  5
3F2
  8
0
 62
     6
 10
5.914551
 20
0.519531
 30
0.5
 11
5.895996
 21
0.503906
 31
0.5
  0
LINE
  5
3F3
  8
0
 62
     6
 10
5.895996
 20
0.503906
 30
0.5
 11
5.876465
 21
0.489258
 31
0.5
  0
LINE
  5
3F4
  8
0
 62
     6
 10
5.876465
 20
0.489258
 30
0.5
 11
5.854004
 21
0.476563
 31
0.5
  0
LINE
  5
3F5
  8
0
 62
     6
 10
5.854004
 20
0.476563
 30
0.5
 11
5.830566
 21
0.46582
 31
0.5
  0
LINE
  5
3F6
  8
0
 62
     6
 10
5.830566
 20
0.46582
 30
0.5
 11
5.804199
 21
0.456055
 31
0.5
  0
LINE
  5
3F7
  8
0
 62
     6
 10
5.804199
 20
0.456055
 30
0.5
 11
5.776855
 21
0.448242
 31
0.5
  0
LINE
  5
3F8
  8
0
 62
     6
 10
5.776855
 20
0.448242
 30
0.5
 11
5.746582
 21
0.441406
 31
0.5
  0
LINE
  5
3F9
  8
0
 62
     6
 10
5.746582
 20
0.441406
 30
0.5
 11
5.715332
 21
0.436523
 31
0.5
  0
LINE
  5
3FA
  8
0
 62
     6
 10
5.715332
 20
0.436523
 30
0.5
 11
5.715332
 21
0.433594
 31
0.5
  0
LINE
  5
3FB
  8
0
 62
     6
 10
5.715332
 20
0.433594
 30
0.5
 11
5.73877
 21
0.421875
 31
0.5
  0
LINE
  5
3FC
  8
0
 62
     6
 10
5.73877
 20
0.421875
 30
0.5
 11
5.762207
 21
0.407227
 31
0.5
  0
LINE
  5
3FD
  8
0
 62
     6
 10
5.762207
 20
0.407227
 30
0.5
 11
5.785645
 21
0.389648
 31
0.5
  0
LINE
  5
3FE
  8
0
 62
     6
 10
5.785645
 20
0.389648
 30
0.5
 11
5.808105
 21
0.369141
 31
0.5
  0
LINE
  5
3FF
  8
0
 62
     6
 10
5.808105
 20
0.369141
 30
0.5
 11
5.830566
 21
0.345703
 31
0.5
  0
LINE
  5
400
  8
0
 62
     6
 10
5.830566
 20
0.345703
 30
0.5
 11
5.852051
 21
0.320313
 31
0.5
  0
LINE
  5
401
  8
0
 62
     6
 10
5.852051
 20
0.320313
 30
0.5
 11
5.873535
 21
0.291016
 31
0.5
  0
LINE
  5
402
  8
0
 62
     6
 10
5.873535
 20
0.291016
 30
0.5
 11
5.89502
 21
0.259766
 31
0.5
  0
LINE
  5
403
  8
0
 62
     6
 10
5.89502
 20
0.259766
 30
0.5
 11
6.061035
 21
0.0
 31
0.5
  0
LINE
  5
404
  8
0
 62
     6
 10
6.061035
 20
0.0
 30
0.5
 11
5.902832
 21
0.0
 31
0.5
  0
LINE
  5
405
  8
0
 62
     6
 10
5.902832
 20
0.0
 30
0.5
 11
5.868652
 21
0.053711
 31
0.5
  0
LINE
  5
406
  8
0
 62
     6
 10
5.868652
 20
0.053711
 30
0.5
 11
5.838379
 21
0.101563
 31
0.5
  0
LINE
  5
407
  8
0
 62
     6
 10
5.838379
 20
0.101563
 30
0.5
 11
5.811035
 21
0.144531
 31
0.5
  0
LINE
  5
408
  8
0
 62
     6
 10
5.811035
 20
0.144531
 30
0.5
 11
5.787598
 21
0.181641
 31
0.5
  0
LINE
  5
409
  8
0
 62
     6
 10
5.787598
 20
0.181641
 30
0.5
 11
5.76709
 21
0.213867
 31
0.5
  0
LINE
  5
40A
  8
0
 62
     6
 10
5.76709
 20
0.213867
 30
0.5
 11
5.749512
 21
0.240234
 31
0.5
  0
LINE
  5
40B
  8
0
 62
     6
 10
5.749512
 20
0.240234
 30
0.5
 11
5.73584
 21
0.260742
 31
0.5
  0
LINE
  5
40C
  8
0
 62
     6
 10
5.73584
 20
0.260742
 30
0.5
 11
5.726074
 21
0.276367
 31
0.5
  0
LINE
  5
40D
  8
0
 62
     6
 10
5.726074
 20
0.276367
 30
0.5
 11
5.717285
 21
0.289063
 31
0.5
  0
LINE
  5
40E
  8
0
 62
     6
 10
5.717285
 20
0.289063
 30
0.5
 11
5.708496
 21
0.301758
 31
0.5
  0
LINE
  5
40F
  8
0
 62
     6
 10
5.708496
 20
0.301758
 30
0.5
 11
5.699707
 21
0.313477
 31
0.5
  0
LINE
  5
410
  8
0
 62
     6
 10
5.699707
 20
0.313477
 30
0.5
 11
5.689941
 21
0.324219
 31
0.5
  0
LINE
  5
411
  8
0
 62
     6
 10
5.689941
 20
0.324219
 30
0.5
 11
5.681152
 21
0.334961
 31
0.5
  0
LINE
  5
412
  8
0
 62
     6
 10
5.681152
 20
0.334961
 30
0.5
 11
5.671387
 21
0.345703
 31
0.5
  0
LINE
  5
413
  8
0
 62
     6
 10
5.671387
 20
0.345703
 30
0.5
 11
5.662598
 21
0.355469
 31
0.5
  0
LINE
  5
414
  8
0
 62
     6
 10
5.662598
 20
0.355469
 30
0.5
 11
5.652832
 21
0.365234
 31
0.5
  0
LINE
  5
415
  8
0
 62
     6
 10
5.652832
 20
0.365234
 30
0.5
 11
5.644043
 21
0.374023
 31
0.5
  0
LINE
  5
416
  8
0
 62
     6
 10
5.644043
 20
0.374023
 30
0.5
 11
5.634277
 21
0.381836
 31
0.5
  0
LINE
  5
417
  8
0
 62
     6
 10
5.634277
 20
0.381836
 30
0.5
 11
5.625488
 21
0.388672
 31
0.5
  0
LINE
  5
418
  8
0
 62
     6
 10
5.625488
 20
0.388672
 30
0.5
 11
5.615723
 21
0.394531
 31
0.5
  0
LINE
  5
419
  8
0
 62
     6
 10
5.615723
 20
0.394531
 30
0.5
 11
5.606934
 21
0.400391
 31
0.5
  0
LINE
  5
41A
  8
0
 62
     6
 10
5.606934
 20
0.400391
 30
0.5
 11
5.598145
 21
0.405273
 31
0.5
  0
LINE
  5
41B
  8
0
 62
     6
 10
5.598145
 20
0.405273
 30
0.5
 11
5.590332
 21
0.408203
 31
0.5
  0
LINE
  5
41C
  8
0
 62
     6
 10
5.590332
 20
0.408203
 30
0.5
 11
5.581543
 21
0.411133
 31
0.5
  0
LINE
  5
41D
  8
0
 62
     6
 10
5.581543
 20
0.411133
 30
0.5
 11
5.572754
 21
0.414063
 31
0.5
  0
LINE
  5
41E
  8
0
 62
     6
 10
5.572754
 20
0.414063
 30
0.5
 11
5.562988
 21
0.416016
 31
0.5
  0
LINE
  5
41F
  8
0
 62
     6
 10
5.562988
 20
0.416016
 30
0.5
 11
5.553223
 21
0.416992
 31
0.5
  0
LINE
  5
420
  8
0
 62
     6
 10
5.553223
 20
0.416992
 30
0.5
 11
5.54248
 21
0.418945
 31
0.5
  0
LINE
  5
421
  8
0
 62
     6
 10
5.54248
 20
0.418945
 30
0.5
 11
5.530762
 21
0.419922
 31
0.5
  0
LINE
  5
422
  8
0
 62
     6
 10
5.530762
 20
0.419922
 30
0.5
 11
5.519043
 21
0.420898
 31
0.5
  0
LINE
  5
423
  8
0
 62
     6
 10
5.519043
 20
0.420898
 30
0.5
 11
5.506348
 21
0.420898
 31
0.5
  0
LINE
  5
424
  8
0
 62
     6
 10
5.506348
 20
0.420898
 30
0.5
 11
5.492676
 21
0.420898
 31
0.5
  0
LINE
  5
425
  8
0
 62
     6
 10
5.492676
 20
0.420898
 30
0.5
 11
5.347168
 21
0.420898
 31
0.5
  0
LINE
  5
426
  8
0
 62
     6
 10
5.347168
 20
0.420898
 30
0.5
 11
5.347168
 21
0.0
 31
0.5
  0
LINE
  5
427
  8
0
 62
     6
 10
5.647949
 20
0.849609
 30
0.5
 11
5.674316
 21
0.848633
 31
0.5
  0
LINE
  5
428
  8
0
 62
     6
 10
5.674316
 20
0.848633
 30
0.5
 11
5.69873
 21
0.84668
 31
0.5
  0
LINE
  5
429
  8
0
 62
     6
 10
5.69873
 20
0.84668
 30
0.5
 11
5.721191
 21
0.842773
 31
0.5
  0
LINE
  5
42A
  8
0
 62
     6
 10
5.721191
 20
0.842773
 30
0.5
 11
5.741699
 21
0.8378910000000001
 31
0.5
  0
LINE
  5
42B
  8
0
 62
     6
 10
5.741699
 20
0.8378910000000001
 30
0.5
 11
5.760254
 21
0.832031
 31
0.5
  0
LINE
  5
42C
  8
0
 62
     6
 10
5.760254
 20
0.832031
 30
0.5
 11
5.777832
 21
0.824219
 31
0.5
  0
LINE
  5
42D
  8
0
 62
     6
 10
5.777832
 20
0.824219
 30
0.5
 11
5.79248
 21
0.814453
 31
0.5
  0
LINE
  5
42E
  8
0
 62
     6
 10
5.79248
 20
0.814453
 30
0.5
 11
5.805176
 21
0.803711
 31
0.5
  0
LINE
  5
42F
  8
0
 62
     6
 10
5.805176
 20
0.803711
 30
0.5
 11
5.815918
 21
0.791992
 31
0.5
  0
LINE
  5
430
  8
0
 62
     6
 10
5.815918
 20
0.791992
 30
0.5
 11
5.825684
 21
0.780273
 31
0.5
  0
LINE
  5
431
  8
0
 62
     6
 10
5.825684
 20
0.780273
 30
0.5
 11
5.833496
 21
0.766602
 31
0.5
  0
LINE
  5
432
  8
0
 62
     6
 10
5.833496
 20
0.766602
 30
0.5
 11
5.840332
 21
0.75293
 31
0.5
  0
LINE
  5
433
  8
0
 62
     6
 10
5.840332
 20
0.75293
 30
0.5
 11
5.846191
 21
0.739258
 31
0.5
  0
LINE
  5
434
  8
0
 62
     6
 10
5.846191
 20
0.739258
 30
0.5
 11
5.849121
 21
0.724609
 31
0.5
  0
LINE
  5
435
  8
0
 62
     6
 10
5.849121
 20
0.724609
 30
0.5
 11
5.852051
 21
0.708984
 31
0.5
  0
LINE
  5
436
  8
0
 62
     6
 10
5.852051
 20
0.708984
 30
0.5
 11
5.852051
 21
0.693359
 31
0.5
  0
LINE
  5
437
  8
0
 62
     6
 10
5.852051
 20
0.693359
 30
0.5
 11
5.852051
 21
0.6806640000000001
 31
0.5
  0
LINE
  5
438
  8
0
 62
     6
 10
5.852051
 20
0.6806640000000001
 30
0.5
 11
5.851074
 21
0.668945
 31
0.5
  0
LINE
  5
439
  8
0
 62
     6
 10
5.851074
 20
0.668945
 30
0.5
 11
5.848145
 21
0.657227
 31
0.5
  0
LINE
  5
43A
  8
0
 62
     6
 10
5.848145
 20
0.657227
 30
0.5
 11
5.845215
 21
0.645508
 31
0.5
  0
LINE
  5
43B
  8
0
 62
     6
 10
5.845215
 20
0.645508
 30
0.5
 11
5.841309
 21
0.6347660000000001
 31
0.5
  0
LINE
  5
43C
  8
0
 62
     6
 10
5.841309
 20
0.6347660000000001
 30
0.5
 11
5.836426
 21
0.623047
 31
0.5
  0
LINE
  5
43D
  8
0
 62
     6
 10
5.836426
 20
0.623047
 30
0.5
 11
5.830566
 21
0.613281
 31
0.5
  0
LINE
  5
43E
  8
0
 62
     6
 10
5.830566
 20
0.613281
 30
0.5
 11
5.82373
 21
0.6025390000000001
 31
0.5
  0
LINE
  5
43F
  8
0
 62
     6
 10
5.82373
 20
0.6025390000000001
 30
0.5
 11
5.816895
 21
0.592773
 31
0.5
  0
LINE
  5
440
  8
0
 62
     6
 10
5.816895
 20
0.592773
 30
0.5
 11
5.808105
 21
0.583984
 31
0.5
  0
LINE
  5
441
  8
0
 62
     6
 10
5.808105
 20
0.583984
 30
0.5
 11
5.799316
 21
0.576172
 31
0.5
  0
LINE
  5
442
  8
0
 62
     6
 10
5.799316
 20
0.576172
 30
0.5
 11
5.790527
 21
0.569336
 31
0.5
  0
LINE
  5
443
  8
0
 62
     6
 10
5.790527
 20
0.569336
 30
0.5
 11
5.780762
 21
0.5625
 31
0.5
  0
LINE
  5
444
  8
0
 62
     6
 10
5.780762
 20
0.5625
 30
0.5
 11
5.77002
 21
0.5566410000000001
 31
0.5
  0
LINE
  5
445
  8
0
 62
     6
 10
5.77002
 20
0.5566410000000001
 30
0.5
 11
5.759277
 21
0.552734
 31
0.5
  0
LINE
  5
446
  8
0
 62
     6
 10
5.759277
 20
0.552734
 30
0.5
 11
5.747559
 21
0.548828
 31
0.5
  0
LINE
  5
447
  8
0
 62
     6
 10
5.747559
 20
0.548828
 30
0.5
 11
5.734863
 21
0.544922
 31
0.5
  0
LINE
  5
448
  8
0
 62
     6
 10
5.734863
 20
0.544922
 30
0.5
 11
5.721191
 21
0.541992
 31
0.5
  0
LINE
  5
449
  8
0
 62
     6
 10
5.721191
 20
0.541992
 30
0.5
 11
5.706543
 21
0.5400390000000001
 31
0.5
  0
LINE
  5
44A
  8
0
 62
     6
 10
5.706543
 20
0.5400390000000001
 30
0.5
 11
5.690918
 21
0.538086
 31
0.5
  0
LINE
  5
44B
  8
0
 62
     6
 10
5.690918
 20
0.538086
 30
0.5
 11
5.674316
 21
0.536133
 31
0.5
  0
LINE
  5
44C
  8
0
 62
     6
 10
5.674316
 20
0.536133
 30
0.5
 11
5.656738
 21
0.535156
 31
0.5
  0
LINE
  5
44D
  8
0
 62
     6
 10
5.656738
 20
0.535156
 30
0.5
 11
5.637207
 21
0.53418
 31
0.5
  0
LINE
  5
44E
  8
0
 62
     6
 10
5.637207
 20
0.53418
 30
0.5
 11
5.617676
 21
0.53418
 31
0.5
  0
LINE
  5
44F
  8
0
 62
     6
 10
5.617676
 20
0.53418
 30
0.5
 11
5.347168
 21
0.53418
 31
0.5
  0
LINE
  5
450
  8
0
 62
     6
 10
5.347168
 20
0.53418
 30
0.5
 11
5.347168
 21
0.849609
 31
0.5
  0
LINE
  5
451
  8
0
 62
     6
 10
5.347168
 20
0.849609
 30
0.5
 11
5.647949
 21
0.849609
 31
0.5
  0
LINE
  5
452
  8
0
 62
     6
 10
6.141113
 20
0.522461
 30
0.5
 11
6.146973
 21
0.576172
 31
0.5
  0
LINE
  5
453
  8
0
 62
     6
 10
6.146973
 20
0.576172
 30
0.5
 11
6.156738
 21
0.62793
 31
0.5
  0
LINE
  5
454
  8
0
 62
     6
 10
6.156738
 20
0.62793
 30
0.5
 11
6.171387
 21
0.675781
 31
0.5
  0
LINE
  5
455
  8
0
 62
     6
 10
6.171387
 20
0.675781
 30
0.5
 11
6.188965
 21
0.719727
 31
0.5
  0
LINE
  5
456
  8
0
 62
     6
 10
6.188965
 20
0.719727
 30
0.5
 11
6.210449
 21
0.761719
 31
0.5
  0
LINE
  5
457
  8
0
 62
     6
 10
6.210449
 20
0.761719
 30
0.5
 11
6.236816
 21
0.799805
 31
0.5
  0
LINE
  5
458
  8
0
 62
     6
 10
6.236816
 20
0.799805
 30
0.5
 11
6.266113
 21
0.834961
 31
0.5
  0
LINE
  5
459
  8
0
 62
     6
 10
6.266113
 20
0.834961
 30
0.5
 11
6.299316
 21
0.867188
 31
0.5
  0
LINE
  5
45A
  8
0
 62
     6
 10
6.299316
 20
0.867188
 30
0.5
 11
6.334473
 21
0.894531
 31
0.5
  0
LINE
  5
45B
  8
0
 62
     6
 10
6.334473
 20
0.894531
 30
0.5
 11
6.372559
 21
0.917969
 31
0.5
  0
LINE
  5
45C
  8
0
 62
     6
 10
6.372559
 20
0.917969
 30
0.5
 11
6.412598
 21
0.936523
 31
0.5
  0
LINE
  5
45D
  8
0
 62
     6
 10
6.412598
 20
0.936523
 30
0.5
 11
6.45459
 21
0.951172
 31
0.5
  0
LINE
  5
45E
  8
0
 62
     6
 10
6.45459
 20
0.951172
 30
0.5
 11
6.499512
 21
0.9619140000000001
 31
0.5
  0
LINE
  5
45F
  8
0
 62
     6
 10
6.499512
 20
0.9619140000000001
 30
0.5
 11
6.547363
 21
0.96875
 31
0.5
  0
LINE
  5
460
  8
0
 62
     6
 10
6.547363
 20
0.96875
 30
0.5
 11
6.597168
 21
0.970703
 31
0.5
  0
LINE
  5
461
  8
0
 62
     6
 10
6.597168
 20
0.970703
 30
0.5
 11
6.645996
 21
0.96875
 31
0.5
  0
LINE
  5
462
  8
0
 62
     6
 10
6.645996
 20
0.96875
 30
0.5
 11
6.692871
 21
0.9619140000000001
 31
0.5
  0
LINE
  5
463
  8
0
 62
     6
 10
6.692871
 20
0.9619140000000001
 30
0.5
 11
6.736816
 21
0.951172
 31
0.5
  0
LINE
  5
464
  8
0
 62
     6
 10
6.736816
 20
0.951172
 30
0.5
 11
6.778809
 21
0.936523
 31
0.5
  0
LINE
  5
465
  8
0
 62
     6
 10
6.778809
 20
0.936523
 30
0.5
 11
6.818848
 21
0.916992
 31
0.5
  0
LINE
  5
466
  8
0
 62
     6
 10
6.818848
 20
0.916992
 30
0.5
 11
6.855957
 21
0.893555
 31
0.5
  0
LINE
  5
467
  8
0
 62
     6
 10
6.855957
 20
0.893555
 30
0.5
 11
6.89209
 21
0.866211
 31
0.5
  0
LINE
  5
468
  8
0
 62
     6
 10
6.89209
 20
0.866211
 30
0.5
 11
6.924316
 21
0.833984
 31
0.5
  0
LINE
  5
469
  8
0
 62
     6
 10
6.924316
 20
0.833984
 30
0.5
 11
6.95459
 21
0.798828
 31
0.5
  0
LINE
  5
46A
  8
0
 62
     6
 10
6.95459
 20
0.798828
 30
0.5
 11
6.980957
 21
0.760742
 31
0.5
  0
LINE
  5
46B
  8
0
 62
     6
 10
6.980957
 20
0.760742
 30
0.5
 11
7.002441
 21
0.720703
 31
0.5
  0
LINE
  5
46C
  8
0
 62
     6
 10
7.002441
 20
0.720703
 30
0.5
 11
7.02002
 21
0.676758
 31
0.5
  0
LINE
  5
46D
  8
0
 62
     6
 10
7.02002
 20
0.676758
 30
0.5
 11
7.034668
 21
0.630859
 31
0.5
  0
LINE
  5
46E
  8
0
 62
     6
 10
7.034668
 20
0.630859
 30
0.5
 11
7.044434
 21
0.582031
 31
0.5
  0
LINE
  5
46F
  8
0
 62
     6
 10
7.044434
 20
0.582031
 30
0.5
 11
7.050293
 21
0.530273
 31
0.5
  0
LINE
  5
470
  8
0
 62
     6
 10
7.050293
 20
0.530273
 30
0.5
 11
7.052246
 21
0.475586
 31
0.5
  0
LINE
  5
471
  8
0
 62
     6
 10
7.052246
 20
0.475586
 30
0.5
 11
7.050293
 21
0.421875
 31
0.5
  0
LINE
  5
472
  8
0
 62
     6
 10
7.050293
 20
0.421875
 30
0.5
 11
7.044434
 21
0.370117
 31
0.5
  0
LINE
  5
473
  8
0
 62
     6
 10
7.044434
 20
0.370117
 30
0.5
 11
7.034668
 21
0.321289
 31
0.5
  0
LINE
  5
474
  8
0
 62
     6
 10
7.034668
 20
0.321289
 30
0.5
 11
7.02002
 21
0.275391
 31
0.5
  0
LINE
  5
475
  8
0
 62
     6
 10
7.02002
 20
0.275391
 30
0.5
 11
7.002441
 21
0.232422
 31
0.5
  0
LINE
  5
476
  8
0
 62
     6
 10
7.002441
 20
0.232422
 30
0.5
 11
6.97998
 21
0.191406
 31
0.5
  0
LINE
  5
477
  8
0
 62
     6
 10
6.97998
 20
0.191406
 30
0.5
 11
6.95459
 21
0.154297
 31
0.5
  0
LINE
  5
478
  8
0
 62
     6
 10
6.95459
 20
0.154297
 30
0.5
 11
6.924316
 21
0.119141
 31
0.5
  0
LINE
  5
479
  8
0
 62
     6
 10
6.924316
 20
0.119141
 30
0.5
 11
6.891113
 21
0.086914
 31
0.5
  0
LINE
  5
47A
  8
0
 62
     6
 10
6.891113
 20
0.086914
 30
0.5
 11
6.855957
 21
0.05957
 31
0.5
  0
LINE
  5
47B
  8
0
 62
     6
 10
6.855957
 20
0.05957
 30
0.5
 11
6.817871
 21
0.036133
 31
0.5
  0
LINE
  5
47C
  8
0
 62
     6
 10
6.817871
 20
0.036133
 30
0.5
 11
6.777832
 21
0.017578
 31
0.5
  0
LINE
  5
47D
  8
0
 62
     6
 10
6.777832
 20
0.017578
 30
0.5
 11
6.73584
 21
0.00293
 31
0.5
  0
LINE
  5
47E
  8
0
 62
     6
 10
6.73584
 20
0.00293
 30
0.5
 11
6.691895
 21
-0.007813
 31
0.5
  0
LINE
  5
47F
  8
0
 62
     6
 10
6.691895
 20
-0.007813
 30
0.5
 11
6.64502
 21
-0.013672
 31
0.5
  0
LINE
  5
480
  8
0
 62
     6
 10
6.64502
 20
-0.013672
 30
0.5
 11
6.597168
 21
-0.016602
 31
0.5
  0
LINE
  5
481
  8
0
 62
     6
 10
6.597168
 20
-0.016602
 30
0.5
 11
6.546387
 21
-0.013672
 31
0.5
  0
LINE
  5
482
  8
0
 62
     6
 10
6.546387
 20
-0.013672
 30
0.5
 11
6.498535
 21
-0.007813
 31
0.5
  0
LINE
  5
483
  8
0
 62
     6
 10
6.498535
 20
-0.007813
 30
0.5
 11
6.453613
 21
0.00293
 31
0.5
  0
LINE
  5
484
  8
0
 62
     6
 10
6.453613
 20
0.00293
 30
0.5
 11
6.410645
 21
0.018555
 31
0.5
  0
LINE
  5
485
  8
0
 62
     6
 10
6.410645
 20
0.018555
 30
0.5
 11
6.370605
 21
0.038086
 31
0.5
  0
LINE
  5
486
  8
0
 62
     6
 10
6.370605
 20
0.038086
 30
0.5
 11
6.33252
 21
0.0625
 31
0.5
  0
LINE
  5
487
  8
0
 62
     6
 10
6.33252
 20
0.0625
 30
0.5
 11
6.297363
 21
0.09082
 31
0.5
  0
LINE
  5
488
  8
0
 62
     6
 10
6.297363
 20
0.09082
 30
0.5
 11
6.265137
 21
0.124023
 31
0.5
  0
LINE
  5
489
  8
0
 62
     6
 10
6.265137
 20
0.124023
 30
0.5
 11
6.234863
 21
0.15918
 31
0.5
  0
LINE
  5
48A
  8
0
 62
     6
 10
6.234863
 20
0.15918
 30
0.5
 11
6.209473
 21
0.197266
 31
0.5
  0
LINE
  5
48B
  8
0
 62
     6
 10
6.209473
 20
0.197266
 30
0.5
 11
6.187988
 21
0.237305
 31
0.5
  0
LINE
  5
48C
  8
0
 62
     6
 10
6.187988
 20
0.237305
 30
0.5
 11
6.17041
 21
0.279297
 31
0.5
  0
LINE
  5
48D
  8
0
 62
     6
 10
6.17041
 20
0.279297
 30
0.5
 11
6.156738
 21
0.322266
 31
0.5
  0
LINE
  5
48E
  8
0
 62
     6
 10
6.156738
 20
0.322266
 30
0.5
 11
6.146973
 21
0.368164
 31
0.5
  0
LINE
  5
48F
  8
0
 62
     6
 10
6.146973
 20
0.368164
 30
0.5
 11
6.141113
 21
0.416016
 31
0.5
  0
LINE
  5
490
  8
0
 62
     6
 10
6.141113
 20
0.416016
 30
0.5
 11
6.13916
 21
0.46582
 31
0.5
  0
LINE
  5
491
  8
0
 62
     6
 10
6.13916
 20
0.46582
 30
0.5
 11
6.141113
 21
0.522461
 31
0.5
  0
LINE
  5
492
  8
0
 62
     6
 10
6.270996
 20
0.511719
 30
0.5
 11
6.275879
 21
0.557617
 31
0.5
  0
LINE
  5
493
  8
0
 62
     6
 10
6.275879
 20
0.557617
 30
0.5
 11
6.282715
 21
0.600586
 31
0.5
  0
LINE
  5
494
  8
0
 62
     6
 10
6.282715
 20
0.600586
 30
0.5
 11
6.293457
 21
0.639648
 31
0.5
  0
LINE
  5
495
  8
0
 62
     6
 10
6.293457
 20
0.639648
 30
0.5
 11
6.306152
 21
0.675781
 31
0.5
  0
LINE
  5
496
  8
0
 62
     6
 10
6.306152
 20
0.675781
 30
0.5
 11
6.321777
 21
0.708008
 31
0.5
  0
LINE
  5
497
  8
0
 62
     6
 10
6.321777
 20
0.708008
 30
0.5
 11
6.340332
 21
0.738281
 31
0.5
  0
LINE
  5
498
  8
0
 62
     6
 10
6.340332
 20
0.738281
 30
0.5
 11
6.362793
 21
0.763672
 31
0.5
  0
LINE
  5
499
  8
0
 62
     6
 10
6.362793
 20
0.763672
 30
0.5
 11
6.38623
 21
0.787109
 31
0.5
  0
LINE
  5
49A
  8
0
 62
     6
 10
6.38623
 20
0.787109
 30
0.5
 11
6.411621
 21
0.807617
 31
0.5
  0
LINE
  5
49B
  8
0
 62
     6
 10
6.411621
 20
0.807617
 30
0.5
 11
6.438965
 21
0.824219
 31
0.5
  0
LINE
  5
49C
  8
0
 62
     6
 10
6.438965
 20
0.824219
 30
0.5
 11
6.467285
 21
0.8378910000000001
 31
0.5
  0
LINE
  5
49D
  8
0
 62
     6
 10
6.467285
 20
0.8378910000000001
 30
0.5
 11
6.497559
 21
0.848633
 31
0.5
  0
LINE
  5
49E
  8
0
 62
     6
 10
6.497559
 20
0.848633
 30
0.5
 11
6.529785
 21
0.856445
 31
0.5
  0
LINE
  5
49F
  8
0
 62
     6
 10
6.529785
 20
0.856445
 30
0.5
 11
6.562988
 21
0.861328
 31
0.5
  0
LINE
  5
4A0
  8
0
 62
     6
 10
6.562988
 20
0.861328
 30
0.5
 11
6.598145
 21
0.862305
 31
0.5
  0
LINE
  5
4A1
  8
0
 62
     6
 10
6.598145
 20
0.862305
 30
0.5
 11
6.632324
 21
0.861328
 31
0.5
  0
LINE
  5
4A2
  8
0
 62
     6
 10
6.632324
 20
0.861328
 30
0.5
 11
6.664551
 21
0.856445
 31
0.5
  0
LINE
  5
4A3
  8
0
 62
     6
 10
6.664551
 20
0.856445
 30
0.5
 11
6.695801
 21
0.848633
 31
0.5
  0
LINE
  5
4A4
  8
0
 62
     6
 10
6.695801
 20
0.848633
 30
0.5
 11
6.725098
 21
0.8369140000000001
 31
0.5
  0
LINE
  5
4A5
  8
0
 62
     6
 10
6.725098
 20
0.8369140000000001
 30
0.5
 11
6.753418
 21
0.823242
 31
0.5
  0
LINE
  5
4A6
  8
0
 62
     6
 10
6.753418
 20
0.823242
 30
0.5
 11
6.780762
 21
0.8056640000000001
 31
0.5
  0
LINE
  5
4A7
  8
0
 62
     6
 10
6.780762
 20
0.8056640000000001
 30
0.5
 11
6.805176
 21
0.786133
 31
0.5
  0
LINE
  5
4A8
  8
0
 62
     6
 10
6.805176
 20
0.786133
 30
0.5
 11
6.82959
 21
0.761719
 31
0.5
  0
LINE
  5
4A9
  8
0
 62
     6
 10
6.82959
 20
0.761719
 30
0.5
 11
6.851074
 21
0.735352
 31
0.5
  0
LINE
  5
4AA
  8
0
 62
     6
 10
6.851074
 20
0.735352
 30
0.5
 11
6.869629
 21
0.707031
 31
0.5
  0
LINE
  5
4AB
  8
0
 62
     6
 10
6.869629
 20
0.707031
 30
0.5
 11
6.885254
 21
0.674805
 31
0.5
  0
LINE
  5
4AC
  8
0
 62
     6
 10
6.885254
 20
0.674805
 30
0.5
 11
6.898926
 21
0.640625
 31
0.5
  0
LINE
  5
4AD
  8
0
 62
     6
 10
6.898926
 20
0.640625
 30
0.5
 11
6.908691
 21
0.6035160000000001
 31
0.5
  0
LINE
  5
4AE
  8
0
 62
     6
 10
6.908691
 20
0.6035160000000001
 30
0.5
 11
6.915527
 21
0.563477
 31
0.5
  0
LINE
  5
4AF
  8
0
 62
     6
 10
6.915527
 20
0.563477
 30
0.5
 11
6.92041
 21
0.520508
 31
0.5
  0
LINE
  5
4B0
  8
0
 62
     6
 10
6.92041
 20
0.520508
 30
0.5
 11
6.921387
 21
0.475586
 31
0.5
  0
LINE
  5
4B1
  8
0
 62
     6
 10
6.921387
 20
0.475586
 30
0.5
 11
6.92041
 21
0.431641
 31
0.5
  0
LINE
  5
4B2
  8
0
 62
     6
 10
6.92041
 20
0.431641
 30
0.5
 11
6.915527
 21
0.390625
 31
0.5
  0
LINE
  5
4B3
  8
0
 62
     6
 10
6.915527
 20
0.390625
 30
0.5
 11
6.908691
 21
0.351563
 31
0.5
  0
LINE
  5
4B4
  8
0
 62
     6
 10
6.908691
 20
0.351563
 30
0.5
 11
6.898926
 21
0.314453
 31
0.5
  0
LINE
  5
4B5
  8
0
 62
     6
 10
6.898926
 20
0.314453
 30
0.5
 11
6.885254
 21
0.280273
 31
0.5
  0
LINE
  5
4B6
  8
0
 62
     6
 10
6.885254
 20
0.280273
 30
0.5
 11
6.870605
 21
0.249023
 31
0.5
  0
LINE
  5
4B7
  8
0
 62
     6
 10
6.870605
 20
0.249023
 30
0.5
 11
6.852051
 21
0.219727
 31
0.5
  0
LINE
  5
4B8
  8
0
 62
     6
 10
6.852051
 20
0.219727
 30
0.5
 11
6.830566
 21
0.193359
 31
0.5
  0
LINE
  5
4B9
  8
0
 62
     6
 10
6.830566
 20
0.193359
 30
0.5
 11
6.807129
 21
0.169922
 31
0.5
  0
LINE
  5
4BA
  8
0
 62
     6
 10
6.807129
 20
0.169922
 30
0.5
 11
6.781738
 21
0.148438
 31
0.5
  0
LINE
  5
4BB
  8
0
 62
     6
 10
6.781738
 20
0.148438
 30
0.5
 11
6.755371
 21
0.131836
 31
0.5
  0
LINE
  5
4BC
  8
0
 62
     6
 10
6.755371
 20
0.131836
 30
0.5
 11
6.727051
 21
0.117188
 31
0.5
  0
LINE
  5
4BD
  8
0
 62
     6
 10
6.727051
 20
0.117188
 30
0.5
 11
6.696777
 21
0.106445
 31
0.5
  0
LINE
  5
4BE
  8
0
 62
     6
 10
6.696777
 20
0.106445
 30
0.5
 11
6.664551
 21
0.097656
 31
0.5
  0
LINE
  5
4BF
  8
0
 62
     6
 10
6.664551
 20
0.097656
 30
0.5
 11
6.630371
 21
0.09375
 31
0.5
  0
LINE
  5
4C0
  8
0
 62
     6
 10
6.630371
 20
0.09375
 30
0.5
 11
6.595215
 21
0.091797
 31
0.5
  0
LINE
  5
4C1
  8
0
 62
     6
 10
6.595215
 20
0.091797
 30
0.5
 11
6.560059
 21
0.09375
 31
0.5
  0
LINE
  5
4C2
  8
0
 62
     6
 10
6.560059
 20
0.09375
 30
0.5
 11
6.526855
 21
0.098633
 31
0.5
  0
LINE
  5
4C3
  8
0
 62
     6
 10
6.526855
 20
0.098633
 30
0.5
 11
6.494629
 21
0.106445
 31
0.5
  0
LINE
  5
4C4
  8
0
 62
     6
 10
6.494629
 20
0.106445
 30
0.5
 11
6.464355
 21
0.117188
 31
0.5
  0
LINE
  5
4C5
  8
0
 62
     6
 10
6.464355
 20
0.117188
 30
0.5
 11
6.436035
 21
0.131836
 31
0.5
  0
LINE
  5
4C6
  8
0
 62
     6
 10
6.436035
 20
0.131836
 30
0.5
 11
6.408691
 21
0.149414
 31
0.5
  0
LINE
  5
4C7
  8
0
 62
     6
 10
6.408691
 20
0.149414
 30
0.5
 11
6.384277
 21
0.169922
 31
0.5
  0
LINE
  5
4C8
  8
0
 62
     6
 10
6.384277
 20
0.169922
 30
0.5
 11
6.36084
 21
0.194336
 31
0.5
  0
LINE
  5
4C9
  8
0
 62
     6
 10
6.36084
 20
0.194336
 30
0.5
 11
6.339355
 21
0.220703
 31
0.5
  0
LINE
  5
4CA
  8
0
 62
     6
 10
6.339355
 20
0.220703
 30
0.5
 11
6.320801
 21
0.25
 31
0.5
  0
LINE
  5
4CB
  8
0
 62
     6
 10
6.320801
 20
0.25
 30
0.5
 11
6.305176
 21
0.280273
 31
0.5
  0
LINE
  5
4CC
  8
0
 62
     6
 10
6.305176
 20
0.280273
 30
0.5
 11
6.29248
 21
0.3125
 31
0.5
  0
LINE
  5
4CD
  8
0
 62
     6
 10
6.29248
 20
0.3125
 30
0.5
 11
6.282715
 21
0.347656
 31
0.5
  0
LINE
  5
4CE
  8
0
 62
     6
 10
6.282715
 20
0.347656
 30
0.5
 11
6.275879
 21
0.383789
 31
0.5
  0
LINE
  5
4CF
  8
0
 62
     6
 10
6.275879
 20
0.383789
 30
0.5
 11
6.270996
 21
0.421875
 31
0.5
  0
LINE
  5
4D0
  8
0
 62
     6
 10
6.270996
 20
0.421875
 30
0.5
 11
6.27002
 21
0.462891
 31
0.5
  0
LINE
  5
4D1
  8
0
 62
     6
 10
6.27002
 20
0.462891
 30
0.5
 11
6.270996
 21
0.511719
 31
0.5
  0
LINE
  5
4D2
  8
0
 62
     6
 10
7.130371
 20
0.954102
 30
0.5
 11
7.259277
 21
0.954102
 31
0.5
  0
LINE
  5
4D3
  8
0
 62
     6
 10
7.259277
 20
0.954102
 30
0.5
 11
7.405762
 21
0.328125
 31
0.5
  0
LINE
  5
4D4
  8
0
 62
     6
 10
7.405762
 20
0.328125
 30
0.5
 11
7.412598
 21
0.297852
 31
0.5
  0
LINE
  5
4D5
  8
0
 62
     6
 10
7.412598
 20
0.297852
 30
0.5
 11
7.419434
 21
0.270508
 31
0.5
  0
LINE
  5
4D6
  8
0
 62
     6
 10
7.419434
 20
0.270508
 30
0.5
 11
7.425293
 21
0.245117
 31
0.5
  0
LINE
  5
4D7
  8
0
 62
     6
 10
7.425293
 20
0.245117
 30
0.5
 11
7.430176
 21
0.22168
 31
0.5
  0
LINE
  5
4D8
  8
0
 62
     6
 10
7.430176
 20
0.22168
 30
0.5
 11
7.434082
 21
0.199219
 31
0.5
  0
LINE
  5
4D9
  8
0
 62
     6
 10
7.434082
 20
0.199219
 30
0.5
 11
7.437988
 21
0.179688
 31
0.5
  0
LINE
  5
4DA
  8
0
 62
     6
 10
7.437988
 20
0.179688
 30
0.5
 11
7.440918
 21
0.162109
 31
0.5
  0
LINE
  5
4DB
  8
0
 62
     6
 10
7.440918
 20
0.162109
 30
0.5
 11
7.442871
 21
0.147461
 31
0.5
  0
LINE
  5
4DC
  8
0
 62
     6
 10
7.442871
 20
0.147461
 30
0.5
 11
7.443848
 21
0.144531
 31
0.5
  0
LINE
  5
4DD
  8
0
 62
     6
 10
7.443848
 20
0.144531
 30
0.5
 11
7.443848
 21
0.141602
 31
0.5
  0
LINE
  5
4DE
  8
0
 62
     6
 10
7.443848
 20
0.141602
 30
0.5
 11
7.443848
 21
0.139648
 31
0.5
  0
LINE
  5
4DF
  8
0
 62
     6
 10
7.443848
 20
0.139648
 30
0.5
 11
7.443848
 21
0.137695
 31
0.5
  0
LINE
  5
4E0
  8
0
 62
     6
 10
7.443848
 20
0.137695
 30
0.5
 11
7.443848
 21
0.136719
 31
0.5
  0
LINE
  5
4E1
  8
0
 62
     6
 10
7.443848
 20
0.136719
 30
0.5
 11
7.443848
 21
0.134766
 31
0.5
  0
LINE
  5
4E2
  8
0
 62
     6
 10
7.443848
 20
0.134766
 30
0.5
 11
7.444824
 21
0.133789
 31
0.5
  0
LINE
  5
4E3
  8
0
 62
     6
 10
7.444824
 20
0.133789
 30
0.5
 11
7.446777
 21
0.133789
 31
0.5
  0
LINE
  5
4E4
  8
0
 62
     6
 10
7.446777
 20
0.133789
 30
0.5
 11
7.453613
 21
0.163086
 31
0.5
  0
LINE
  5
4E5
  8
0
 62
     6
 10
7.453613
 20
0.163086
 30
0.5
 11
7.459473
 21
0.19043
 31
0.5
  0
LINE
  5
4E6
  8
0
 62
     6
 10
7.459473
 20
0.19043
 30
0.5
 11
7.465332
 21
0.21582
 31
0.5
  0
LINE
  5
4E7
  8
0
 62
     6
 10
7.465332
 20
0.21582
 30
0.5
 11
7.470215
 21
0.239258
 31
0.5
  0
LINE
  5
4E8
  8
0
 62
     6
 10
7.470215
 20
0.239258
 30
0.5
 11
7.475098
 21
0.260742
 31
0.5
  0
LINE
  5
4E9
  8
0
 62
     6
 10
7.475098
 20
0.260742
 30
0.5
 11
7.47998
 21
0.279297
 31
0.5
  0
LINE
  5
4EA
  8
0
 62
     6
 10
7.47998
 20
0.279297
 30
0.5
 11
7.483887
 21
0.295898
 31
0.5
  0
LINE
  5
4EB
  8
0
 62
     6
 10
7.483887
 20
0.295898
 30
0.5
 11
7.487793
 21
0.310547
 31
0.5
  0
LINE
  5
4EC
  8
0
 62
     6
 10
7.487793
 20
0.310547
 30
0.5
 11
7.669434
 21
0.954102
 31
0.5
  0
LINE
  5
4ED
  8
0
 62
     6
 10
7.669434
 20
0.954102
 30
0.5
 11
7.822754
 21
0.954102
 31
0.5
  0
LINE
  5
4EE
  8
0
 62
     6
 10
7.822754
 20
0.954102
 30
0.5
 11
7.958496
 21
0.47168
 31
0.5
  0
LINE
  5
4EF
  8
0
 62
     6
 10
7.958496
 20
0.47168
 30
0.5
 11
7.971191
 21
0.427734
 31
0.5
  0
LINE
  5
4F0
  8
0
 62
     6
 10
7.971191
 20
0.427734
 30
0.5
 11
7.981934
 21
0.383789
 31
0.5
  0
LINE
  5
4F1
  8
0
 62
     6
 10
7.981934
 20
0.383789
 30
0.5
 11
7.992676
 21
0.339844
 31
0.5
  0
LINE
  5
4F2
  8
0
 62
     6
 10
7.992676
 20
0.339844
 30
0.5
 11
8.002440999999999
 21
0.297852
 31
0.5
  0
LINE
  5
4F3
  8
0
 62
     6
 10
8.002440999999999
 20
0.297852
 30
0.5
 11
8.011229999999999
 21
0.255859
 31
0.5
  0
LINE
  5
4F4
  8
0
 62
     6
 10
8.011229999999999
 20
0.255859
 30
0.5
 11
8.019043
 21
0.213867
 31
0.5
  0
LINE
  5
4F5
  8
0
 62
     6
 10
8.019043
 20
0.213867
 30
0.5
 11
8.025879
 21
0.173828
 31
0.5
  0
LINE
  5
4F6
  8
0
 62
     6
 10
8.025879
 20
0.173828
 30
0.5
 11
8.031738000000001
 21
0.133789
 31
0.5
  0
LINE
  5
4F7
  8
0
 62
     6
 10
8.031738000000001
 20
0.133789
 30
0.5
 11
8.034668
 21
0.133789
 31
0.5
  0
LINE
  5
4F8
  8
0
 62
     6
 10
8.034668
 20
0.133789
 30
0.5
 11
8.038574000000001
 21
0.15332
 31
0.5
  0
LINE
  5
4F9
  8
0
 62
     6
 10
8.038574000000001
 20
0.15332
 30
0.5
 11
8.042479999999999
 21
0.175781
 31
0.5
  0
LINE
  5
4FA
  8
0
 62
     6
 10
8.042479999999999
 20
0.175781
 30
0.5
 11
8.047363000000001
 21
0.199219
 31
0.5
  0
LINE
  5
4FB
  8
0
 62
     6
 10
8.047363000000001
 20
0.199219
 30
0.5
 11
8.053222999999999
 21
0.223633
 31
0.5
  0
LINE
  5
4FC
  8
0
 62
     6
 10
8.053222999999999
 20
0.223633
 30
0.5
 11
8.059082
 21
0.250977
 31
0.5
  0
LINE
  5
4FD
  8
0
 62
     6
 10
8.059082
 20
0.250977
 30
0.5
 11
8.065918
 21
0.279297
 31
0.5
  0
LINE
  5
4FE
  8
0
 62
     6
 10
8.065918
 20
0.279297
 30
0.5
 11
8.072754
 21
0.30957
 31
0.5
  0
LINE
  5
4FF
  8
0
 62
     6
 10
8.072754
 20
0.30957
 30
0.5
 11
8.080565999999999
 21
0.34082
 31
0.5
  0
LINE
  5
500
  8
0
 62
     6
 10
8.080565999999999
 20
0.34082
 30
0.5
 11
8.230957
 21
0.954102
 31
0.5
  0
LINE
  5
501
  8
0
 62
     6
 10
8.230957
 20
0.954102
 30
0.5
 11
8.35791
 21
0.954102
 31
0.5
  0
LINE
  5
502
  8
0
 62
     6
 10
8.35791
 20
0.954102
 30
0.5
 11
8.094238000000001
 21
0.0
 31
0.5
  0
LINE
  5
503
  8
0
 62
     6
 10
8.094238000000001
 20
0.0
 30
0.5
 11
7.973145
 21
0.0
 31
0.5
  0
LINE
  5
504
  8
0
 62
     6
 10
7.973145
 20
0.0
 30
0.5
 11
7.765137
 21
0.751953
 31
0.5
  0
LINE
  5
505
  8
0
 62
     6
 10
7.765137
 20
0.751953
 30
0.5
 11
7.76123
 21
0.765625
 31
0.5
  0
LINE
  5
506
  8
0
 62
     6
 10
7.76123
 20
0.765625
 30
0.5
 11
7.758301
 21
0.779297
 31
0.5
  0
LINE
  5
507
  8
0
 62
     6
 10
7.758301
 20
0.779297
 30
0.5
 11
7.754395
 21
0.7910160000000001
 31
0.5
  0
LINE
  5
508
  8
0
 62
     6
 10
7.754395
 20
0.7910160000000001
 30
0.5
 11
7.752441
 21
0.802734
 31
0.5
  0
LINE
  5
509
  8
0
 62
     6
 10
7.752441
 20
0.802734
 30
0.5
 11
7.749512
 21
0.813477
 31
0.5
  0
LINE
  5
50A
  8
0
 62
     6
 10
7.749512
 20
0.813477
 30
0.5
 11
7.747559
 21
0.823242
 31
0.5
  0
LINE
  5
50B
  8
0
 62
     6
 10
7.747559
 20
0.823242
 30
0.5
 11
7.745605
 21
0.832031
 31
0.5
  0
LINE
  5
50C
  8
0
 62
     6
 10
7.745605
 20
0.832031
 30
0.5
 11
7.744629
 21
0.839844
 31
0.5
  0
LINE
  5
50D
  8
0
 62
     6
 10
7.744629
 20
0.839844
 30
0.5
 11
7.741699
 21
0.839844
 31
0.5
  0
LINE
  5
50E
  8
0
 62
     6
 10
7.741699
 20
0.839844
 30
0.5
 11
7.715332
 21
0.726563
 31
0.5
  0
LINE
  5
50F
  8
0
 62
     6
 10
7.715332
 20
0.726563
 30
0.5
 11
7.512207
 21
0.0
 31
0.5
  0
LINE
  5
510
  8
0
 62
     6
 10
7.512207
 20
0.0
 30
0.5
 11
7.384277
 21
0.0
 31
0.5
  0
LINE
  5
511
  8
0
 62
     6
 10
7.384277
 20
0.0
 30
0.5
 11
7.130371
 21
0.954102
 31
0.5
  0
LINE
  5
512
  8
0
 62
     6
 10
7.444824
 20
0.133789
 30
0.5
 11
7.444824
 21
0.133789
 31
0.5
  0
POLYLINE
  5
519
  8
0
  6
BYBLOCK
 62
     6
 66
     1
 10
0.0
 20
0.0
 30
0.0
  0
VERTEX
  5
580
  8
0
  6
BYBLOCK
 62
     6
 10
9.123934854963899
 20
2.242541902814329
 30
0.0
  0
VERTEX
  5
581
  8
0
  6
BYBLOCK
 62
     6
 10
9.123519419110533
 20
-0.0321490427195427
 30
0.0
  0
SEQEND
  5
57F
  8
0
  6
BYBLOCK
 62
     6
  0
ARC
  5
51A
  8
0
  6
BYBLOCK
 62
     6
 10
9.092159948966058
 20
2.754048480487293
 30
0.0
 40
0.5124925596083088
 50
174.2649636532837
 51
273.5546592832844
  0
ARC
  5
51B
  8
0
  6
BYBLOCK
 62
     6
 10
9.078434676267531
 20
-0.5643928055253406
 30
0.0
 40
0.5341498451585397
 50
85.1582078960334
 51
182.2703434392487
  0
ARC
  5
51C
  8
0
  6
BYBLOCK
 62
     6
 10
-0.6313198556199013
 20
-0.5469052892053611
 30
0.0
 40
0.5375379751408117
 50
355.8770180780316
 51
91.53864814946851
  0
ARC
  5
51D
  8
0
  6
BYBLOCK
 62
     6
 10
-0.6048275061349311
 20
2.779174523100612
 30
0.0
 40
0.5275259942007609
 50
265.495102142199
 51
3.182746234630256
  0
POLYLINE
  5
521
  8
0
  6
BYBLOCK
 62
     6
 66
     1
 10
0.0
 20
0.0
 30
0.0
  0
VERTEX
  5
583
  8
0
  6
BYBLOCK
 62
     6
 10
8.544704120754867
 20
-0.5855529377327644
 30
0.0
  0
VERTEX
  5
584
  8
0
  6
BYBLOCK
 62
     6
 10
-0.0951730156760422
 20
-0.5855529377327644
 30
0.0
  0
SEQEND
  5
582
  8
0
  6
BYBLOCK
 62
     6
  0
POLYLINE
  5
525
  8
0
  6
BYBLOCK
 62
     6
 66
     1
 10
0.0
 20
0.0
 30
0.0
  0
VERTEX
  5
586
  8
0
  6
BYBLOCK
 62
     6
 10
-0.6457534214289924
 20
-0.0095611286373704
 30
0.0
  0
VERTEX
  5
587
  8
0
  6
BYBLOCK
 62
     6
 10
-0.6462616743465851
 20
2.253278255513449
 30
0.0
  0
SEQEND
  5
585
  8
0
  6
BYBLOCK
 62
     6
  0
POLYLINE
  5
529
  8
0
  6
BYBLOCK
 62
     6
 66
     1
 10
0.0
 20
0.0
 30
0.0
  0
VERTEX
  5
589
  8
0
  6
BYBLOCK
 62
     6
 10
-0.078115205629168
 20
2.80846320783427
 30
0.0
  0
VERTEX
  5
58A
  8
0
  6
BYBLOCK
 62
     6
 10
8.582232594024026
 20
2.805260943186308
 30
0.0
  0
SEQEND
  5
588
  8
0
  6
BYBLOCK
 62
     6
  0
ENDSEC
  0
EOF
