  0
SECTION
  2
HEADER
  9
$ACADVER
  1
AC1015
  9
$HANDSEED
  5
FFFF
  9
$INSUNITS
 70
1
  9
$DIMEXE
 40
0.18
  9
$TEXTSTYLE
  7
Standard
  9
$TEXTSTYLE
  7
Roman
  9
$LIMMIN
 10
0.0
 20
0.0
  0
ENDSEC
  0
SECTION
  2
TABLES
  0
TABLE
  2
VPORT
  5
8
100
AcDbSymbolTable
 70
1
  0
VPORT
  5
30
100
AcDbSymbolTableRecord
100
AcDbViewportTableRecord
  2
*Active
 70
0
 10
0.0
 20
0.0
 11
1.0
 21
1.0
 12
286.30555555555549
 22
148.5
 13
0.0
 23
0.0
 14
0.0
 24
0.0
 15
10.0
 25
10.0
 16
0.0
 26
0.0
 36
1.0
 17
0.0
 27
0.0
 37
0.0
 40
297.0
 41
1.92798353909465
 42
50.0
 43
0.0
 44
0.0
 50
0.0
 51
0.0
 71
0
 72
100
 73
1
 74
3
 75
1
 76
1
 77
0
 78
0
281
0
 65
1
110
0.0
120
0.0
130
0.0
111
1.0
121
0.0
131
0.0
112
0.0
122
1.0
132
0.0
 79
0
146
0.0
  0
ENDTAB
  0
TABLE
  2
LTYPE
  5
5
100
AcDbSymbolTable
 70
25
  0
LTYPE
  5
14
100
AcDbSymbolTableRecord
100
AcDbLinetypeTableRecord
  2
BYBLOCK
 70
0
  3

 72
65
 73
0
 40
0.0
  0
LTYPE
  5
15
100
AcDbSymbolTableRecord
100
AcDbLinetypeTableRecord
  2
BYLAYER
 70
0
  3

 72
65
 73
0
 40
0.0
  0
LTYPE
  5
16
100
AcDbSymbolTableRecord
100
AcDbLinetypeTableRecord
  2
CONTINUOUS
 70
0
  3
Solid line
 72
65
 73
0
 40
0.0
  0
LTYPE
  5
31
100
AcDbSymbolTableRecord
100
AcDbLinetypeTableRecord
  2
ACAD_ISO02W100
 70
0
  3
ISO Dashed __ __ __ __ __ __ __ __ __ __ _
 72
65
 73
2
 40
15.0
 49
12.0
 74
0
 49
-3.0
 74
0
  0
LTYPE
  5
32
100
AcDbSymbolTableRecord
100
AcDbLinetypeTableRecord
  2
ACAD_ISO03W100
 70
0
  3
ISO Dashed with Distance __    __    __    _
 72
65
 73
2
 40
30.0
 49
12.0
 74
0
 49
-18.0
 74
0
  0
LTYPE
  5
33
100
AcDbSymbolTableRecord
100
AcDbLinetypeTableRecord
  2
ACAD_ISO04W100
 70
0
  3
ISO Long Dashed Dotted ____ . ____ . __
 72
65
 73
4
 40
30.0
 49
24.0
 74
0
 49
-3.0
 74
0
 49
0.0
 74
0
 49
-3.0
 74
0
  0
LTYPE
  5
34
100
AcDbSymbolTableRecord
100
AcDbLinetypeTableRecord
  2
ACAD_ISO05W100
 70
0
  3
ISO Long Dashed Double Dotted ____ .. __
 72
65
 73
6
 40
33.0
 49
24.0
 74
0
 49
-3.0
 74
0
 49
0.0
 74
0
 49
-3.0
 74
0
 49
0.0
 74
0
 49
-3.0
 74
0
  0
LTYPE
  5
35
100
AcDbSymbolTableRecord
100
AcDbLinetypeTableRecord
  2
BORDER
 70
0
  3
Border __ __ . __ __ . __ __ . __ __ . __ __ .
 72
65
 73
6
 40
44.450000000000003
 49
12.699999999999999
 74
0
 49
-6.3499999999999996
 74
0
 49
12.699999999999999
 74
0
 49
-6.3499999999999996
 74
0
 49
0.0
 74
0
 49
-6.3499999999999996
 74
0
  0
LTYPE
  5
36
100
AcDbSymbolTableRecord
100
AcDbLinetypeTableRecord
  2
BORDER2
 70
0
  3
Border (.5x) __.__.__.__.__.__.__.__.__.__.__.
 72
65
 73
6
 40
22.225000000000001
 49
6.3499999999999996
 74
0
 49
-3.1749999999999998
 74
0
 49
6.3499999999999996
 74
0
 49
-3.1749999999999998
 74
0
 49
0.0
 74
0
 49
-3.1749999999999998
 74
0
  0
LTYPE
  5
37
100
AcDbSymbolTableRecord
100
AcDbLinetypeTableRecord
  2
BORDERX2
 70
0
  3
Border (2x) ____  ____  .  ____  ____  .  ___
 72
65
 73
6
 40
88.900000000000006
 49
25.399999999999999
 74
0
 49
-12.699999999999999
 74
0
 49
25.399999999999999
 74
0
 49
-12.699999999999999
 74
0
 49
0.0
 74
0
 49
-12.699999999999999
 74
0
  0
LTYPE
  5
38
100
AcDbSymbolTableRecord
100
AcDbLinetypeTableRecord
  2
CENTER
 70
0
  3
Center ____ _ ____ _ ____ _ ____ _ ____ _ ____
 72
65
 73
4
 40
50.799999999999997
 49
31.75
 74
0
 49
-6.3499999999999996
 74
0
 49
6.3499999999999996
 74
0
 49
-6.3499999999999996
 74
0
  0
LTYPE
  5
39
100
AcDbSymbolTableRecord
100
AcDbLinetypeTableRecord
  2
CENTER2
 70
0
  3
Center (.5x) ___ _ ___ _ ___ _ ___ _ ___ _ ___
 72
65
 73
4
 40
28.574999999999999
 49
19.050000000000001
 74
0
 49
-3.1749999999999998
 74
0
 49
3.1749999999999998
 74
0
 49
-3.1749999999999998
 74
0
  0
LTYPE
  5
3A
100
AcDbSymbolTableRecord
100
AcDbLinetypeTableRecord
  2
CENTERX2
 70
0
  3
Center (2x) ________  __  ________  __  _____
 72
65
 73
4
 40
101.59999999999999
 49
63.5
 74
0
 49
-12.699999999999999
 74
0
 49
12.699999999999999
 74
0
 49
-12.699999999999999
 74
0
  0
LTYPE
  5
3B
100
AcDbSymbolTableRecord
100
AcDbLinetypeTableRecord
  2
DASHDOT
 70
0
  3
Dash dot __ . __ . __ . __ . __ . __ . __ . __
 72
65
 73
4
 40
25.399999999999999
 49
12.699999999999999
 74
0
 49
-6.3499999999999996
 74
0
 49
0.0
 74
0
 49
-6.3499999999999996
 74
0
  0
LTYPE
  5
3C
100
AcDbSymbolTableRecord
100
AcDbLinetypeTableRecord
  2
DASHDOT2
 70
0
  3
Dash dot (.5x) _._._._._._._._._._._._._._._.
 72
65
 73
4
 40
12.699999999999999
 49
6.3499999999999996
 74
0
 49
-3.1749999999999998
 74
0
 49
0.0
 74
0
 49
-3.1749999999999998
 74
0
  0
LTYPE
  5
3D
100
AcDbSymbolTableRecord
100
AcDbLinetypeTableRecord
  2
DASHDOTX2
 70
0
  3
Dash dot (2x) ____  .  ____  .  ____  .  ___
 72
65
 73
4
 40
50.799999999999997
 49
25.399999999999999
 74
0
 49
-12.699999999999999
 74
0
 49
0.0
 74
0
 49
-12.699999999999999
 74
0
  0
LTYPE
  5
3E
100
AcDbSymbolTableRecord
100
AcDbLinetypeTableRecord
  2
DASHED
 70
0
  3
Dashed __ __ __ __ __ __ __ __ __ __ __ __ __ _
 72
65
 73
2
 40
19.050000000000001
 49
12.699999999999999
 74
0
 49
-6.3499999999999996
 74
0
  0
LTYPE
  5
3F
100
AcDbSymbolTableRecord
100
AcDbLinetypeTableRecord
  2
DASHED2
 70
0
  3
Dashed (.5x) _ _ _ _ _ _ _ _ _ _ _ _ _ _ _ _ _
 72
65
 73
2
 40
9.5250000000000004
 49
6.3499999999999996
 74
0
 49
-3.1749999999999998
 74
0
  0
LTYPE
  5
40
100
AcDbSymbolTableRecord
100
AcDbLinetypeTableRecord
  2
DASHEDX2
 70
0
  3
Dashed (2x) ____  ____  ____  ____  ____  ___
 72
65
 73
2
 40
38.100000000000001
 49
25.399999999999999
 74
0
 49
-12.699999999999999
 74
0
  0
LTYPE
  5
41
100
AcDbSymbolTableRecord
100
AcDbLinetypeTableRecord
  2
DIVIDE
 70
0
  3
Divide ____ . . ____ . . ____ . . ____ . . ____
 72
65
 73
6
 40
31.75
 49
12.699999999999999
 74
0
 49
-6.3499999999999996
 74
0
 49
0.0
 74
0
 49
-6.3499999999999996
 74
0
 49
0.0
 74
0
 49
-6.3499999999999996
 74
0
  0
LTYPE
  5
42
100
AcDbSymbolTableRecord
100
AcDbLinetypeTableRecord
  2
DIVIDE2
 70
0
  3
Divide (.5x) __..__..__..__..__..__..__..__.._
 72
65
 73
6
 40
15.875
 49
6.3499999999999996
 74
0
 49
-3.1749999999999998
 74
0
 49
0.0
 74
0
 49
-3.1749999999999998
 74
0
 49
0.0
 74
0
 49
-3.1749999999999998
 74
0
  0
LTYPE
  5
43
100
AcDbSymbolTableRecord
100
AcDbLinetypeTableRecord
  2
DIVIDEX2
 70
0
  3
Divide (2x) ________  .  .  ________  .  .  _
 72
65
 73
6
 40
63.5
 49
25.399999999999999
 74
0
 49
-12.699999999999999
 74
0
 49
0.0
 74
0
 49
-12.699999999999999
 74
0
 49
0.0
 74
0
 49
-12.699999999999999
 74
0
  0
LTYPE
  5
44
100
AcDbSymbolTableRecord
100
AcDbLinetypeTableRecord
  2
DOT
 70
0
  3
Dot . . . . . . . . . . . . . . . . . . . . . .
 72
65
 73
2
 40
6.3499999999999996
 49
0.0
 74
0
 49
-6.3499999999999996
 74
0
  0
LTYPE
  5
45
100
AcDbSymbolTableRecord
100
AcDbLinetypeTableRecord
  2
DOT2
 70
0
  3
Dot (.5x) .....................................
 72
65
 73
2
 40
3.1749999999999998
 49
0.0
 74
0
 49
-3.1749999999999998
 74
0
  0
LTYPE
  5
46
100
AcDbSymbolTableRecord
100
AcDbLinetypeTableRecord
  2
DOTX2
 70
0
  3
Dot (2x) .  .  .  .  .  .  .  .  .  .  .  .  .
 72
65
 73
2
 40
12.699999999999999
 49
0.0
 74
0
 49
-12.699999999999999
 74
0
  0
ENDTAB
  0
TABLE
  2
LAYER
  5
2
100
AcDbSymbolTable
 70
5
  0
LAYER
  5
10
100
AcDbSymbolTableRecord
100
AcDbLayerTableRecord
  2
0
 70
0
 62
250
  6
CONTINUOUS
370
100
390
F
  0
LAYER
  5
47
100
AcDbSymbolTableRecord
100
AcDbLayerTableRecord
  2
H
 70
0
 62
7
  6
CONTINUOUS
370
100
390
F
  0
LAYER
  5
48
100
AcDbSymbolTableRecord
100
AcDbLayerTableRecord
  2
P
 70
0
 62
250
  6
CONTINUOUS
370
100
390
F
  0
LAYER
  5
49
100
AcDbSymbolTableRecord
100
AcDbLayerTableRecord
  2
Text
 70
0
 62
250
  6
CONTINUOUS
370
100
390
F
  0
LAYER
  5
4A
100
AcDbSymbolTableRecord
100
AcDbLayerTableRecord
  2
Images
 70
0
 62
250
  6
CONTINUOUS
370
100
390
F
  0
ENDTAB
  0
TABLE
  2
STYLE
  5
3
100
AcDbSymbolTable
 70
1
  0
STYLE
  5
11
100
AcDbSymbolTableRecord
100
AcDbTextStyleTableRecord
  2
Standard
 70
0
 40
0.0
 41
0.75
 50
0.0
 71
0
 42
2.5
  3
txt
  4

  0
ENDTAB
  0
TABLE
  2
VIEW
  5
6
100
AcDbSymbolTable
 70
0
  0
ENDTAB
  0
TABLE
  2
UCS
  5
7
100
AcDbSymbolTable
 70
0
  0
ENDTAB
  0
TABLE
  2
APPID
  5
9
100
AcDbSymbolTable
 70
1
  0
APPID
  5
12
100
AcDbSymbolTableRecord
100
AcDbRegAppTableRecord
  2
ACAD
 70
0
  0
ENDTAB
  0
TABLE
  2
DIMSTYLE
  5
A
100
AcDbSymbolTable
 70
1
100
AcDbDimStyleTable
 71
0
  0
DIMSTYLE
105
27
100
AcDbSymbolTableRecord
100
AcDbDimStyleTableRecord
  2
Standard
 41
1.0
 42
1.0
 43
3.75
 44
1.0
 70
0
 73
0
 74
0
 77
1
 78
8
140
1.0
141
2.5
143
0.03937007874016
147
1.0
171
3
172
1
271
2
272
2
274
3
278
44
283
0
284
8
340
11
  0
ENDTAB
  0
TABLE
  2
BLOCK_RECORD
  5
1
100
AcDbSymbolTable
 70
1
  0
BLOCK_RECORD
  5
1F
100
AcDbSymbolTableRecord
100
AcDbBlockTableRecord
  2
*Model_Space
340
22
  0
BLOCK_RECORD
  5
1B
100
AcDbSymbolTableRecord
100
AcDbBlockTableRecord
  2
*Paper_Space
340
1E
  0
BLOCK_RECORD
  5
23
100
AcDbSymbolTableRecord
100
AcDbBlockTableRecord
  2
*Paper_Space0
340
26
  0
ENDTAB
  0
ENDSEC
  0
SECTION
  2
BLOCKS
  0
BLOCK
  5
20
100
AcDbEntity
  8
0
100
AcDbBlockBegin
  2
*Model_Space
 70
0
 10
0.0
 20
0.0
 30
0.0
  3
*Model_Space
  1

  0
ENDBLK
  5
21
100
AcDbEntity
  8
0
100
AcDbBlockEnd
  0
BLOCK
  5
1C
100
AcDbEntity
 67
1
  8
0
100
AcDbBlockBegin
  2
*Paper_Space
 70
0
 10
0.0
 20
0.0
 30
0.0
  3
*Paper_Space
  1

  0
ENDBLK
  5
1D
100
AcDbEntity
 67
1
  8
0
100
AcDbBlockEnd
  0
BLOCK
  5
24
100
AcDbEntity
  8
0
100
AcDbBlockBegin
  2
*Paper_Space0
 70
0
 10
0.0
 20
0.0
 30
0.0
  3
*Paper_Space0
  1

  0
ENDBLK
  5
25
100
AcDbEntity
  8
0
100
AcDbBlockEnd
  0
ENDSEC
  0
SECTION
  2
ENTITIES
  0
MTEXT
  5
4B
100
AcDbEntity
100
AcDbMText
  8
Text
 62
240
370
-1
  6
BYLAYER
 10
-82.0
 20
0.0
 30
0.0
 40
3.0
 41
165.0
 71
4
 72
5
  1
Unregistered Version - http://www.aidecad.com
  7
Standard
 50
0.0
 73
2
 44
1.0
  0
LWPOLYLINE
  5
4C
  8
P
 62
0
370
-1
  6
CONTINUOUS
100
AcDbEntity
100
AcDbPolyline
 90
21
 70
0
 10
-107.0
 20
183.0
 10
-109.0
 20
187.0
 10
-109.0
 20
188.0
 10
-110.0
 20
189.0
 10
-111.0
 20
190.0
 10
-110.0
 20
191.0
 10
-109.0
 20
191.0
 10
-108.0
 20
192.0
 10
-107.0
 20
192.0
 10
-106.0
 20
192.0
 10
-105.0
 20
192.0
 10
-104.0
 20
191.0
 10
-103.0
 20
191.0
 10
-102.0
 20
191.0
 10
-101.0
 20
190.0
 10
-100.0
 20
189.0
 10
-101.0
 20
188.0
 10
-101.0
 20
187.0
 10
-101.0
 20
186.0
 10
-101.0
 20
185.0
 10
-100.0
 20
180.0
  0
LWPOLYLINE
  5
4D
  8
P
 62
0
370
-1
  6
CONTINUOUS
100
AcDbEntity
100
AcDbPolyline
 90
45
 70
0
 10
-115.0
 20
159.0
 10
-118.0
 20
156.0
 10
-119.0
 20
156.0
 10
-120.0
 20
155.0
 10
-121.0
 20
155.0
 10
-122.0
 20
154.0
 10
-123.0
 20
154.0
 10
-124.0
 20
154.0
 10
-125.0
 20
153.0
 10
-126.0
 20
154.0
 10
-126.0
 20
155.0
 10
-126.0
 20
156.0
 10
-126.0
 20
157.0
 10
-126.0
 20
158.0
 10
-126.0
 20
159.0
 10
-127.0
 20
160.0
 10
-127.0
 20
161.0
 10
-127.0
 20
162.0
 10
-127.0
 20
163.0
 10
-127.0
 20
164.0
 10
-126.0
 20
165.0
 10
-126.0
 20
166.0
 10
-126.0
 20
167.0
 10
-126.0
 20
168.0
 10
-126.0
 20
169.0
 10
-125.0
 20
170.0
 10
-125.0
 20
171.0
 10
-125.0
 20
172.0
 10
-124.0
 20
173.0
 10
-124.0
 20
174.0
 10
-124.0
 20
175.0
 10
-123.0
 20
176.0
 10
-123.0
 20
177.0
 10
-122.0
 20
178.0
 10
-122.0
 20
179.0
 10
-121.0
 20
180.0
 10
-121.0
 20
181.0
 10
-120.0
 20
182.0
 10
-120.0
 20
183.0
 10
-119.0
 20
184.0
 10
-118.0
 20
185.0
 10
-117.0
 20
186.0
 10
-116.0
 20
187.0
 10
-115.0
 20
188.0
 10
-111.0
 20
190.0
  0
LWPOLYLINE
  5
4E
  8
P
 62
0
370
-1
  6
CONTINUOUS
100
AcDbEntity
100
AcDbPolyline
 90
325
 70
0
 10
-100.0
 20
189.0
 10
-96.0
 20
188.0
 10
-95.0
 20
188.0
 10
-94.0
 20
188.0
 10
-93.0
 20
187.0
 10
-92.0
 20
187.0
 10
-91.0
 20
186.0
 10
-90.0
 20
186.0
 10
-89.0
 20
186.0
 10
-88.0
 20
185.0
 10
-87.0
 20
185.0
 10
-86.0
 20
185.0
 10
-85.0
 20
184.0
 10
-84.0
 20
184.0
 10
-83.0
 20
183.0
 10
-82.0
 20
183.0
 10
-81.0
 20
183.0
 10
-80.0
 20
182.0
 10
-79.0
 20
182.0
 10
-78.0
 20
182.0
 10
-77.0
 20
181.0
 10
-76.0
 20
181.0
 10
-75.0
 20
181.0
 10
-74.0
 20
180.0
 10
-73.0
 20
180.0
 10
-72.0
 20
179.0
 10
-71.0
 20
179.0
 10
-70.0
 20
179.0
 10
-69.0
 20
178.0
 10
-68.0
 20
178.0
 10
-67.0
 20
178.0
 10
-66.0
 20
177.0
 10
-65.0
 20
177.0
 10
-64.0
 20
176.0
 10
-63.0
 20
176.0
 10
-62.0
 20
176.0
 10
-61.0
 20
175.0
 10
-60.0
 20
175.0
 10
-59.0
 20
175.0
 10
-58.0
 20
174.0
 10
-57.0
 20
174.0
 10
-56.0
 20
173.0
 10
-55.0
 20
173.0
 10
-54.0
 20
173.0
 10
-53.0
 20
172.0
 10
-52.0
 20
172.0
 10
-51.0
 20
172.0
 10
-50.0
 20
171.0
 10
-49.0
 20
171.0
 10
-48.0
 20
170.0
 10
-47.0
 20
170.0
 10
-46.0
 20
170.0
 10
-45.0
 20
169.0
 10
-44.0
 20
169.0
 10
-43.0
 20
169.0
 10
-42.0
 20
168.0
 10
-41.0
 20
168.0
 10
-40.0
 20
167.0
 10
-39.0
 20
167.0
 10
-38.0
 20
167.0
 10
-37.0
 20
166.0
 10
-36.0
 20
166.0
 10
-35.0
 20
166.0
 10
-34.0
 20
165.0
 10
-33.0
 20
165.0
 10
-32.0
 20
164.0
 10
-31.0
 20
164.0
 10
-30.0
 20
164.0
 10
-29.0
 20
163.0
 10
-28.0
 20
163.0
 10
-27.0
 20
163.0
 10
-26.0
 20
162.0
 10
-25.0
 20
162.0
 10
-24.0
 20
162.0
 10
-23.0
 20
161.0
 10
-22.0
 20
161.0
 10
-21.0
 20
160.0
 10
-20.0
 20
160.0
 10
-19.0
 20
160.0
 10
-18.0
 20
159.0
 10
-17.0
 20
159.0
 10
-16.0
 20
159.0
 10
-15.0
 20
158.0
 10
-14.0
 20
158.0
 10
-13.0
 20
157.0
 10
-12.0
 20
157.0
 10
-11.0
 20
157.0
 10
-10.0
 20
156.0
 10
-9.0
 20
156.0
 10
-8.0
 20
156.0
 10
-7.0
 20
155.0
 10
-6.0
 20
155.0
 10
-5.0
 20
154.0
 10
-4.0
 20
154.0
 10
-3.0
 20
154.0
 10
-2.0
 20
153.0
 10
-1.0
 20
153.0
 10
0.0
 20
153.0
 10
1.0
 20
152.0
 10
2.0
 20
152.0
 10
3.0
 20
151.0
 10
4.0
 20
151.0
 10
5.0
 20
151.0
 10
6.0
 20
150.0
 10
7.0
 20
150.0
 10
8.0
 20
150.0
 10
9.0
 20
149.0
 10
10.0
 20
149.0
 10
11.0
 20
148.0
 10
12.0
 20
148.0
 10
13.0
 20
148.0
 10
14.0
 20
147.0
 10
15.0
 20
147.0
 10
16.0
 20
147.0
 10
17.0
 20
146.0
 10
18.0
 20
146.0
 10
19.0
 20
146.0
 10
20.0
 20
145.0
 10
21.0
 20
145.0
 10
22.0
 20
144.0
 10
23.0
 20
144.0
 10
24.0
 20
144.0
 10
25.0
 20
143.0
 10
26.0
 20
143.0
 10
27.0
 20
143.0
 10
28.0
 20
142.0
 10
29.0
 20
142.0
 10
30.0
 20
141.0
 10
31.0
 20
141.0
 10
32.0
 20
141.0
 10
33.0
 20
140.0
 10
34.0
 20
140.0
 10
35.0
 20
140.0
 10
36.0
 20
139.0
 10
37.0
 20
138.0
 10
38.0
 20
137.0
 10
39.0
 20
138.0
 10
40.0
 20
138.0
 10
41.0
 20
138.0
 10
42.0
 20
138.0
 10
42.0
 20
139.0
 10
43.0
 20
140.0
 10
44.0
 20
141.0
 10
45.0
 20
142.0
 10
46.0
 20
143.0
 10
47.0
 20
144.0
 10
48.0
 20
144.0
 10
49.0
 20
145.0
 10
50.0
 20
146.0
 10
51.0
 20
147.0
 10
52.0
 20
148.0
 10
53.0
 20
149.0
 10
54.0
 20
149.0
 10
55.0
 20
150.0
 10
56.0
 20
151.0
 10
57.0
 20
152.0
 10
58.0
 20
153.0
 10
59.0
 20
154.0
 10
60.0
 20
154.0
 10
61.0
 20
155.0
 10
62.0
 20
156.0
 10
63.0
 20
157.0
 10
64.0
 20
158.0
 10
65.0
 20
159.0
 10
66.0
 20
160.0
 10
67.0
 20
160.0
 10
68.0
 20
161.0
 10
69.0
 20
162.0
 10
70.0
 20
163.0
 10
71.0
 20
164.0
 10
72.0
 20
165.0
 10
73.0
 20
165.0
 10
74.0
 20
166.0
 10
75.0
 20
167.0
 10
76.0
 20
168.0
 10
77.0
 20
169.0
 10
78.0
 20
170.0
 10
79.0
 20
170.0
 10
80.0
 20
170.0
 10
80.0
 20
171.0
 10
81.0
 20
172.0
 10
82.0
 20
173.0
 10
83.0
 20
174.0
 10
84.0
 20
175.0
 10
85.0
 20
176.0
 10
86.0
 20
176.0
 10
87.0
 20
177.0
 10
88.0
 20
178.0
 10
89.0
 20
179.0
 10
90.0
 20
180.0
 10
91.0
 20
181.0
 10
92.0
 20
181.0
 10
93.0
 20
182.0
 10
94.0
 20
183.0
 10
95.0
 20
184.0
 10
96.0
 20
184.0
 10
97.0
 20
185.0
 10
98.0
 20
186.0
 10
99.0
 20
186.0
 10
100.0
 20
187.0
 10
101.0
 20
187.0
 10
102.0
 20
187.0
 10
103.0
 20
187.0
 10
104.0
 20
187.0
 10
105.0
 20
187.0
 10
106.0
 20
188.0
 10
107.0
 20
188.0
 10
108.0
 20
188.0
 10
109.0
 20
188.0
 10
110.0
 20
188.0
 10
111.0
 20
188.0
 10
112.0
 20
188.0
 10
113.0
 20
189.0
 10
114.0
 20
189.0
 10
115.0
 20
189.0
 10
116.0
 20
189.0
 10
117.0
 20
189.0
 10
118.0
 20
189.0
 10
119.0
 20
189.0
 10
120.0
 20
189.0
 10
121.0
 20
189.0
 10
122.0
 20
189.0
 10
123.0
 20
189.0
 10
124.0
 20
189.0
 10
125.0
 20
188.0
 10
126.0
 20
188.0
 10
127.0
 20
188.0
 10
128.0
 20
188.0
 10
129.0
 20
187.0
 10
130.0
 20
187.0
 10
131.0
 20
187.0
 10
132.0
 20
187.0
 10
133.0
 20
186.0
 10
134.0
 20
186.0
 10
135.0
 20
185.0
 10
136.0
 20
185.0
 10
137.0
 20
184.0
 10
138.0
 20
184.0
 10
139.0
 20
183.0
 10
140.0
 20
183.0
 10
141.0
 20
182.0
 10
142.0
 20
182.0
 10
143.0
 20
182.0
 10
144.0
 20
181.0
 10
145.0
 20
181.0
 10
146.0
 20
180.0
 10
147.0
 20
179.0
 10
148.0
 20
179.0
 10
149.0
 20
178.0
 10
150.0
 20
177.0
 10
151.0
 20
177.0
 10
152.0
 20
176.0
 10
153.0
 20
175.0
 10
154.0
 20
174.0
 10
155.0
 20
173.0
 10
156.0
 20
172.0
 10
157.0
 20
171.0
 10
158.0
 20
170.0
 10
159.0
 20
169.0
 10
160.0
 20
168.0
 10
161.0
 20
167.0
 10
162.0
 20
166.0
 10
163.0
 20
165.0
 10
164.0
 20
164.0
 10
165.0
 20
163.0
 10
166.0
 20
162.0
 10
167.0
 20
161.0
 10
167.0
 20
160.0
 10
168.0
 20
159.0
 10
168.0
 20
158.0
 10
169.0
 20
157.0
 10
170.0
 20
156.0
 10
170.0
 20
155.0
 10
171.0
 20
154.0
 10
171.0
 20
153.0
 10
172.0
 20
152.0
 10
173.0
 20
151.0
 10
173.0
 20
150.0
 10
174.0
 20
149.0
 10
175.0
 20
148.0
 10
175.0
 20
147.0
 10
176.0
 20
146.0
 10
176.0
 20
145.0
 10
176.0
 20
144.0
 10
176.0
 20
143.0
 10
177.0
 20
142.0
 10
177.0
 20
141.0
 10
177.0
 20
140.0
 10
178.0
 20
139.0
 10
178.0
 20
138.0
 10
178.0
 20
137.0
 10
178.0
 20
136.0
 10
179.0
 20
135.0
 10
179.0
 20
134.0
 10
179.0
 20
133.0
 10
180.0
 20
132.0
 10
180.0
 20
131.0
 10
180.0
 20
130.0
 10
180.0
 20
129.0
 10
180.0
 20
128.0
 10
180.0
 20
127.0
 10
180.0
 20
126.0
 10
180.0
 20
125.0
 10
180.0
 20
124.0
 10
180.0
 20
123.0
 10
180.0
 20
122.0
 10
180.0
 20
121.0
 10
180.0
 20
120.0
 10
180.0
 20
119.0
 10
180.0
 20
118.0
 10
180.0
 20
117.0
 10
179.0
 20
116.0
 10
180.0
 20
115.0
 10
180.0
 20
114.0
 10
180.0
 20
113.0
 10
179.0
 20
112.0
 10
179.0
 20
111.0
 10
179.0
 20
110.0
 10
178.0
 20
109.0
 10
177.0
 20
110.0
 10
176.0
 20
111.0
 10
175.0
 20
110.0
 10
175.0
 20
109.0
 10
176.0
 20
108.0
 10
178.0
 20
108.0
  0
LWPOLYLINE
  5
4F
  8
P
 62
0
370
-1
  6
CONTINUOUS
100
AcDbEntity
100
AcDbPolyline
 90
5
 70
0
 10
102.0
 20
184.0
 10
98.0
 20
181.0
 10
97.0
 20
180.0
 10
96.0
 20
179.0
 10
92.0
 20
176.0
  0
LWPOLYLINE
  5
50
  8
P
 62
0
370
-1
  6
CONTINUOUS
100
AcDbEntity
100
AcDbPolyline
 90
9
 70
0
 10
-107.0
 20
179.0
 10
-107.0
 20
175.0
 10
-108.0
 20
174.0
 10
-108.0
 20
173.0
 10
-108.0
 20
172.0
 10
-108.0
 20
171.0
 10
-109.0
 20
170.0
 10
-109.0
 20
169.0
 10
-110.0
 20
166.0
  0
LWPOLYLINE
  5
51
  8
P
 62
0
370
-1
  6
CONTINUOUS
100
AcDbEntity
100
AcDbPolyline
 90
9
 70
0
 10
-102.0
 20
175.0
 10
-102.0
 20
171.0
 10
-102.0
 20
170.0
 10
-103.0
 20
169.0
 10
-103.0
 20
168.0
 10
-103.0
 20
167.0
 10
-104.0
 20
166.0
 10
-104.0
 20
165.0
 10
-106.0
 20
162.0
  0
LWPOLYLINE
  5
52
  8
P
 62
0
370
-1
  6
CONTINUOUS
100
AcDbEntity
100
AcDbPolyline
 90
25
 70
0
 10
81.0
 20
169.0
 10
79.0
 20
165.0
 10
79.0
 20
164.0
 10
79.0
 20
163.0
 10
79.0
 20
162.0
 10
79.0
 20
161.0
 10
79.0
 20
160.0
 10
79.0
 20
159.0
 10
79.0
 20
158.0
 10
78.0
 20
157.0
 10
78.0
 20
156.0
 10
78.0
 20
155.0
 10
78.0
 20
154.0
 10
78.0
 20
153.0
 10
78.0
 20
152.0
 10
78.0
 20
151.0
 10
78.0
 20
150.0
 10
78.0
 20
149.0
 10
78.0
 20
148.0
 10
78.0
 20
147.0
 10
78.0
 20
146.0
 10
78.0
 20
145.0
 10
78.0
 20
144.0
 10
78.0
 20
143.0
 10
78.0
 20
141.0
  0
LWPOLYLINE
  5
53
  8
P
 62
0
370
-1
  6
CONTINUOUS
100
AcDbEntity
100
AcDbPolyline
 90
21
 70
0
 10
88.0
 20
169.0
 10
87.0
 20
165.0
 10
86.0
 20
164.0
 10
86.0
 20
163.0
 10
85.0
 20
162.0
 10
85.0
 20
161.0
 10
85.0
 20
160.0
 10
85.0
 20
159.0
 10
84.0
 20
158.0
 10
84.0
 20
157.0
 10
84.0
 20
156.0
 10
84.0
 20
155.0
 10
84.0
 20
154.0
 10
84.0
 20
153.0
 10
84.0
 20
152.0
 10
84.0
 20
151.0
 10
84.0
 20
150.0
 10
84.0
 20
149.0
 10
84.0
 20
148.0
 10
84.0
 20
147.0
 10
85.0
 20
142.0
  0
LWPOLYLINE
  5
54
  8
P
 62
0
370
-1
  6
CONTINUOUS
100
AcDbEntity
100
AcDbPolyline
 90
13
 70
0
 10
-109.0
 20
155.0
 10
-113.0
 20
151.0
 10
-114.0
 20
151.0
 10
-115.0
 20
150.0
 10
-116.0
 20
150.0
 10
-117.0
 20
149.0
 10
-118.0
 20
148.0
 10
-119.0
 20
147.0
 10
-120.0
 20
147.0
 10
-121.0
 20
148.0
 10
-122.0
 20
148.0
 10
-123.0
 20
149.0
 10
-125.0
 20
153.0
  0
LWPOLYLINE
  5
55
  8
P
 62
0
370
-1
  6
CONTINUOUS
100
AcDbEntity
100
AcDbPolyline
 90
149
 70
0
 10
-117.0
 20
146.0
 10
-113.0
 20
145.0
 10
-112.0
 20
144.0
 10
-111.0
 20
144.0
 10
-110.0
 20
144.0
 10
-109.0
 20
143.0
 10
-108.0
 20
143.0
 10
-107.0
 20
142.0
 10
-106.0
 20
142.0
 10
-105.0
 20
142.0
 10
-104.0
 20
141.0
 10
-103.0
 20
141.0
 10
-102.0
 20
141.0
 10
-101.0
 20
140.0
 10
-100.0
 20
140.0
 10
-99.0
 20
139.0
 10
-98.0
 20
139.0
 10
-97.0
 20
139.0
 10
-96.0
 20
138.0
 10
-95.0
 20
138.0
 10
-94.0
 20
137.0
 10
-93.0
 20
137.0
 10
-92.0
 20
137.0
 10
-91.0
 20
136.0
 10
-90.0
 20
136.0
 10
-89.0
 20
136.0
 10
-88.0
 20
135.0
 10
-87.0
 20
135.0
 10
-86.0
 20
134.0
 10
-85.0
 20
134.0
 10
-84.0
 20
134.0
 10
-83.0
 20
133.0
 10
-82.0
 20
133.0
 10
-81.0
 20
133.0
 10
-80.0
 20
132.0
 10
-79.0
 20
132.0
 10
-78.0
 20
131.0
 10
-77.0
 20
131.0
 10
-76.0
 20
131.0
 10
-75.0
 20
130.0
 10
-74.0
 20
130.0
 10
-73.0
 20
130.0
 10
-72.0
 20
129.0
 10
-71.0
 20
129.0
 10
-70.0
 20
128.0
 10
-69.0
 20
128.0
 10
-68.0
 20
128.0
 10
-67.0
 20
127.0
 10
-66.0
 20
127.0
 10
-65.0
 20
127.0
 10
-64.0
 20
126.0
 10
-63.0
 20
126.0
 10
-62.0
 20
125.0
 10
-61.0
 20
125.0
 10
-60.0
 20
125.0
 10
-59.0
 20
124.0
 10
-58.0
 20
124.0
 10
-57.0
 20
123.0
 10
-56.0
 20
123.0
 10
-55.0
 20
123.0
 10
-54.0
 20
122.0
 10
-53.0
 20
122.0
 10
-52.0
 20
122.0
 10
-51.0
 20
121.0
 10
-50.0
 20
121.0
 10
-49.0
 20
120.0
 10
-48.0
 20
120.0
 10
-47.0
 20
120.0
 10
-46.0
 20
119.0
 10
-45.0
 20
119.0
 10
-44.0
 20
119.0
 10
-43.0
 20
118.0
 10
-42.0
 20
118.0
 10
-41.0
 20
117.0
 10
-40.0
 20
117.0
 10
-39.0
 20
117.0
 10
-38.0
 20
116.0
 10
-37.0
 20
116.0
 10
-36.0
 20
116.0
 10
-35.0
 20
115.0
 10
-34.0
 20
115.0
 10
-33.0
 20
114.0
 10
-32.0
 20
114.0
 10
-31.0
 20
114.0
 10
-30.0
 20
113.0
 10
-29.0
 20
113.0
 10
-28.0
 20
113.0
 10
-27.0
 20
112.0
 10
-26.0
 20
112.0
 10
-25.0
 20
111.0
 10
-24.0
 20
111.0
 10
-23.0
 20
111.0
 10
-22.0
 20
110.0
 10
-21.0
 20
110.0
 10
-20.0
 20
109.0
 10
-19.0
 20
109.0
 10
-18.0
 20
109.0
 10
-17.0
 20
108.0
 10
-16.0
 20
108.0
 10
-15.0
 20
108.0
 10
-14.0
 20
107.0
 10
-13.0
 20
107.0
 10
-12.0
 20
106.0
 10
-11.0
 20
106.0
 10
-10.0
 20
106.0
 10
-9.0
 20
105.0
 10
-8.0
 20
105.0
 10
-7.0
 20
105.0
 10
-6.0
 20
104.0
 10
-5.0
 20
103.0
 10
-4.0
 20
102.0
 10
-3.0
 20
103.0
 10
-2.0
 20
103.0
 10
-1.0
 20
103.0
 10
0.0
 20
104.0
 10
1.0
 20
105.0
 10
2.0
 20
106.0
 10
3.0
 20
107.0
 10
4.0
 20
107.0
 10
5.0
 20
108.0
 10
6.0
 20
109.0
 10
7.0
 20
110.0
 10
8.0
 20
111.0
 10
9.0
 20
112.0
 10
10.0
 20
112.0
 10
11.0
 20
113.0
 10
12.0
 20
114.0
 10
13.0
 20
115.0
 10
14.0
 20
116.0
 10
15.0
 20
117.0
 10
16.0
 20
117.0
 10
17.0
 20
118.0
 10
18.0
 20
119.0
 10
19.0
 20
120.0
 10
20.0
 20
121.0
 10
21.0
 20
122.0
 10
22.0
 20
123.0
 10
23.0
 20
123.0
 10
24.0
 20
124.0
 10
25.0
 20
125.0
 10
26.0
 20
126.0
 10
27.0
 20
127.0
 10
28.0
 20
128.0
 10
29.0
 20
128.0
 10
30.0
 20
129.0
 10
31.0
 20
130.0
 10
32.0
 20
131.0
 10
33.0
 20
132.0
 10
37.0
 20
136.0
  0
LWPOLYLINE
  5
56
  8
P
 62
0
370
-1
  6
CONTINUOUS
100
AcDbEntity
100
AcDbPolyline
 90
5
 70
0
 10
42.0
 20
138.0
 10
45.0
 20
134.0
 10
45.0
 20
133.0
 10
45.0
 20
132.0
 10
45.0
 20
127.0
  0
LWPOLYLINE
  5
57
  8
P
 62
0
370
-1
  6
CONTINUOUS
100
AcDbEntity
100
AcDbPolyline
 90
9
 70
0
 10
86.0
 20
134.0
 10
88.0
 20
130.0
 10
89.0
 20
129.0
 10
89.0
 20
128.0
 10
90.0
 20
127.0
 10
90.0
 20
126.0
 10
91.0
 20
125.0
 10
91.0
 20
124.0
 10
92.0
 20
122.0
  0
LWPOLYLINE
  5
58
  8
P
 62
0
370
-1
  6
CONTINUOUS
100
AcDbEntity
100
AcDbPolyline
 90
9
 70
0
 10
80.0
 20
133.0
 10
82.0
 20
129.0
 10
82.0
 20
128.0
 10
82.0
 20
127.0
 10
83.0
 20
126.0
 10
83.0
 20
125.0
 10
84.0
 20
124.0
 10
84.0
 20
123.0
 10
85.0
 20
120.0
  0
LWPOLYLINE
  5
59
  8
P
 62
0
370
-1
  6
CONTINUOUS
100
AcDbEntity
100
AcDbPolyline
 90
5
 70
0
 10
28.0
 20
124.0
 10
27.0
 20
126.0
 10
27.0
 20
127.0
 10
28.0
 20
126.0
 10
30.0
 20
127.0
  0
LWPOLYLINE
  5
5A
  8
P
 62
0
370
-1
  6
CONTINUOUS
100
AcDbEntity
100
AcDbPolyline
 90
17
 70
0
 10
24.0
 20
118.0
 10
23.0
 20
114.0
 10
22.0
 20
113.0
 10
22.0
 20
112.0
 10
21.0
 20
111.0
 10
21.0
 20
110.0
 10
21.0
 20
109.0
 10
20.0
 20
108.0
 10
20.0
 20
107.0
 10
20.0
 20
106.0
 10
20.0
 20
105.0
 10
20.0
 20
104.0
 10
20.0
 20
103.0
 10
20.0
 20
102.0
 10
20.0
 20
101.0
 10
20.0
 20
100.0
 10
22.0
 20
96.0
  0
LWPOLYLINE
  5
5B
  8
P
 62
0
370
-1
  6
CONTINUOUS
100
AcDbEntity
100
AcDbPolyline
 90
9
 70
0
 10
44.0
 20
118.0
 10
43.0
 20
114.0
 10
43.0
 20
113.0
 10
43.0
 20
112.0
 10
43.0
 20
111.0
 10
42.0
 20
110.0
 10
42.0
 20
109.0
 10
42.0
 20
108.0
 10
41.0
 20
106.0
  0
LWPOLYLINE
  5
5C
  8
P
 62
0
370
-1
  6
CONTINUOUS
100
AcDbEntity
100
AcDbPolyline
 90
5
 70
0
 10
176.0
 20
111.0
 10
176.0
 20
113.0
 10
176.0
 20
114.0
 10
176.0
 20
115.0
 10
179.0
 20
116.0
  0
LWPOLYLINE
  5
5D
  8
P
 62
0
370
-1
  6
CONTINUOUS
100
AcDbEntity
100
AcDbPolyline
 90
5
 70
0
 10
97.0
 20
115.0
 10
101.0
 20
111.0
 10
102.0
 20
110.0
 10
102.0
 20
109.0
 10
106.0
 20
105.0
  0
LWPOLYLINE
  5
5E
  8
P
 62
0
370
-1
  6
CONTINUOUS
100
AcDbEntity
100
AcDbPolyline
 90
5
 70
0
 10
90.0
 20
113.0
 10
93.0
 20
109.0
 10
94.0
 20
108.0
 10
95.0
 20
107.0
 10
98.0
 20
103.0
  0
LWPOLYLINE
  5
5F
  8
P
 62
0
370
-1
  6
CONTINUOUS
100
AcDbEntity
100
AcDbPolyline
 90
2
 70
0
 10
174.0
 20
108.0
 10
173.0
 20
105.0
  0
LWPOLYLINE
  5
60
  8
P
 62
0
370
-1
  6
CONTINUOUS
100
AcDbEntity
100
AcDbPolyline
 90
381
 70
0
 10
177.0
 20
107.0
 10
176.0
 20
103.0
 10
176.0
 20
102.0
 10
176.0
 20
101.0
 10
175.0
 20
100.0
 10
174.0
 20
99.0
 10
174.0
 20
98.0
 10
173.0
 20
97.0
 10
172.0
 20
96.0
 10
171.0
 20
95.0
 10
170.0
 20
94.0
 10
170.0
 20
93.0
 10
169.0
 20
92.0
 10
170.0
 20
91.0
 10
171.0
 20
90.0
 10
172.0
 20
90.0
 10
173.0
 20
89.0
 10
174.0
 20
89.0
 10
175.0
 20
88.0
 10
176.0
 20
88.0
 10
177.0
 20
88.0
 10
178.0
 20
87.0
 10
179.0
 20
87.0
 10
180.0
 20
87.0
 10
181.0
 20
86.0
 10
182.0
 20
86.0
 10
183.0
 20
85.0
 10
184.0
 20
85.0
 10
185.0
 20
85.0
 10
186.0
 20
84.0
 10
187.0
 20
84.0
 10
188.0
 20
84.0
 10
189.0
 20
83.0
 10
190.0
 20
83.0
 10
191.0
 20
83.0
 10
192.0
 20
82.0
 10
193.0
 20
82.0
 10
194.0
 20
81.0
 10
195.0
 20
81.0
 10
196.0
 20
81.0
 10
197.0
 20
80.0
 10
198.0
 20
80.0
 10
199.0
 20
80.0
 10
200.0
 20
79.0
 10
201.0
 20
79.0
 10
202.0
 20
78.0
 10
203.0
 20
78.0
 10
204.0
 20
78.0
 10
205.0
 20
77.0
 10
206.0
 20
77.0
 10
207.0
 20
77.0
 10
208.0
 20
76.0
 10
209.0
 20
76.0
 10
210.0
 20
75.0
 10
211.0
 20
75.0
 10
212.0
 20
75.0
 10
213.0
 20
74.0
 10
214.0
 20
74.0
 10
215.0
 20
74.0
 10
216.0
 20
73.0
 10
217.0
 20
73.0
 10
218.0
 20
73.0
 10
219.0
 20
72.0
 10
220.0
 20
72.0
 10
221.0
 20
71.0
 10
222.0
 20
71.0
 10
223.0
 20
71.0
 10
224.0
 20
70.0
 10
225.0
 20
70.0
 10
226.0
 20
70.0
 10
227.0
 20
69.0
 10
228.0
 20
69.0
 10
229.0
 20
68.0
 10
230.0
 20
68.0
 10
231.0
 20
68.0
 10
232.0
 20
67.0
 10
233.0
 20
67.0
 10
234.0
 20
67.0
 10
235.0
 20
66.0
 10
236.0
 20
66.0
 10
237.0
 20
65.0
 10
238.0
 20
65.0
 10
239.0
 20
65.0
 10
240.0
 20
64.0
 10
241.0
 20
64.0
 10
242.0
 20
64.0
 10
243.0
 20
63.0
 10
244.0
 20
63.0
 10
245.0
 20
63.0
 10
246.0
 20
62.0
 10
247.0
 20
62.0
 10
248.0
 20
61.0
 10
249.0
 20
61.0
 10
250.0
 20
61.0
 10
251.0
 20
60.0
 10
252.0
 20
60.0
 10
253.0
 20
60.0
 10
254.0
 20
59.0
 10
255.0
 20
59.0
 10
256.0
 20
58.0
 10
257.0
 20
58.0
 10
258.0
 20
58.0
 10
259.0
 20
57.0
 10
260.0
 20
57.0
 10
261.0
 20
57.0
 10
262.0
 20
56.0
 10
263.0
 20
56.0
 10
264.0
 20
55.0
 10
265.0
 20
55.0
 10
266.0
 20
55.0
 10
267.0
 20
54.0
 10
268.0
 20
54.0
 10
269.0
 20
54.0
 10
270.0
 20
53.0
 10
271.0
 20
53.0
 10
272.0
 20
53.0
 10
273.0
 20
52.0
 10
274.0
 20
52.0
 10
275.0
 20
51.0
 10
276.0
 20
51.0
 10
277.0
 20
51.0
 10
278.0
 20
50.0
 10
279.0
 20
50.0
 10
280.0
 20
50.0
 10
281.0
 20
49.0
 10
282.0
 20
49.0
 10
283.0
 20
48.0
 10
284.0
 20
48.0
 10
285.0
 20
48.0
 10
286.0
 20
47.0
 10
287.0
 20
47.0
 10
288.0
 20
47.0
 10
289.0
 20
46.0
 10
290.0
 20
46.0
 10
291.0
 20
45.0
 10
292.0
 20
45.0
 10
293.0
 20
45.0
 10
294.0
 20
44.0
 10
295.0
 20
44.0
 10
296.0
 20
44.0
 10
297.0
 20
43.0
 10
298.0
 20
43.0
 10
299.0
 20
42.0
 10
300.0
 20
41.0
 10
299.0
 20
40.0
 10
299.0
 20
39.0
 10
298.0
 20
38.0
 10
297.0
 20
37.0
 10
296.0
 20
36.0
 10
295.0
 20
35.0
 10
295.0
 20
34.0
 10
294.0
 20
33.0
 10
294.0
 20
32.0
 10
293.0
 20
31.0
 10
293.0
 20
30.0
 10
292.0
 20
29.0
 10
291.0
 20
28.0
 10
290.0
 20
27.0
 10
290.0
 20
26.0
 10
289.0
 20
25.0
 10
289.0
 20
24.0
 10
288.0
 20
23.0
 10
288.0
 20
22.0
 10
288.0
 20
21.0
 10
288.0
 20
20.0
 10
287.0
 20
19.0
 10
287.0
 20
18.0
 10
287.0
 20
17.0
 10
286.0
 20
16.0
 10
286.0
 20
15.0
 10
285.0
 20
14.0
 10
285.0
 20
13.0
 10
285.0
 20
12.0
 10
285.0
 20
11.0
 10
285.0
 20
10.0
 10
284.0
 20
9.0
 10
284.0
 20
8.0
 10
284.0
 20
7.0
 10
284.0
 20
6.0
 10
284.0
 20
5.0
 10
284.0
 20
4.0
 10
284.0
 20
3.0
 10
284.0
 20
2.0
 10
284.0
 20
1.0
 10
284.0
 20
0.0
 10
284.0
 20
-1.0
 10
284.0
 20
-2.0
 10
284.0
 20
-3.0
 10
284.0
 20
-4.0
 10
283.0
 20
-4.0
 10
282.0
 20
-4.0
 10
281.0
 20
-4.0
 10
280.0
 20
-4.0
 10
279.0
 20
-4.0
 10
278.0
 20
-3.0
 10
277.0
 20
-3.0
 10
276.0
 20
-3.0
 10
275.0
 20
-2.0
 10
274.0
 20
-2.0
 10
273.0
 20
-1.0
 10
272.0
 20
-1.0
 10
271.0
 20
-1.0
 10
270.0
 20
0.0
 10
269.0
 20
0.0
 10
268.0
 20
1.0
 10
267.0
 20
1.0
 10
266.0
 20
1.0
 10
265.0
 20
2.0
 10
264.0
 20
2.0
 10
263.0
 20
2.0
 10
262.0
 20
3.0
 10
261.0
 20
3.0
 10
260.0
 20
4.0
 10
259.0
 20
4.0
 10
258.0
 20
4.0
 10
257.0
 20
5.0
 10
256.0
 20
5.0
 10
255.0
 20
5.0
 10
254.0
 20
6.0
 10
253.0
 20
6.0
 10
252.0
 20
7.0
 10
251.0
 20
7.0
 10
250.0
 20
7.0
 10
249.0
 20
8.0
 10
248.0
 20
8.0
 10
247.0
 20
8.0
 10
246.0
 20
9.0
 10
245.0
 20
9.0
 10
244.0
 20
10.0
 10
243.0
 20
10.0
 10
242.0
 20
10.0
 10
241.0
 20
11.0
 10
240.0
 20
11.0
 10
239.0
 20
11.0
 10
238.0
 20
12.0
 10
237.0
 20
12.0
 10
236.0
 20
13.0
 10
235.0
 20
13.0
 10
234.0
 20
13.0
 10
233.0
 20
14.0
 10
232.0
 20
14.0
 10
231.0
 20
15.0
 10
230.0
 20
15.0
 10
229.0
 20
15.0
 10
228.0
 20
16.0
 10
227.0
 20
16.0
 10
226.0
 20
16.0
 10
225.0
 20
17.0
 10
224.0
 20
17.0
 10
223.0
 20
18.0
 10
222.0
 20
18.0
 10
221.0
 20
18.0
 10
220.0
 20
19.0
 10
219.0
 20
19.0
 10
218.0
 20
19.0
 10
217.0
 20
20.0
 10
216.0
 20
20.0
 10
215.0
 20
21.0
 10
214.0
 20
21.0
 10
213.0
 20
21.0
 10
212.0
 20
22.0
 10
211.0
 20
22.0
 10
210.0
 20
22.0
 10
209.0
 20
23.0
 10
208.0
 20
23.0
 10
207.0
 20
24.0
 10
206.0
 20
24.0
 10
205.0
 20
24.0
 10
204.0
 20
25.0
 10
203.0
 20
25.0
 10
202.0
 20
26.0
 10
201.0
 20
26.0
 10
200.0
 20
26.0
 10
199.0
 20
27.0
 10
198.0
 20
27.0
 10
197.0
 20
27.0
 10
196.0
 20
28.0
 10
195.0
 20
28.0
 10
194.0
 20
29.0
 10
193.0
 20
29.0
 10
192.0
 20
29.0
 10
191.0
 20
30.0
 10
190.0
 20
30.0
 10
189.0
 20
30.0
 10
188.0
 20
31.0
 10
187.0
 20
31.0
 10
186.0
 20
32.0
 10
185.0
 20
32.0
 10
184.0
 20
32.0
 10
183.0
 20
33.0
 10
182.0
 20
33.0
 10
181.0
 20
33.0
 10
180.0
 20
34.0
 10
179.0
 20
34.0
 10
178.0
 20
35.0
 10
177.0
 20
35.0
 10
176.0
 20
35.0
 10
175.0
 20
36.0
 10
174.0
 20
36.0
 10
173.0
 20
37.0
 10
172.0
 20
37.0
 10
171.0
 20
37.0
 10
170.0
 20
38.0
 10
169.0
 20
38.0
 10
168.0
 20
38.0
 10
167.0
 20
39.0
 10
166.0
 20
39.0
 10
165.0
 20
40.0
 10
164.0
 20
40.0
 10
163.0
 20
40.0
 10
162.0
 20
41.0
 10
161.0
 20
41.0
 10
160.0
 20
41.0
 10
159.0
 20
42.0
 10
158.0
 20
42.0
 10
157.0
 20
43.0
 10
156.0
 20
43.0
 10
155.0
 20
43.0
 10
154.0
 20
44.0
 10
153.0
 20
44.0
 10
152.0
 20
44.0
 10
151.0
 20
45.0
 10
150.0
 20
45.0
 10
149.0
 20
46.0
 10
148.0
 20
46.0
 10
147.0
 20
46.0
 10
146.0
 20
47.0
 10
145.0
 20
47.0
 10
144.0
 20
47.0
 10
143.0
 20
48.0
 10
142.0
 20
48.0
 10
141.0
 20
49.0
 10
140.0
 20
49.0
 10
139.0
 20
49.0
 10
138.0
 20
50.0
 10
137.0
 20
50.0
 10
136.0
 20
51.0
 10
135.0
 20
51.0
 10
134.0
 20
51.0
 10
133.0
 20
52.0
 10
132.0
 20
52.0
 10
131.0
 20
52.0
 10
130.0
 20
53.0
 10
129.0
 20
53.0
 10
128.0
 20
54.0
 10
127.0
 20
55.0
 10
126.0
 20
54.0
 10
125.0
 20
55.0
 10
124.0
 20
56.0
 10
124.0
 20
57.0
 10
124.0
 20
58.0
 10
124.0
 20
59.0
 10
124.0
 20
60.0
 10
124.0
 20
61.0
 10
124.0
 20
62.0
 10
124.0
 20
63.0
 10
124.0
 20
64.0
 10
124.0
 20
65.0
 10
124.0
 20
66.0
 10
125.0
 20
67.0
 10
125.0
 20
68.0
 10
125.0
 20
69.0
 10
125.0
 20
70.0
 10
125.0
 20
71.0
 10
125.0
 20
72.0
 10
125.0
 20
73.0
 10
125.0
 20
74.0
 10
126.0
 20
75.0
 10
126.0
 20
76.0
 10
126.0
 20
77.0
 10
126.0
 20
78.0
 10
126.0
 20
79.0
 10
126.0
 20
80.0
 10
126.0
 20
81.0
 10
127.0
 20
82.0
 10
127.0
 20
83.0
 10
127.0
 20
84.0
 10
127.0
 20
85.0
 10
127.0
 20
86.0
 10
126.0
 20
87.0
 10
124.0
 20
87.0
  0
LWPOLYLINE
  5
61
  8
P
 62
0
370
-1
  6
CONTINUOUS
100
AcDbEntity
100
AcDbPolyline
 90
281
 70
0
 10
-5.0
 20
101.0
 10
-8.0
 20
97.0
 10
-9.0
 20
96.0
 10
-10.0
 20
96.0
 10
-11.0
 20
95.0
 10
-12.0
 20
94.0
 10
-13.0
 20
93.0
 10
-14.0
 20
92.0
 10
-15.0
 20
91.0
 10
-16.0
 20
91.0
 10
-17.0
 20
90.0
 10
-18.0
 20
89.0
 10
-19.0
 20
88.0
 10
-20.0
 20
87.0
 10
-21.0
 20
86.0
 10
-22.0
 20
85.0
 10
-23.0
 20
85.0
 10
-24.0
 20
84.0
 10
-25.0
 20
83.0
 10
-26.0
 20
82.0
 10
-27.0
 20
81.0
 10
-28.0
 20
80.0
 10
-29.0
 20
80.0
 10
-30.0
 20
79.0
 10
-31.0
 20
78.0
 10
-32.0
 20
77.0
 10
-33.0
 20
76.0
 10
-34.0
 20
75.0
 10
-35.0
 20
75.0
 10
-36.0
 20
74.0
 10
-37.0
 20
73.0
 10
-38.0
 20
72.0
 10
-39.0
 20
71.0
 10
-40.0
 20
70.0
 10
-41.0
 20
69.0
 10
-42.0
 20
69.0
 10
-43.0
 20
68.0
 10
-44.0
 20
67.0
 10
-45.0
 20
66.0
 10
-46.0
 20
65.0
 10
-47.0
 20
64.0
 10
-48.0
 20
64.0
 10
-49.0
 20
63.0
 10
-50.0
 20
62.0
 10
-51.0
 20
61.0
 10
-52.0
 20
60.0
 10
-53.0
 20
59.0
 10
-54.0
 20
59.0
 10
-55.0
 20
58.0
 10
-56.0
 20
57.0
 10
-57.0
 20
56.0
 10
-58.0
 20
55.0
 10
-59.0
 20
54.0
 10
-60.0
 20
53.0
 10
-61.0
 20
53.0
 10
-62.0
 20
52.0
 10
-63.0
 20
51.0
 10
-64.0
 20
50.0
 10
-65.0
 20
49.0
 10
-66.0
 20
48.0
 10
-67.0
 20
48.0
 10
-68.0
 20
47.0
 10
-69.0
 20
46.0
 10
-70.0
 20
45.0
 10
-71.0
 20
44.0
 10
-72.0
 20
43.0
 10
-73.0
 20
43.0
 10
-74.0
 20
42.0
 10
-75.0
 20
41.0
 10
-76.0
 20
40.0
 10
-77.0
 20
39.0
 10
-78.0
 20
38.0
 10
-79.0
 20
38.0
 10
-80.0
 20
37.0
 10
-81.0
 20
36.0
 10
-82.0
 20
35.0
 10
-83.0
 20
34.0
 10
-84.0
 20
33.0
 10
-85.0
 20
32.0
 10
-86.0
 20
32.0
 10
-87.0
 20
31.0
 10
-88.0
 20
30.0
 10
-89.0
 20
29.0
 10
-90.0
 20
28.0
 10
-91.0
 20
27.0
 10
-92.0
 20
27.0
 10
-93.0
 20
26.0
 10
-94.0
 20
25.0
 10
-95.0
 20
24.0
 10
-96.0
 20
23.0
 10
-97.0
 20
22.0
 10
-98.0
 20
22.0
 10
-99.0
 20
21.0
 10
-100.0
 20
20.0
 10
-101.0
 20
19.0
 10
-102.0
 20
18.0
 10
-103.0
 20
17.0
 10
-104.0
 20
16.0
 10
-105.0
 20
16.0
 10
-106.0
 20
15.0
 10
-107.0
 20
14.0
 10
-108.0
 20
13.0
 10
-109.0
 20
12.0
 10
-110.0
 20
11.0
 10
-111.0
 20
11.0
 10
-112.0
 20
10.0
 10
-113.0
 20
9.0
 10
-114.0
 20
8.0
 10
-115.0
 20
7.0
 10
-116.0
 20
6.0
 10
-117.0
 20
6.0
 10
-118.0
 20
5.0
 10
-119.0
 20
4.0
 10
-120.0
 20
3.0
 10
-121.0
 20
2.0
 10
-122.0
 20
1.0
 10
-123.0
 20
0.0
 10
-124.0
 20
0.0
 10
-125.0
 20
-1.0
 10
-126.0
 20
-2.0
 10
-127.0
 20
-3.0
 10
-128.0
 20
-4.0
 10
-129.0
 20
-5.0
 10
-130.0
 20
-5.0
 10
-131.0
 20
-6.0
 10
-132.0
 20
-7.0
 10
-133.0
 20
-8.0
 10
-134.0
 20
-9.0
 10
-135.0
 20
-10.0
 10
-136.0
 20
-10.0
 10
-137.0
 20
-11.0
 10
-138.0
 20
-12.0
 10
-139.0
 20
-13.0
 10
-140.0
 20
-14.0
 10
-141.0
 20
-15.0
 10
-142.0
 20
-16.0
 10
-143.0
 20
-16.0
 10
-144.0
 20
-17.0
 10
-145.0
 20
-18.0
 10
-146.0
 20
-19.0
 10
-147.0
 20
-20.0
 10
-148.0
 20
-21.0
 10
-149.0
 20
-21.0
 10
-150.0
 20
-22.0
 10
-151.0
 20
-23.0
 10
-152.0
 20
-24.0
 10
-153.0
 20
-25.0
 10
-154.0
 20
-26.0
 10
-155.0
 20
-26.0
 10
-156.0
 20
-27.0
 10
-157.0
 20
-28.0
 10
-158.0
 20
-29.0
 10
-159.0
 20
-30.0
 10
-160.0
 20
-31.0
 10
-161.0
 20
-32.0
 10
-162.0
 20
-32.0
 10
-163.0
 20
-33.0
 10
-164.0
 20
-34.0
 10
-165.0
 20
-35.0
 10
-166.0
 20
-36.0
 10
-167.0
 20
-37.0
 10
-168.0
 20
-37.0
 10
-169.0
 20
-38.0
 10
-170.0
 20
-39.0
 10
-171.0
 20
-40.0
 10
-172.0
 20
-41.0
 10
-173.0
 20
-42.0
 10
-174.0
 20
-42.0
 10
-175.0
 20
-43.0
 10
-176.0
 20
-44.0
 10
-177.0
 20
-45.0
 10
-178.0
 20
-46.0
 10
-179.0
 20
-47.0
 10
-180.0
 20
-47.0
 10
-181.0
 20
-48.0
 10
-182.0
 20
-49.0
 10
-183.0
 20
-50.0
 10
-184.0
 20
-51.0
 10
-185.0
 20
-52.0
 10
-186.0
 20
-53.0
 10
-187.0
 20
-53.0
 10
-188.0
 20
-54.0
 10
-189.0
 20
-55.0
 10
-190.0
 20
-56.0
 10
-191.0
 20
-57.0
 10
-192.0
 20
-58.0
 10
-193.0
 20
-58.0
 10
-194.0
 20
-59.0
 10
-195.0
 20
-60.0
 10
-196.0
 20
-61.0
 10
-197.0
 20
-62.0
 10
-198.0
 20
-63.0
 10
-199.0
 20
-63.0
 10
-200.0
 20
-64.0
 10
-201.0
 20
-65.0
 10
-202.0
 20
-66.0
 10
-203.0
 20
-67.0
 10
-204.0
 20
-68.0
 10
-205.0
 20
-69.0
 10
-206.0
 20
-69.0
 10
-207.0
 20
-70.0
 10
-208.0
 20
-71.0
 10
-209.0
 20
-72.0
 10
-210.0
 20
-73.0
 10
-211.0
 20
-74.0
 10
-212.0
 20
-74.0
 10
-213.0
 20
-75.0
 10
-214.0
 20
-76.0
 10
-215.0
 20
-77.0
 10
-216.0
 20
-78.0
 10
-217.0
 20
-79.0
 10
-216.0
 20
-80.0
 10
-215.0
 20
-81.0
 10
-214.0
 20
-82.0
 10
-213.0
 20
-83.0
 10
-212.0
 20
-83.0
 10
-211.0
 20
-83.0
 10
-210.0
 20
-83.0
 10
-209.0
 20
-83.0
 10
-208.0
 20
-83.0
 10
-207.0
 20
-83.0
 10
-206.0
 20
-83.0
 10
-205.0
 20
-83.0
 10
-204.0
 20
-83.0
 10
-203.0
 20
-83.0
 10
-202.0
 20
-83.0
 10
-201.0
 20
-84.0
 10
-200.0
 20
-84.0
 10
-199.0
 20
-84.0
 10
-198.0
 20
-84.0
 10
-197.0
 20
-84.0
 10
-196.0
 20
-84.0
 10
-195.0
 20
-84.0
 10
-194.0
 20
-84.0
 10
-193.0
 20
-85.0
 10
-192.0
 20
-85.0
 10
-191.0
 20
-85.0
 10
-190.0
 20
-86.0
 10
-189.0
 20
-86.0
 10
-188.0
 20
-86.0
 10
-187.0
 20
-86.0
 10
-186.0
 20
-87.0
 10
-185.0
 20
-87.0
 10
-184.0
 20
-88.0
 10
-183.0
 20
-89.0
 10
-182.0
 20
-89.0
 10
-181.0
 20
-90.0
 10
-180.0
 20
-90.0
 10
-179.0
 20
-91.0
 10
-178.0
 20
-91.0
 10
-177.0
 20
-92.0
 10
-176.0
 20
-93.0
 10
-175.0
 20
-93.0
 10
-174.0
 20
-94.0
 10
-173.0
 20
-94.0
 10
-172.0
 20
-95.0
 10
-171.0
 20
-96.0
 10
-170.0
 20
-97.0
 10
-169.0
 20
-97.0
 10
-168.0
 20
-98.0
 10
-167.0
 20
-99.0
 10
-166.0
 20
-100.0
 10
-167.0
 20
-101.0
 10
-167.0
 20
-102.0
 10
-167.0
 20
-103.0
 10
-167.0
 20
-104.0
 10
-167.0
 20
-105.0
 10
-168.0
 20
-106.0
 10
-168.0
 20
-107.0
 10
-167.0
 20
-108.0
 10
-166.0
 20
-109.0
 10
-165.0
 20
-110.0
 10
-164.0
 20
-111.0
 10
-163.0
 20
-112.0
 10
-162.0
 20
-113.0
 10
-161.0
 20
-114.0
 10
-160.0
 20
-115.0
 10
-159.0
 20
-116.0
 10
-160.0
 20
-117.0
 10
-161.0
 20
-118.0
 10
-159.0
 20
-118.0
  0
LWPOLYLINE
  5
62
  8
P
 62
0
370
-1
  6
CONTINUOUS
100
AcDbEntity
100
AcDbPolyline
 90
41
 70
0
 10
138.0
 20
84.0
 10
134.0
 20
84.0
 10
133.0
 20
84.0
 10
132.0
 20
85.0
 10
131.0
 20
85.0
 10
130.0
 20
85.0
 10
129.0
 20
86.0
 10
128.0
 20
87.0
 10
128.0
 20
88.0
 10
128.0
 20
89.0
 10
129.0
 20
90.0
 10
129.0
 20
91.0
 10
129.0
 20
92.0
 10
130.0
 20
93.0
 10
131.0
 20
94.0
 10
131.0
 20
95.0
 10
132.0
 20
96.0
 10
132.0
 20
97.0
 10
133.0
 20
98.0
 10
134.0
 20
99.0
 10
135.0
 20
100.0
 10
136.0
 20
101.0
 10
137.0
 20
101.0
 10
138.0
 20
101.0
 10
139.0
 20
101.0
 10
140.0
 20
101.0
 10
141.0
 20
101.0
 10
142.0
 20
101.0
 10
143.0
 20
100.0
 10
144.0
 20
100.0
 10
145.0
 20
100.0
 10
146.0
 20
99.0
 10
147.0
 20
99.0
 10
148.0
 20
98.0
 10
147.0
 20
97.0
 10
147.0
 20
96.0
 10
147.0
 20
95.0
 10
148.0
 20
94.0
 10
148.0
 20
93.0
 10
148.0
 20
92.0
 10
148.0
 20
88.0
  0
LWPOLYLINE
  5
63
  8
P
 62
0
370
-1
  6
CONTINUOUS
100
AcDbEntity
100
AcDbPolyline
 90
9
 70
0
 10
113.0
 20
100.0
 10
117.0
 20
98.0
 10
118.0
 20
97.0
 10
119.0
 20
97.0
 10
120.0
 20
96.0
 10
121.0
 20
96.0
 10
122.0
 20
95.0
 10
123.0
 20
95.0
 10
125.0
 20
94.0
  0
LWPOLYLINE
  5
64
  8
P
 62
0
370
-1
  6
CONTINUOUS
100
AcDbEntity
100
AcDbPolyline
 90
9
 70
0
 10
167.0
 20
99.0
 10
164.0
 20
96.0
 10
164.0
 20
95.0
 10
163.0
 20
94.0
 10
162.0
 20
93.0
 10
161.0
 20
94.0
 10
160.0
 20
94.0
 10
159.0
 20
94.0
 10
155.0
 20
91.0
  0
LWPOLYLINE
  5
65
  8
P
 62
0
370
-1
  6
CONTINUOUS
100
AcDbEntity
100
AcDbPolyline
 90
5
 70
0
 10
38.0
 20
98.0
 10
35.0
 20
94.0
 10
34.0
 20
93.0
 10
33.0
 20
93.0
 10
28.0
 20
92.0
  0
LWPOLYLINE
  5
66
  8
P
 62
0
370
-1
  6
CONTINUOUS
100
AcDbEntity
100
AcDbPolyline
 90
5
 70
0
 10
148.0
 20
98.0
 10
152.0
 20
97.0
 10
153.0
 20
97.0
 10
154.0
 20
96.0
 10
158.0
 20
95.0
  0
LWPOLYLINE
  5
67
  8
P
 62
0
370
-1
  6
CONTINUOUS
100
AcDbEntity
100
AcDbPolyline
 90
9
 70
0
 10
105.0
 20
97.0
 10
109.0
 20
95.0
 10
110.0
 20
94.0
 10
111.0
 20
93.0
 10
112.0
 20
93.0
 10
113.0
 20
92.0
 10
114.0
 20
91.0
 10
115.0
 20
91.0
 10
117.0
 20
90.0
  0
LWPOLYLINE
  5
68
  8
P
 62
0
370
-1
  6
CONTINUOUS
100
AcDbEntity
100
AcDbPolyline
 90
5
 70
0
 10
163.0
 20
94.0
 10
165.0
 20
92.0
 10
166.0
 20
92.0
 10
167.0
 20
92.0
 10
169.0
 20
92.0
  0
LWPOLYLINE
  5
69
  8
P
 62
0
370
-1
  6
CONTINUOUS
100
AcDbEntity
100
AcDbPolyline
 90
9
 70
0
 10
133.0
 20
91.0
 10
137.0
 20
90.0
 10
138.0
 20
90.0
 10
139.0
 20
90.0
 10
140.0
 20
90.0
 10
141.0
 20
90.0
 10
142.0
 20
90.0
 10
143.0
 20
90.0
 10
147.0
 20
90.0
  0
LWPOLYLINE
  5
6A
  8
P
 62
0
370
-1
  6
CONTINUOUS
100
AcDbEntity
100
AcDbPolyline
 90
9
 70
0
 10
146.0
 20
84.0
 10
150.0
 20
84.0
 10
151.0
 20
85.0
 10
152.0
 20
85.0
 10
153.0
 20
85.0
 10
154.0
 20
85.0
 10
155.0
 20
85.0
 10
156.0
 20
86.0
 10
159.0
 20
87.0
  0
LWPOLYLINE
  5
6B
  8
P
 62
0
370
-1
  6
CONTINUOUS
100
AcDbEntity
100
AcDbPolyline
 90
9
 70
0
 10
146.0
 20
81.0
 10
144.0
 20
77.0
 10
144.0
 20
76.0
 10
144.0
 20
75.0
 10
143.0
 20
74.0
 10
142.0
 20
73.0
 10
142.0
 20
72.0
 10
141.0
 20
71.0
 10
139.0
 20
69.0
  0
LWPOLYLINE
  5
6C
  8
P
 62
0
370
-1
  6
CONTINUOUS
100
AcDbEntity
100
AcDbPolyline
 90
7
 70
0
 10
134.0
 20
63.0
 10
132.0
 20
60.0
 10
131.0
 20
59.0
 10
130.0
 20
59.0
 10
129.0
 20
58.0
 10
129.0
 20
57.0
 10
127.0
 20
55.0
  0
LWPOLYLINE
  5
6D
  8
P
 62
0
370
-1
  6
CONTINUOUS
100
AcDbEntity
100
AcDbPolyline
 90
333
 70
0
 10
124.0
 20
53.0
 10
121.0
 20
49.0
 10
120.0
 20
48.0
 10
119.0
 20
47.0
 10
118.0
 20
46.0
 10
117.0
 20
45.0
 10
116.0
 20
44.0
 10
115.0
 20
43.0
 10
114.0
 20
43.0
 10
113.0
 20
42.0
 10
112.0
 20
41.0
 10
111.0
 20
40.0
 10
110.0
 20
39.0
 10
109.0
 20
38.0
 10
108.0
 20
37.0
 10
107.0
 20
36.0
 10
106.0
 20
35.0
 10
105.0
 20
34.0
 10
104.0
 20
33.0
 10
103.0
 20
32.0
 10
102.0
 20
31.0
 10
101.0
 20
30.0
 10
100.0
 20
30.0
 10
99.0
 20
29.0
 10
98.0
 20
28.0
 10
97.0
 20
27.0
 10
96.0
 20
26.0
 10
95.0
 20
25.0
 10
94.0
 20
24.0
 10
93.0
 20
23.0
 10
92.0
 20
22.0
 10
91.0
 20
21.0
 10
90.0
 20
20.0
 10
89.0
 20
19.0
 10
88.0
 20
18.0
 10
87.0
 20
18.0
 10
86.0
 20
17.0
 10
85.0
 20
16.0
 10
84.0
 20
15.0
 10
83.0
 20
14.0
 10
82.0
 20
13.0
 10
81.0
 20
12.0
 10
80.0
 20
11.0
 10
79.0
 20
10.0
 10
78.0
 20
9.0
 10
77.0
 20
8.0
 10
76.0
 20
7.0
 10
75.0
 20
6.0
 10
74.0
 20
6.0
 10
73.0
 20
5.0
 10
72.0
 20
4.0
 10
71.0
 20
3.0
 10
70.0
 20
2.0
 10
69.0
 20
1.0
 10
68.0
 20
0.0
 10
67.0
 20
-1.0
 10
66.0
 20
-2.0
 10
65.0
 20
-3.0
 10
64.0
 20
-4.0
 10
63.0
 20
-5.0
 10
62.0
 20
-6.0
 10
61.0
 20
-7.0
 10
60.0
 20
-7.0
 10
59.0
 20
-8.0
 10
58.0
 20
-9.0
 10
57.0
 20
-10.0
 10
56.0
 20
-11.0
 10
55.0
 20
-12.0
 10
54.0
 20
-13.0
 10
53.0
 20
-14.0
 10
52.0
 20
-15.0
 10
51.0
 20
-16.0
 10
50.0
 20
-17.0
 10
49.0
 20
-18.0
 10
48.0
 20
-19.0
 10
47.0
 20
-19.0
 10
46.0
 20
-20.0
 10
45.0
 20
-21.0
 10
44.0
 20
-22.0
 10
43.0
 20
-23.0
 10
42.0
 20
-24.0
 10
41.0
 20
-25.0
 10
40.0
 20
-26.0
 10
39.0
 20
-27.0
 10
38.0
 20
-28.0
 10
37.0
 20
-29.0
 10
36.0
 20
-30.0
 10
35.0
 20
-31.0
 10
34.0
 20
-31.0
 10
33.0
 20
-32.0
 10
32.0
 20
-33.0
 10
31.0
 20
-34.0
 10
30.0
 20
-35.0
 10
29.0
 20
-36.0
 10
28.0
 20
-37.0
 10
27.0
 20
-38.0
 10
26.0
 20
-39.0
 10
25.0
 20
-40.0
 10
24.0
 20
-41.0
 10
23.0
 20
-42.0
 10
22.0
 20
-43.0
 10
21.0
 20
-44.0
 10
20.0
 20
-44.0
 10
19.0
 20
-45.0
 10
18.0
 20
-46.0
 10
17.0
 20
-47.0
 10
16.0
 20
-48.0
 10
15.0
 20
-49.0
 10
14.0
 20
-50.0
 10
13.0
 20
-51.0
 10
12.0
 20
-52.0
 10
11.0
 20
-53.0
 10
10.0
 20
-54.0
 10
9.0
 20
-55.0
 10
8.0
 20
-56.0
 10
7.0
 20
-56.0
 10
6.0
 20
-57.0
 10
5.0
 20
-58.0
 10
4.0
 20
-59.0
 10
3.0
 20
-60.0
 10
2.0
 20
-61.0
 10
1.0
 20
-62.0
 10
0.0
 20
-63.0
 10
-1.0
 20
-64.0
 10
-2.0
 20
-65.0
 10
-3.0
 20
-66.0
 10
-4.0
 20
-67.0
 10
-5.0
 20
-68.0
 10
-6.0
 20
-68.0
 10
-7.0
 20
-69.0
 10
-8.0
 20
-70.0
 10
-9.0
 20
-71.0
 10
-10.0
 20
-72.0
 10
-11.0
 20
-73.0
 10
-12.0
 20
-74.0
 10
-13.0
 20
-75.0
 10
-14.0
 20
-76.0
 10
-15.0
 20
-77.0
 10
-16.0
 20
-78.0
 10
-17.0
 20
-79.0
 10
-18.0
 20
-80.0
 10
-19.0
 20
-81.0
 10
-20.0
 20
-81.0
 10
-21.0
 20
-82.0
 10
-22.0
 20
-83.0
 10
-23.0
 20
-84.0
 10
-24.0
 20
-85.0
 10
-25.0
 20
-86.0
 10
-26.0
 20
-87.0
 10
-27.0
 20
-88.0
 10
-28.0
 20
-89.0
 10
-29.0
 20
-90.0
 10
-30.0
 20
-91.0
 10
-31.0
 20
-92.0
 10
-32.0
 20
-93.0
 10
-33.0
 20
-93.0
 10
-34.0
 20
-94.0
 10
-35.0
 20
-95.0
 10
-36.0
 20
-96.0
 10
-37.0
 20
-97.0
 10
-38.0
 20
-98.0
 10
-39.0
 20
-99.0
 10
-40.0
 20
-100.0
 10
-41.0
 20
-101.0
 10
-42.0
 20
-102.0
 10
-43.0
 20
-103.0
 10
-44.0
 20
-104.0
 10
-45.0
 20
-105.0
 10
-46.0
 20
-106.0
 10
-47.0
 20
-106.0
 10
-48.0
 20
-107.0
 10
-49.0
 20
-108.0
 10
-50.0
 20
-109.0
 10
-51.0
 20
-110.0
 10
-52.0
 20
-111.0
 10
-53.0
 20
-112.0
 10
-54.0
 20
-113.0
 10
-55.0
 20
-114.0
 10
-56.0
 20
-115.0
 10
-57.0
 20
-116.0
 10
-58.0
 20
-117.0
 10
-59.0
 20
-118.0
 10
-60.0
 20
-118.0
 10
-61.0
 20
-119.0
 10
-62.0
 20
-120.0
 10
-63.0
 20
-121.0
 10
-64.0
 20
-122.0
 10
-65.0
 20
-123.0
 10
-66.0
 20
-124.0
 10
-67.0
 20
-125.0
 10
-68.0
 20
-126.0
 10
-69.0
 20
-127.0
 10
-70.0
 20
-128.0
 10
-71.0
 20
-129.0
 10
-72.0
 20
-130.0
 10
-73.0
 20
-130.0
 10
-74.0
 20
-131.0
 10
-75.0
 20
-132.0
 10
-76.0
 20
-133.0
 10
-77.0
 20
-134.0
 10
-78.0
 20
-135.0
 10
-79.0
 20
-136.0
 10
-80.0
 20
-137.0
 10
-81.0
 20
-138.0
 10
-82.0
 20
-139.0
 10
-83.0
 20
-140.0
 10
-84.0
 20
-141.0
 10
-85.0
 20
-142.0
 10
-86.0
 20
-143.0
 10
-87.0
 20
-143.0
 10
-88.0
 20
-144.0
 10
-89.0
 20
-145.0
 10
-90.0
 20
-146.0
 10
-91.0
 20
-147.0
 10
-92.0
 20
-148.0
 10
-93.0
 20
-149.0
 10
-94.0
 20
-150.0
 10
-95.0
 20
-151.0
 10
-96.0
 20
-152.0
 10
-97.0
 20
-153.0
 10
-98.0
 20
-154.0
 10
-99.0
 20
-155.0
 10
-100.0
 20
-155.0
 10
-101.0
 20
-156.0
 10
-102.0
 20
-157.0
 10
-103.0
 20
-158.0
 10
-104.0
 20
-159.0
 10
-105.0
 20
-160.0
 10
-106.0
 20
-161.0
 10
-107.0
 20
-162.0
 10
-108.0
 20
-163.0
 10
-109.0
 20
-164.0
 10
-110.0
 20
-165.0
 10
-111.0
 20
-166.0
 10
-112.0
 20
-167.0
 10
-113.0
 20
-167.0
 10
-114.0
 20
-168.0
 10
-115.0
 20
-169.0
 10
-116.0
 20
-170.0
 10
-117.0
 20
-171.0
 10
-118.0
 20
-172.0
 10
-119.0
 20
-173.0
 10
-120.0
 20
-174.0
 10
-121.0
 20
-175.0
 10
-122.0
 20
-176.0
 10
-123.0
 20
-177.0
 10
-124.0
 20
-178.0
 10
-125.0
 20
-179.0
 10
-126.0
 20
-180.0
 10
-127.0
 20
-180.0
 10
-128.0
 20
-181.0
 10
-129.0
 20
-181.0
 10
-130.0
 20
-181.0
 10
-131.0
 20
-181.0
 10
-131.0
 20
-180.0
 10
-131.0
 20
-179.0
 10
-131.0
 20
-178.0
 10
-131.0
 20
-177.0
 10
-131.0
 20
-176.0
 10
-130.0
 20
-175.0
 10
-130.0
 20
-174.0
 10
-130.0
 20
-173.0
 10
-130.0
 20
-172.0
 10
-130.0
 20
-171.0
 10
-130.0
 20
-170.0
 10
-130.0
 20
-169.0
 10
-129.0
 20
-168.0
 10
-129.0
 20
-167.0
 10
-129.0
 20
-166.0
 10
-129.0
 20
-165.0
 10
-129.0
 20
-164.0
 10
-129.0
 20
-163.0
 10
-129.0
 20
-162.0
 10
-129.0
 20
-161.0
 10
-129.0
 20
-160.0
 10
-129.0
 20
-159.0
 10
-129.0
 20
-158.0
 10
-130.0
 20
-157.0
 10
-130.0
 20
-156.0
 10
-130.0
 20
-155.0
 10
-130.0
 20
-154.0
 10
-131.0
 20
-153.0
 10
-131.0
 20
-152.0
 10
-131.0
 20
-151.0
 10
-131.0
 20
-150.0
 10
-132.0
 20
-149.0
 10
-132.0
 20
-148.0
 10
-132.0
 20
-147.0
 10
-133.0
 20
-146.0
 10
-133.0
 20
-145.0
 10
-133.0
 20
-144.0
 10
-133.0
 20
-143.0
 10
-134.0
 20
-142.0
 10
-134.0
 20
-141.0
 10
-135.0
 20
-140.0
 10
-135.0
 20
-139.0
 10
-136.0
 20
-138.0
 10
-136.0
 20
-137.0
 10
-137.0
 20
-136.0
 10
-137.0
 20
-135.0
 10
-138.0
 20
-134.0
 10
-138.0
 20
-133.0
 10
-139.0
 20
-132.0
 10
-139.0
 20
-131.0
 10
-139.0
 20
-130.0
 10
-140.0
 20
-129.0
 10
-141.0
 20
-128.0
 10
-141.0
 20
-127.0
 10
-142.0
 20
-126.0
 10
-142.0
 20
-125.0
 10
-143.0
 20
-124.0
 10
-144.0
 20
-123.0
 10
-145.0
 20
-122.0
 10
-145.0
 20
-121.0
 10
-146.0
 20
-120.0
 10
-147.0
 20
-119.0
 10
-147.0
 20
-118.0
 10
-148.0
 20
-117.0
 10
-149.0
 20
-116.0
 10
-150.0
 20
-115.0
 10
-151.0
 20
-114.0
 10
-152.0
 20
-113.0
 10
-153.0
 20
-112.0
 10
-154.0
 20
-111.0
 10
-155.0
 20
-110.0
 10
-156.0
 20
-109.0
 10
-157.0
 20
-108.0
 10
-158.0
 20
-107.0
 10
-159.0
 20
-106.0
 10
-160.0
 20
-105.0
 10
-161.0
 20
-104.0
 10
-162.0
 20
-103.0
 10
-165.0
 20
-100.0
  0
LWPOLYLINE
  5
6E
  8
P
 62
0
370
-1
  6
CONTINUOUS
100
AcDbEntity
100
AcDbPolyline
 90
53
 70
0
 10
300.0
 20
41.0
 10
304.0
 20
40.0
 10
305.0
 20
39.0
 10
306.0
 20
38.0
 10
307.0
 20
37.0
 10
307.0
 20
36.0
 10
307.0
 20
35.0
 10
306.0
 20
35.0
 10
305.0
 20
34.0
 10
304.0
 20
34.0
 10
303.0
 20
33.0
 10
302.0
 20
32.0
 10
301.0
 20
31.0
 10
300.0
 20
30.0
 10
300.0
 20
29.0
 10
299.0
 20
28.0
 10
298.0
 20
27.0
 10
298.0
 20
26.0
 10
297.0
 20
25.0
 10
297.0
 20
24.0
 10
296.0
 20
23.0
 10
296.0
 20
22.0
 10
295.0
 20
21.0
 10
295.0
 20
20.0
 10
294.0
 20
19.0
 10
294.0
 20
18.0
 10
293.0
 20
17.0
 10
293.0
 20
16.0
 10
292.0
 20
15.0
 10
292.0
 20
14.0
 10
292.0
 20
13.0
 10
291.0
 20
12.0
 10
291.0
 20
11.0
 10
291.0
 20
10.0
 10
291.0
 20
9.0
 10
291.0
 20
8.0
 10
291.0
 20
7.0
 10
291.0
 20
6.0
 10
291.0
 20
5.0
 10
290.0
 20
4.0
 10
290.0
 20
3.0
 10
290.0
 20
2.0
 10
290.0
 20
1.0
 10
290.0
 20
0.0
 10
291.0
 20
-1.0
 10
291.0
 20
-2.0
 10
292.0
 20
-3.0
 10
291.0
 20
-4.0
 10
290.0
 20
-5.0
 10
289.0
 20
-5.0
 10
288.0
 20
-6.0
 10
287.0
 20
-6.0
 10
284.0
 20
-4.0
  0
LWPOLYLINE
  5
6F
  8
P
 62
0
370
-1
  6
CONTINUOUS
100
AcDbEntity
100
AcDbPolyline
 90
21
 70
0
 10
308.0
 20
34.0
 10
308.0
 20
30.0
 10
308.0
 20
29.0
 10
307.0
 20
29.0
 10
306.0
 20
28.0
 10
305.0
 20
27.0
 10
305.0
 20
26.0
 10
305.0
 20
25.0
 10
305.0
 20
24.0
 10
305.0
 20
23.0
 10
306.0
 20
23.0
 10
307.0
 20
22.0
 10
308.0
 20
21.0
 10
307.0
 20
20.0
 10
307.0
 20
19.0
 10
307.0
 20
18.0
 10
306.0
 20
17.0
 10
305.0
 20
18.0
 10
304.0
 20
19.0
 10
303.0
 20
18.0
 10
306.0
 20
16.0
  0
LWPOLYLINE
  5
70
  8
P
 62
0
370
-1
  6
CONTINUOUS
100
AcDbEntity
100
AcDbPolyline
 90
2
 70
0
 10
309.0
 20
28.0
 10
308.0
 20
23.0
  0
LWPOLYLINE
  5
71
  8
P
 62
0
370
-1
  6
CONTINUOUS
100
AcDbEntity
100
AcDbPolyline
 90
2
 70
0
 10
304.0
 20
22.0
 10
304.0
 20
19.0
  0
LWPOLYLINE
  5
72
  8
P
 62
0
370
-1
  6
CONTINUOUS
100
AcDbEntity
100
AcDbPolyline
 90
2
 70
0
 10
302.0
 20
16.0
 10
302.0
 20
15.0
  0
LWPOLYLINE
  5
73
  8
P
 62
0
370
-1
  6
CONTINUOUS
100
AcDbEntity
100
AcDbPolyline
 90
17
 70
0
 10
305.0
 20
15.0
 10
304.0
 20
11.0
 10
304.0
 20
10.0
 10
303.0
 20
9.0
 10
303.0
 20
8.0
 10
302.0
 20
7.0
 10
302.0
 20
6.0
 10
301.0
 20
5.0
 10
301.0
 20
4.0
 10
300.0
 20
3.0
 10
299.0
 20
2.0
 10
298.0
 20
1.0
 10
297.0
 20
2.0
 10
296.0
 20
3.0
 10
296.0
 20
4.0
 10
297.0
 20
5.0
 10
299.0
 20
3.0
  0
LWPOLYLINE
  5
74
  8
P
 62
0
370
-1
  6
CONTINUOUS
100
AcDbEntity
100
AcDbPolyline
 90
2
 70
0
 10
298.0
 20
9.0
 10
297.0
 20
6.0
  0
LWPOLYLINE
  5
75
  8
P
 62
0
370
-1
  6
CONTINUOUS
100
AcDbEntity
100
AcDbPolyline
 90
2
 70
0
 10
296.0
 20
0.0
 10
292.0
 20
-3.0
  0
LWPOLYLINE
  5
76
  8
P
 62
0
370
-1
  6
CONTINUOUS
100
AcDbEntity
100
AcDbPolyline
 90
33
 70
0
 10
-167.0
 20
-86.0
 10
-167.0
 20
-82.0
 10
-167.0
 20
-81.0
 10
-167.0
 20
-80.0
 10
-166.0
 20
-79.0
 10
-166.0
 20
-78.0
 10
-166.0
 20
-77.0
 10
-166.0
 20
-76.0
 10
-166.0
 20
-75.0
 10
-166.0
 20
-74.0
 10
-165.0
 20
-73.0
 10
-164.0
 20
-74.0
 10
-163.0
 20
-74.0
 10
-162.0
 20
-74.0
 10
-161.0
 20
-75.0
 10
-160.0
 20
-75.0
 10
-159.0
 20
-76.0
 10
-158.0
 20
-76.0
 10
-157.0
 20
-76.0
 10
-156.0
 20
-77.0
 10
-155.0
 20
-77.0
 10
-154.0
 20
-77.0
 10
-153.0
 20
-78.0
 10
-152.0
 20
-78.0
 10
-151.0
 20
-79.0
 10
-150.0
 20
-79.0
 10
-149.0
 20
-80.0
 10
-148.0
 20
-80.0
 10
-147.0
 20
-81.0
 10
-146.0
 20
-81.0
 10
-145.0
 20
-82.0
 10
-144.0
 20
-82.0
 10
-142.0
 20
-83.0
  0
LWPOLYLINE
  5
77
  8
P
 62
0
370
-1
  6
CONTINUOUS
100
AcDbEntity
100
AcDbPolyline
 90
5
 70
0
 10
-177.0
 20
-81.0
 10
-173.0
 20
-78.0
 10
-172.0
 20
-77.0
 10
-171.0
 20
-77.0
 10
-166.0
 20
-74.0
  0
LWPOLYLINE
  5
78
  8
P
 62
0
370
-1
  6
CONTINUOUS
100
AcDbEntity
100
AcDbPolyline
 90
65
 70
0
 10
-193.0
 20
-96.0
 10
-193.0
 20
-93.0
 10
-194.0
 20
-92.0
 10
-195.0
 20
-92.0
 10
-196.0
 20
-92.0
 10
-197.0
 20
-92.0
 10
-198.0
 20
-91.0
 10
-199.0
 20
-91.0
 10
-200.0
 20
-91.0
 10
-201.0
 20
-90.0
 10
-202.0
 20
-90.0
 10
-203.0
 20
-90.0
 10
-204.0
 20
-90.0
 10
-205.0
 20
-90.0
 10
-206.0
 20
-90.0
 10
-207.0
 20
-90.0
 10
-208.0
 20
-90.0
 10
-209.0
 20
-90.0
 10
-210.0
 20
-90.0
 10
-211.0
 20
-90.0
 10
-212.0
 20
-90.0
 10
-213.0
 20
-90.0
 10
-214.0
 20
-90.0
 10
-215.0
 20
-91.0
 10
-216.0
 20
-91.0
 10
-217.0
 20
-91.0
 10
-218.0
 20
-91.0
 10
-219.0
 20
-91.0
 10
-220.0
 20
-91.0
 10
-221.0
 20
-92.0
 10
-222.0
 20
-92.0
 10
-223.0
 20
-92.0
 10
-224.0
 20
-93.0
 10
-225.0
 20
-93.0
 10
-226.0
 20
-94.0
 10
-227.0
 20
-94.0
 10
-228.0
 20
-95.0
 10
-229.0
 20
-96.0
 10
-230.0
 20
-96.0
 10
-231.0
 20
-97.0
 10
-232.0
 20
-98.0
 10
-233.0
 20
-98.0
 10
-234.0
 20
-98.0
 10
-235.0
 20
-99.0
 10
-236.0
 20
-98.0
 10
-236.0
 20
-97.0
 10
-235.0
 20
-96.0
 10
-235.0
 20
-95.0
 10
-235.0
 20
-94.0
 10
-234.0
 20
-93.0
 10
-233.0
 20
-92.0
 10
-232.0
 20
-91.0
 10
-231.0
 20
-90.0
 10
-230.0
 20
-90.0
 10
-229.0
 20
-89.0
 10
-228.0
 20
-88.0
 10
-227.0
 20
-87.0
 10
-226.0
 20
-86.0
 10
-225.0
 20
-86.0
 10
-224.0
 20
-85.0
 10
-223.0
 20
-84.0
 10
-222.0
 20
-84.0
 10
-221.0
 20
-83.0
 10
-220.0
 20
-82.0
 10
-217.0
 20
-79.0
  0
LWPOLYLINE
  5
79
  8
P
 62
0
370
-1
  6
CONTINUOUS
100
AcDbEntity
100
AcDbPolyline
 90
5
 70
0
 10
-220.0
 20
-82.0
 10
-218.0
 20
-84.0
 10
-217.0
 20
-84.0
 10
-216.0
 20
-84.0
 10
-214.0
 20
-82.0
  0
LWPOLYLINE
  5
7A
  8
P
 62
0
370
-1
  6
CONTINUOUS
100
AcDbEntity
100
AcDbPolyline
 90
13
 70
0
 10
-134.0
 20
-86.0
 10
-130.0
 20
-88.0
 10
-129.0
 20
-89.0
 10
-128.0
 20
-89.0
 10
-127.0
 20
-89.0
 10
-126.0
 20
-90.0
 10
-125.0
 20
-90.0
 10
-124.0
 20
-91.0
 10
-123.0
 20
-91.0
 10
-122.0
 20
-92.0
 10
-122.0
 20
-93.0
 10
-121.0
 20
-94.0
 10
-123.0
 20
-94.0
  0
LWPOLYLINE
  5
7B
  8
P
 62
0
370
-1
  6
CONTINUOUS
100
AcDbEntity
100
AcDbPolyline
 90
5
 70
0
 10
-184.0
 20
-88.0
 10
-186.0
 20
-90.0
 10
-187.0
 20
-91.0
 10
-188.0
 20
-92.0
 10
-190.0
 20
-94.0
  0
LWPOLYLINE
  5
7C
  8
P
 62
0
370
-1
  6
CONTINUOUS
100
AcDbEntity
100
AcDbPolyline
 90
2
 70
0
 10
-234.0
 20
-93.0
 10
-231.0
 20
-96.0
  0
LWPOLYLINE
  5
7D
  8
P
 62
0
370
-1
  6
CONTINUOUS
100
AcDbEntity
100
AcDbPolyline
 90
4
 70
0
 10
-131.0
 20
-100.0
 10
-128.0
 20
-98.0
 10
-127.0
 20
-97.0
 10
-123.0
 20
-94.0
  0
LWPOLYLINE
  5
7E
  8
P
 62
0
370
-1
  6
CONTINUOUS
100
AcDbEntity
100
AcDbPolyline
 90
17
 70
0
 10
-188.0
 20
-95.0
 10
-184.0
 20
-97.0
 10
-183.0
 20
-98.0
 10
-182.0
 20
-98.0
 10
-181.0
 20
-99.0
 10
-180.0
 20
-99.0
 10
-179.0
 20
-100.0
 10
-178.0
 20
-100.0
 10
-177.0
 20
-101.0
 10
-176.0
 20
-102.0
 10
-175.0
 20
-102.0
 10
-174.0
 20
-103.0
 10
-173.0
 20
-103.0
 10
-172.0
 20
-104.0
 10
-171.0
 20
-105.0
 10
-170.0
 20
-106.0
 10
-168.0
 20
-106.0
  0
LWPOLYLINE
  5
7F
  8
P
 62
0
370
-1
  6
CONTINUOUS
100
AcDbEntity
100
AcDbPolyline
 90
13
 70
0
 10
-122.0
 20
-95.0
 10
-122.0
 20
-99.0
 10
-122.0
 20
-100.0
 10
-122.0
 20
-101.0
 10
-122.0
 20
-102.0
 10
-122.0
 20
-103.0
 10
-122.0
 20
-104.0
 10
-122.0
 20
-105.0
 10
-122.0
 20
-106.0
 10
-122.0
 20
-107.0
 10
-122.0
 20
-108.0
 10
-122.0
 20
-109.0
 10
-122.0
 20
-112.0
  0
LWPOLYLINE
  5
80
  8
P
 62
0
370
-1
  6
CONTINUOUS
100
AcDbEntity
100
AcDbPolyline
 90
193
 70
0
 10
-235.0
 20
-99.0
 10
-238.0
 20
-103.0
 10
-238.0
 20
-104.0
 10
-239.0
 20
-105.0
 10
-239.0
 20
-106.0
 10
-239.0
 20
-107.0
 10
-240.0
 20
-108.0
 10
-240.0
 20
-109.0
 10
-240.0
 20
-110.0
 10
-241.0
 20
-111.0
 10
-241.0
 20
-112.0
 10
-241.0
 20
-113.0
 10
-241.0
 20
-114.0
 10
-242.0
 20
-115.0
 10
-242.0
 20
-116.0
 10
-242.0
 20
-117.0
 10
-242.0
 20
-118.0
 10
-242.0
 20
-119.0
 10
-242.0
 20
-120.0
 10
-242.0
 20
-121.0
 10
-242.0
 20
-122.0
 10
-242.0
 20
-123.0
 10
-241.0
 20
-124.0
 10
-241.0
 20
-125.0
 10
-241.0
 20
-126.0
 10
-241.0
 20
-127.0
 10
-241.0
 20
-128.0
 10
-241.0
 20
-129.0
 10
-241.0
 20
-130.0
 10
-240.0
 20
-131.0
 10
-240.0
 20
-132.0
 10
-240.0
 20
-133.0
 10
-240.0
 20
-134.0
 10
-240.0
 20
-135.0
 10
-240.0
 20
-136.0
 10
-240.0
 20
-137.0
 10
-239.0
 20
-138.0
 10
-239.0
 20
-139.0
 10
-238.0
 20
-140.0
 10
-238.0
 20
-141.0
 10
-238.0
 20
-142.0
 10
-237.0
 20
-143.0
 10
-237.0
 20
-144.0
 10
-236.0
 20
-145.0
 10
-236.0
 20
-146.0
 10
-236.0
 20
-147.0
 10
-235.0
 20
-148.0
 10
-235.0
 20
-149.0
 10
-234.0
 20
-150.0
 10
-234.0
 20
-151.0
 10
-234.0
 20
-152.0
 10
-233.0
 20
-153.0
 10
-233.0
 20
-154.0
 10
-232.0
 20
-155.0
 10
-232.0
 20
-156.0
 10
-232.0
 20
-157.0
 10
-231.0
 20
-158.0
 10
-231.0
 20
-159.0
 10
-230.0
 20
-160.0
 10
-229.0
 20
-161.0
 10
-229.0
 20
-162.0
 10
-228.0
 20
-163.0
 10
-227.0
 20
-164.0
 10
-226.0
 20
-165.0
 10
-226.0
 20
-166.0
 10
-225.0
 20
-167.0
 10
-224.0
 20
-168.0
 10
-223.0
 20
-169.0
 10
-222.0
 20
-170.0
 10
-221.0
 20
-171.0
 10
-221.0
 20
-172.0
 10
-220.0
 20
-173.0
 10
-219.0
 20
-174.0
 10
-218.0
 20
-175.0
 10
-217.0
 20
-176.0
 10
-216.0
 20
-177.0
 10
-215.0
 20
-177.0
 10
-214.0
 20
-178.0
 10
-213.0
 20
-179.0
 10
-212.0
 20
-180.0
 10
-211.0
 20
-181.0
 10
-210.0
 20
-182.0
 10
-209.0
 20
-182.0
 10
-208.0
 20
-183.0
 10
-207.0
 20
-184.0
 10
-206.0
 20
-185.0
 10
-205.0
 20
-186.0
 10
-204.0
 20
-187.0
 10
-203.0
 20
-187.0
 10
-202.0
 20
-188.0
 10
-201.0
 20
-188.0
 10
-200.0
 20
-189.0
 10
-199.0
 20
-190.0
 10
-198.0
 20
-190.0
 10
-197.0
 20
-191.0
 10
-196.0
 20
-191.0
 10
-195.0
 20
-192.0
 10
-194.0
 20
-192.0
 10
-193.0
 20
-193.0
 10
-192.0
 20
-194.0
 10
-191.0
 20
-194.0
 10
-190.0
 20
-195.0
 10
-189.0
 20
-196.0
 10
-188.0
 20
-196.0
 10
-187.0
 20
-196.0
 10
-186.0
 20
-196.0
 10
-185.0
 20
-197.0
 10
-184.0
 20
-197.0
 10
-183.0
 20
-197.0
 10
-182.0
 20
-197.0
 10
-181.0
 20
-198.0
 10
-180.0
 20
-198.0
 10
-179.0
 20
-198.0
 10
-178.0
 20
-198.0
 10
-177.0
 20
-198.0
 10
-176.0
 20
-198.0
 10
-175.0
 20
-199.0
 10
-174.0
 20
-199.0
 10
-173.0
 20
-200.0
 10
-172.0
 20
-200.0
 10
-171.0
 20
-200.0
 10
-170.0
 20
-200.0
 10
-169.0
 20
-200.0
 10
-168.0
 20
-200.0
 10
-167.0
 20
-200.0
 10
-166.0
 20
-200.0
 10
-165.0
 20
-200.0
 10
-164.0
 20
-200.0
 10
-163.0
 20
-200.0
 10
-162.0
 20
-200.0
 10
-161.0
 20
-200.0
 10
-160.0
 20
-200.0
 10
-159.0
 20
-200.0
 10
-158.0
 20
-199.0
 10
-157.0
 20
-199.0
 10
-156.0
 20
-199.0
 10
-155.0
 20
-198.0
 10
-154.0
 20
-198.0
 10
-153.0
 20
-197.0
 10
-152.0
 20
-197.0
 10
-151.0
 20
-196.0
 10
-150.0
 20
-195.0
 10
-150.0
 20
-194.0
 10
-149.0
 20
-193.0
 10
-148.0
 20
-193.0
 10
-147.0
 20
-194.0
 10
-146.0
 20
-193.0
 10
-145.0
 20
-192.0
 10
-146.0
 20
-191.0
 10
-146.0
 20
-190.0
 10
-145.0
 20
-189.0
 10
-144.0
 20
-188.0
 10
-144.0
 20
-187.0
 10
-143.0
 20
-186.0
 10
-142.0
 20
-185.0
 10
-141.0
 20
-184.0
 10
-141.0
 20
-183.0
 10
-141.0
 20
-182.0
 10
-140.0
 20
-181.0
 10
-140.0
 20
-180.0
 10
-140.0
 20
-179.0
 10
-139.0
 20
-178.0
 10
-139.0
 20
-177.0
 10
-139.0
 20
-176.0
 10
-138.0
 20
-175.0
 10
-138.0
 20
-174.0
 10
-138.0
 20
-173.0
 10
-137.0
 20
-172.0
 10
-137.0
 20
-171.0
 10
-137.0
 20
-170.0
 10
-137.0
 20
-169.0
 10
-137.0
 20
-168.0
 10
-137.0
 20
-167.0
 10
-137.0
 20
-166.0
 10
-137.0
 20
-165.0
 10
-137.0
 20
-164.0
 10
-137.0
 20
-163.0
 10
-137.0
 20
-162.0
 10
-137.0
 20
-161.0
 10
-137.0
 20
-160.0
 10
-137.0
 20
-159.0
 10
-138.0
 20
-158.0
 10
-138.0
 20
-157.0
 10
-138.0
 20
-156.0
 10
-139.0
 20
-155.0
 10
-139.0
 20
-154.0
 10
-139.0
 20
-153.0
 10
-140.0
 20
-152.0
 10
-141.0
 20
-152.0
 10
-142.0
 20
-152.0
 10
-143.0
 20
-153.0
 10
-144.0
 20
-154.0
 10
-149.0
 20
-158.0
  0
LWPOLYLINE
  5
81
  8
P
 62
0
370
-1
  6
CONTINUOUS
100
AcDbEntity
100
AcDbPolyline
 90
109
 70
0
 10
-200.0
 20
-102.0
 10
-204.0
 20
-105.0
 10
-205.0
 20
-106.0
 10
-206.0
 20
-107.0
 10
-207.0
 20
-108.0
 10
-208.0
 20
-109.0
 10
-209.0
 20
-109.0
 10
-210.0
 20
-110.0
 10
-211.0
 20
-111.0
 10
-211.0
 20
-112.0
 10
-211.0
 20
-113.0
 10
-211.0
 20
-114.0
 10
-210.0
 20
-115.0
 10
-209.0
 20
-115.0
 10
-208.0
 20
-115.0
 10
-207.0
 20
-115.0
 10
-206.0
 20
-116.0
 10
-205.0
 20
-116.0
 10
-204.0
 20
-117.0
 10
-203.0
 20
-117.0
 10
-202.0
 20
-118.0
 10
-201.0
 20
-118.0
 10
-200.0
 20
-119.0
 10
-199.0
 20
-119.0
 10
-198.0
 20
-119.0
 10
-197.0
 20
-120.0
 10
-196.0
 20
-120.0
 10
-195.0
 20
-121.0
 10
-194.0
 20
-121.0
 10
-193.0
 20
-122.0
 10
-192.0
 20
-122.0
 10
-191.0
 20
-122.0
 10
-190.0
 20
-123.0
 10
-189.0
 20
-123.0
 10
-188.0
 20
-124.0
 10
-187.0
 20
-124.0
 10
-186.0
 20
-125.0
 10
-185.0
 20
-125.0
 10
-184.0
 20
-125.0
 10
-183.0
 20
-126.0
 10
-182.0
 20
-127.0
 10
-181.0
 20
-128.0
 10
-182.0
 20
-129.0
 10
-182.0
 20
-130.0
 10
-183.0
 20
-131.0
 10
-184.0
 20
-132.0
 10
-185.0
 20
-133.0
 10
-186.0
 20
-133.0
 10
-187.0
 20
-134.0
 10
-188.0
 20
-135.0
 10
-189.0
 20
-136.0
 10
-190.0
 20
-137.0
 10
-191.0
 20
-138.0
 10
-192.0
 20
-139.0
 10
-193.0
 20
-139.0
 10
-194.0
 20
-140.0
 10
-195.0
 20
-141.0
 10
-196.0
 20
-142.0
 10
-197.0
 20
-143.0
 10
-198.0
 20
-144.0
 10
-199.0
 20
-144.0
 10
-200.0
 20
-145.0
 10
-201.0
 20
-146.0
 10
-202.0
 20
-147.0
 10
-203.0
 20
-148.0
 10
-204.0
 20
-149.0
 10
-205.0
 20
-150.0
 10
-206.0
 20
-150.0
 10
-207.0
 20
-151.0
 10
-208.0
 20
-152.0
 10
-209.0
 20
-153.0
 10
-210.0
 20
-153.0
 10
-211.0
 20
-154.0
 10
-212.0
 20
-153.0
 10
-212.0
 20
-152.0
 10
-212.0
 20
-151.0
 10
-212.0
 20
-150.0
 10
-212.0
 20
-149.0
 10
-212.0
 20
-148.0
 10
-212.0
 20
-147.0
 10
-212.0
 20
-146.0
 10
-212.0
 20
-145.0
 10
-212.0
 20
-144.0
 10
-212.0
 20
-143.0
 10
-212.0
 20
-142.0
 10
-212.0
 20
-141.0
 10
-212.0
 20
-140.0
 10
-212.0
 20
-139.0
 10
-212.0
 20
-138.0
 10
-212.0
 20
-137.0
 10
-212.0
 20
-136.0
 10
-212.0
 20
-135.0
 10
-212.0
 20
-134.0
 10
-212.0
 20
-133.0
 10
-212.0
 20
-132.0
 10
-212.0
 20
-131.0
 10
-212.0
 20
-130.0
 10
-212.0
 20
-129.0
 10
-212.0
 20
-128.0
 10
-212.0
 20
-127.0
 10
-212.0
 20
-126.0
 10
-212.0
 20
-125.0
 10
-212.0
 20
-124.0
 10
-212.0
 20
-123.0
 10
-212.0
 20
-122.0
 10
-212.0
 20
-121.0
 10
-212.0
 20
-120.0
 10
-212.0
 20
-119.0
 10
-212.0
 20
-115.0
  0
LWPOLYLINE
  5
82
  8
P
 62
0
370
-1
  6
CONTINUOUS
100
AcDbEntity
100
AcDbPolyline
 90
5
 70
0
 10
-138.0
 20
-106.0
 10
-142.0
 20
-110.0
 10
-143.0
 20
-111.0
 10
-144.0
 20
-111.0
 10
-149.0
 20
-116.0
  0
LWPOLYLINE
  5
83
  8
P
 62
0
370
-1
  6
CONTINUOUS
100
AcDbEntity
100
AcDbPolyline
 90
5
 70
0
 10
-167.0
 20
-111.0
 10
-167.0
 20
-115.0
 10
-167.0
 20
-116.0
 10
-166.0
 20
-116.0
 10
-161.0
 20
-118.0
  0
LWPOLYLINE
  5
84
  8
P
 62
0
370
-1
  6
CONTINUOUS
100
AcDbEntity
100
AcDbPolyline
 90
9
 70
0
 10
-167.0
 20
-116.0
 10
-171.0
 20
-119.0
 10
-172.0
 20
-120.0
 10
-173.0
 20
-121.0
 10
-174.0
 20
-122.0
 10
-175.0
 20
-123.0
 10
-176.0
 20
-123.0
 10
-177.0
 20
-124.0
 10
-180.0
 20
-128.0
  0
LWPOLYLINE
  5
85
  8
P
 62
0
370
-1
  6
CONTINUOUS
100
AcDbEntity
100
AcDbPolyline
 90
29
 70
0
 10
-158.0
 20
-118.0
 10
-155.0
 20
-122.0
 10
-154.0
 20
-123.0
 10
-153.0
 20
-124.0
 10
-153.0
 20
-125.0
 10
-152.0
 20
-126.0
 10
-151.0
 20
-127.0
 10
-150.0
 20
-128.0
 10
-150.0
 20
-129.0
 10
-149.0
 20
-130.0
 10
-149.0
 20
-131.0
 10
-148.0
 20
-132.0
 10
-147.0
 20
-133.0
 10
-147.0
 20
-134.0
 10
-146.0
 20
-135.0
 10
-146.0
 20
-136.0
 10
-145.0
 20
-137.0
 10
-145.0
 20
-138.0
 10
-144.0
 20
-139.0
 10
-143.0
 20
-140.0
 10
-143.0
 20
-141.0
 10
-142.0
 20
-142.0
 10
-142.0
 20
-143.0
 10
-141.0
 20
-144.0
 10
-141.0
 20
-145.0
 10
-141.0
 20
-146.0
 10
-141.0
 20
-147.0
 10
-140.0
 20
-148.0
 10
-140.0
 20
-152.0
  0
LWPOLYLINE
  5
86
  8
P
 62
0
370
-1
  6
CONTINUOUS
100
AcDbEntity
100
AcDbPolyline
 90
17
 70
0
 10
-122.0
 20
-121.0
 10
-122.0
 20
-125.0
 10
-122.0
 20
-126.0
 10
-122.0
 20
-127.0
 10
-122.0
 20
-128.0
 10
-122.0
 20
-129.0
 10
-122.0
 20
-130.0
 10
-122.0
 20
-131.0
 10
-122.0
 20
-132.0
 10
-122.0
 20
-133.0
 10
-122.0
 20
-134.0
 10
-123.0
 20
-135.0
 10
-124.0
 20
-136.0
 10
-125.0
 20
-137.0
 10
-126.0
 20
-138.0
 10
-127.0
 20
-139.0
 10
-132.0
 20
-142.0
  0
LWPOLYLINE
  5
87
  8
P
 62
0
370
-1
  6
CONTINUOUS
100
AcDbEntity
100
AcDbPolyline
 90
93
 70
0
 10
-155.0
 20
-122.0
 10
-159.0
 20
-126.0
 10
-160.0
 20
-126.0
 10
-161.0
 20
-127.0
 10
-162.0
 20
-128.0
 10
-163.0
 20
-129.0
 10
-164.0
 20
-130.0
 10
-165.0
 20
-131.0
 10
-166.0
 20
-132.0
 10
-167.0
 20
-133.0
 10
-166.0
 20
-134.0
 10
-166.0
 20
-135.0
 10
-166.0
 20
-136.0
 10
-166.0
 20
-137.0
 10
-166.0
 20
-138.0
 10
-166.0
 20
-139.0
 10
-166.0
 20
-140.0
 10
-166.0
 20
-141.0
 10
-166.0
 20
-142.0
 10
-166.0
 20
-143.0
 10
-166.0
 20
-144.0
 10
-166.0
 20
-145.0
 10
-166.0
 20
-146.0
 10
-166.0
 20
-147.0
 10
-166.0
 20
-148.0
 10
-166.0
 20
-149.0
 10
-166.0
 20
-150.0
 10
-166.0
 20
-151.0
 10
-166.0
 20
-152.0
 10
-167.0
 20
-153.0
 10
-167.0
 20
-154.0
 10
-167.0
 20
-155.0
 10
-167.0
 20
-156.0
 10
-167.0
 20
-157.0
 10
-167.0
 20
-158.0
 10
-167.0
 20
-159.0
 10
-167.0
 20
-160.0
 10
-167.0
 20
-161.0
 10
-167.0
 20
-162.0
 10
-167.0
 20
-163.0
 10
-167.0
 20
-164.0
 10
-167.0
 20
-165.0
 10
-167.0
 20
-166.0
 10
-167.0
 20
-167.0
 10
-167.0
 20
-168.0
 10
-167.0
 20
-169.0
 10
-167.0
 20
-170.0
 10
-167.0
 20
-171.0
 10
-166.0
 20
-172.0
 10
-167.0
 20
-173.0
 10
-167.0
 20
-174.0
 10
-168.0
 20
-175.0
 10
-169.0
 20
-175.0
 10
-170.0
 20
-175.0
 10
-171.0
 20
-175.0
 10
-172.0
 20
-175.0
 10
-173.0
 20
-174.0
 10
-174.0
 20
-174.0
 10
-175.0
 20
-173.0
 10
-176.0
 20
-173.0
 10
-177.0
 20
-172.0
 10
-178.0
 20
-172.0
 10
-179.0
 20
-171.0
 10
-180.0
 20
-171.0
 10
-181.0
 20
-171.0
 10
-182.0
 20
-170.0
 10
-183.0
 20
-170.0
 10
-184.0
 20
-169.0
 10
-185.0
 20
-169.0
 10
-186.0
 20
-168.0
 10
-187.0
 20
-168.0
 10
-188.0
 20
-167.0
 10
-189.0
 20
-167.0
 10
-190.0
 20
-167.0
 10
-191.0
 20
-166.0
 10
-192.0
 20
-166.0
 10
-193.0
 20
-165.0
 10
-194.0
 20
-165.0
 10
-195.0
 20
-164.0
 10
-196.0
 20
-164.0
 10
-197.0
 20
-163.0
 10
-198.0
 20
-163.0
 10
-199.0
 20
-163.0
 10
-200.0
 20
-162.0
 10
-201.0
 20
-162.0
 10
-202.0
 20
-161.0
 10
-203.0
 20
-161.0
 10
-204.0
 20
-160.0
 10
-205.0
 20
-160.0
 10
-206.0
 20
-159.0
 10
-207.0
 20
-159.0
 10
-208.0
 20
-159.0
 10
-211.0
 20
-154.0
  0
LWPOLYLINE
  5
88
  8
P
 62
0
370
-1
  6
CONTINUOUS
100
AcDbEntity
100
AcDbPolyline
 90
5
 70
0
 10
-179.0
 20
-127.0
 10
-175.0
 20
-129.0
 10
-174.0
 20
-130.0
 10
-173.0
 20
-130.0
 10
-168.0
 20
-132.0
  0
LWPOLYLINE
  5
89
  8
P
 62
0
370
-1
  6
CONTINUOUS
100
AcDbEntity
100
AcDbPolyline
 90
9
 70
0
 10
-138.0
 20
-129.0
 10
-134.0
 20
-130.0
 10
-133.0
 20
-130.0
 10
-132.0
 20
-131.0
 10
-131.0
 20
-131.0
 10
-130.0
 20
-132.0
 10
-129.0
 20
-132.0
 10
-128.0
 20
-132.0
 10
-124.0
 20
-134.0
  0
LWPOLYLINE
  5
8A
  8
P
 62
0
370
-1
  6
CONTINUOUS
100
AcDbEntity
100
AcDbPolyline
 90
7
 70
0
 10
-156.0
 20
-164.0
 10
-159.0
 20
-167.0
 10
-160.0
 20
-168.0
 10
-161.0
 20
-169.0
 10
-162.0
 20
-169.0
 10
-163.0
 20
-170.0
 10
-165.0
 20
-172.0
  0
LWPOLYLINE
  5
8B
  8
P
 62
0
370
-1
  6
CONTINUOUS
100
AcDbEntity
100
AcDbPolyline
 90
9
 70
0
 10
-132.0
 20
-182.0
 10
-134.0
 20
-186.0
 10
-135.0
 20
-187.0
 10
-136.0
 20
-188.0
 10
-137.0
 20
-189.0
 10
-138.0
 20
-190.0
 10
-139.0
 20
-191.0
 10
-140.0
 20
-192.0
 10
-145.0
 20
-194.0
  0
LWPOLYLINE
  5
8C
  8
P
 62
0
370
-1
  6
CONTINUOUS
100
AcDbEntity
100
AcDbPolyline
 90
2
 70
0
 10
-145.0
 20
-192.0
 10
-144.0
 20
-195.0
  0
LWPOLYLINE
  5
8D
  8
P
 62
0
370
-1
  6
CONTINUOUS
100
AcDbEntity
100
AcDbPolyline
 90
2
 70
0
 10
-147.0
 20
-195.0
 10
-144.0
 20
-196.0
  0
LWPOLYLINE
  5
8E
  8
P
 62
0
370
-1
  6
CONTINUOUS
100
AcDbEntity
100
AcDbPolyline
 90
13
 70
0
 10
-151.0
 20
-196.0
 10
-150.5
 20
-196.33333333333331
 10
-150.16666666666666
 20
-196.83333333333331
 10
-149.83333333333334
 20
-197.0
 10
-149.5
 20
-197.33333333333331
 10
-149.0
 20
-197.66666666666669
 10
-148.5
 20
-197.66666666666669
 10
-148.16666666666666
 20
-197.66666666666669
 10
-147.66666666666666
 20
-197.33333333333331
 10
-147.33333333333334
 20
-197.0
 10
-147.0
 20
-196.83333333333331
 10
-146.5
 20
-196.33333333333331
 10
-146.0
 20
-196.0
  0
ENDSEC
  0
SECTION
  2
OBJECTS
  0
DICTIONARY
  5
C
100
AcDbDictionary
280
0
281
1
  3
ACAD_GROUP
350
D
  3
ACAD_LAYOUT
350
1A
  3
ACAD_MLINESTYLE
350
17
  3
ACAD_PLOTSETTINGS
350
19
  3
ACAD_PLOTSTYLENAME
350
E
  3
AcDbVariableDictionary
350
8F
  0
DICTIONARY
  5
D
100
AcDbDictionary
280
0
281
1
  0
ACDBDICTIONARYWDFLT
  5
E
100
AcDbDictionary
281
1
  3
Normal
350
F
100
AcDbDictionaryWithDefault
340
F
  0
ACDBPLACEHOLDER
  5
F
  0
DICTIONARY
  5
17
100
AcDbDictionary
280
0
281
1
  3
Standard
350
18
  0
MLINESTYLE
  5
18
100
AcDbMlineStyle
  2
STANDARD
 70
0
  3

 62
256
 51
90.0
 52
90.0
 71
2
 49
0.5
 62
256
  6
BYLAYER
 49
-0.5
 62
256
  6
BYLAYER
  0
DICTIONARY
  5
19
100
AcDbDictionary
280
0
281
1
  0
DICTIONARY
  5
1A
100
AcDbDictionary
281
1
  3
Layout1
350
1E
  3
Layout2
350
26
  3
Model
350
22
  0
LAYOUT
  5
1E
100
AcDbPlotSettings
  1

  2
C:\Program Files\AutoCAD 2002\plotters\DWF ePlot (optimized for plotting).pc3
  4

  6

 40
0.0
 41
0.0
 42
0.0
 43
0.0
 44
0.0
 45
0.0
 46
0.0
 47
0.0
 48
0.0
 49
0.0
140
0.0
141
0.0
142
1.0
143
1.0
 70
688
 72
0
 73
0
 74
5
  7

 75
16
147
1.0
148
0.0
149
0.0
100
AcDbLayout
  1
Layout1
 70
1
 71
1
 10
0.0
 20
0.0
 11
420.0
 21
297.0
 12
0.0
 22
0.0
 32
0.0
 14
100000000000000000000.0
 24
100000000000000000000.0
 34
100000000000000000000.0
 15
-100000000000000000000.0
 25
-100000000000000000000.0
 35
-100000000000000000000.0
146
0.0
 13
0.0
 23
0.0
 33
0.0
 16
1.0
 26
0.0
 36
0.0
 17
0.0
 27
1.0
 37
0.0
 76
0
330
1B
  0
LAYOUT
  5
22
100
AcDbPlotSettings
  1

  2
C:\Program Files\AutoCAD 2002\plotters\DWF ePlot (optimized for plotting).pc3
  4

  6

 40
0.0
 41
0.0
 42
0.0
 43
0.0
 44
0.0
 45
0.0
 46
0.0
 47
0.0
 48
0.0
 49
0.0
140
0.0
141
0.0
142
1.0
143
1.0
 70
1712
 72
0
 73
0
 74
0
  7

 75
0
147
1.0
148
0.0
149
0.0
100
AcDbLayout
  1
Model
 70
1
 71
0
 10
0.0
 20
0.0
 11
12.0
 21
9.0
 12
0.0
 22
0.0
 32
0.0
 14
0.0
 24
0.0
 34
0.0
 15
0.0
 25
0.0
 35
0.0
146
0.0
 13
0.0
 23
0.0
 33
0.0
 16
1.0
 26
0.0
 36
0.0
 17
0.0
 27
1.0
 37
0.0
 76
0
330
1F
  0
LAYOUT
  5
26
100
AcDbPlotSettings
  1

  2
C:\Program Files\AutoCAD 2002\plotters\DWF ePlot (optimized for plotting).pc3
  4

  6

 40
0.0
 41
0.0
 42
0.0
 43
0.0
 44
0.0
 45
0.0
 46
0.0
 47
0.0
 48
0.0
 49
0.0
140
0.0
141
0.0
142
1.0
143
1.0
 70
688
 72
0
 73
0
 74
5
  7

 75
16
147
1.0
148
0.0
149
0.0
100
AcDbLayout
  1
Layout2
 70
1
 71
2
 10
0.0
 20
0.0
 11
12.0
 21
9.0
 12
0.0
 22
0.0
 32
0.0
 14
0.0
 24
0.0
 34
0.0
 15
0.0
 25
0.0
 35
0.0
146
0.0
 13
0.0
 23
0.0
 33
0.0
 16
1.0
 26
0.0
 36
0.0
 17
0.0
 27
1.0
 37
0.0
 76
0
330
23
  0
DICTIONARY
  5
8F
100
AcDbDictionary
281
1
  3
DIMASSOC
350
91
  3
HIDETEXT
350
90
  0
DICTIONARYVAR
  5
90
100
DictionaryVariables
280
0
  1
2
  0
DICTIONARYVAR
  5
91
100
DictionaryVariables
280
0
  1
1
  0
ENDSEC
  0
EOF
