0
SECTION
2
HEADER
0
ENDSEC
0
SECTION
2
TABLES
0
ENDSEC
0
SECTION
2
BLOCKS
0
ENDSEC
0
SECTION
2
ENTITIES
0
POLYLINE
8
PFV
62
0
66
1
70
8
0
VERTEX
8
PFV
62
0
70
32
10
4.200000
20
0.100000
30
0
0
VERTEX
8
PFV
62
0
70
32
10
4.200000
20
0.133333
30
0
0
VERTEX
8
PFV
62
0
70
32
10
4.166667
20
0.166667
30
0
0
VERTEX
8
PFV
62
0
70
32
10
3.966667
20
0.166667
30
0
0
SEQEND
0
POLYLINE
8
PFV
62
0
66
1
70
8
0
VERTEX
8
PFV
62
0
70
32
10
4.200000
20
0.100000
30
0
0
VERTEX
8
PFV
62
0
70
32
10
4.266667
20
0.133333
30
0
0
VERTEX
8
PFV
62
0
70
32
10
4.233333
20
0.300000
30
0
0
VERTEX
8
PFV
62
0
70
32
10
4.000000
20
0.333333
30
0
0
SEQEND
0
POLYLINE
8
PFV
62
0
66
1
70
8
0
VERTEX
8
PFV
62
0
70
32
10
4.200000
20
0.100000
30
0
0
VERTEX
8
PFV
62
0
70
32
10
4.200000
20
0.066667
30
0
0
VERTEX
8
PFV
62
0
70
32
10
4.166667
20
0.033333
30
0
0
VERTEX
8
PFV
62
0
70
32
10
4.133333
20
0.000000
30
0
0
VERTEX
8
PFV
62
0
70
32
10
3.933333
20
0.000000
30
0
0
SEQEND
0
POLYLINE
8
PFV
62
0
66
1
70
8
0
VERTEX
8
PFV
62
0
70
32
10
4.200000
20
0.100000
30
0
0
VERTEX
8
PFV
62
0
70
32
10
4.166667
20
0.133333
30
0
0
SEQEND
0
POLYLINE
8
PFV
62
0
66
1
70
8
0
VERTEX
8
PFV
62
0
70
32
10
4.266667
20
0.233333
30
0
0
VERTEX
8
PFV
62
0
70
32
10
4.366667
20
0.266667
30
0
0
VERTEX
8
PFV
62
0
70
32
10
4.333333
20
0.433333
30
0
0
VERTEX
8
PFV
62
0
70
32
10
4.100000
20
0.466667
30
0
0
SEQEND
0
POLYLINE
8
PFV
62
0
66
1
70
8
0
VERTEX
8
PFV
62
0
70
32
10
4.266667
20
0.233333
30
0
0
VERTEX
8
PFV
62
0
70
32
10
4.233333
20
0.266667
30
0
0
SEQEND
0
POLYLINE
8
PFV
62
0
66
1
70
8
0
VERTEX
8
PFV
62
0
70
32
10
4.366667
20
0.366667
30
0
0
VERTEX
8
PFV
62
0
70
32
10
4.433333
20
0.400000
30
0
0
VERTEX
8
PFV
62
0
70
32
10
4.400000
20
0.533333
30
0
0
VERTEX
8
PFV
62
0
70
32
10
4.333333
20
0.600000
30
0
0
VERTEX
8
PFV
62
0
70
32
10
4.200000
20
0.600000
30
0
0
SEQEND
0
POLYLINE
8
PFV
62
0
66
1
70
8
0
VERTEX
8
PFV
62
0
70
32
10
4.366667
20
0.366667
30
0
0
VERTEX
8
PFV
62
0
70
32
10
4.333333
20
0.400000
30
0
0
SEQEND
0
POLYLINE
8
PFV
62
0
66
1
70
8
0
VERTEX
8
PFV
62
0
70
32
10
6.600000
20
0.400000
30
0
0
VERTEX
8
PFV
62
0
70
32
10
6.633333
20
0.966667
30
0
0
VERTEX
8
PFV
62
0
70
32
10
6.833333
20
1.166667
30
0
0
VERTEX
8
PFV
62
0
70
32
10
6.800000
20
1.366667
30
0
0
VERTEX
8
PFV
62
0
70
32
10
6.766667
20
1.300000
30
0
0
VERTEX
8
PFV
62
0
70
32
10
6.833333
20
1.300000
30
0
0
SEQEND
0
POLYLINE
8
PFV
62
0
66
1
70
8
0
VERTEX
8
PFV
62
0
70
32
10
6.600000
20
0.400000
30
0
0
VERTEX
8
PFV
62
0
70
32
10
7.600000
20
0.266667
30
0
0
VERTEX
8
PFV
62
0
70
32
10
8.300000
20
0.000000
30
0
0
SEQEND
0
POLYLINE
8
PFV
62
0
66
1
70
8
0
VERTEX
8
PFV
62
0
70
32
10
6.600000
20
0.400000
30
0
0
VERTEX
8
PFV
62
0
70
32
10
6.366667
20
0.200000
30
0
0
VERTEX
8
PFV
62
0
70
32
10
5.866667
20
0.033333
30
0
0
VERTEX
8
PFV
62
0
70
32
10
5.600000
20
0.066667
30
0
0
VERTEX
8
PFV
62
0
70
32
10
5.466667
20
0.166667
30
0
0
VERTEX
8
PFV
62
0
70
32
10
5.266667
20
0.500000
30
0
0
VERTEX
8
PFV
62
0
70
32
10
5.000000
20
0.666667
30
0
0
VERTEX
8
PFV
62
0
70
32
10
4.833333
20
0.900000
30
0
0
VERTEX
8
PFV
62
0
70
32
10
4.733333
20
0.966667
30
0
0
VERTEX
8
PFV
62
0
70
32
10
4.500000
20
1.166667
30
0
0
VERTEX
8
PFV
62
0
70
32
10
4.500000
20
1.266667
30
0
0
VERTEX
8
PFV
62
0
70
32
10
4.700000
20
1.333333
30
0
0
VERTEX
8
PFV
62
0
70
32
10
5.266667
20
1.333333
30
0
0
VERTEX
8
PFV
62
0
70
32
10
5.800000
20
1.300000
30
0
0
VERTEX
8
PFV
62
0
70
32
10
6.333333
20
1.300000
30
0
0
VERTEX
8
PFV
62
0
70
32
10
6.433333
20
1.066667
30
0
0
VERTEX
8
PFV
62
0
70
32
10
6.466667
20
1.066667
30
0
0
VERTEX
8
PFV
62
0
70
32
10
6.600000
20
0.933333
30
0
0
SEQEND
0
POLYLINE
8
PFV
62
0
66
1
70
8
0
VERTEX
8
PFV
62
0
70
32
10
4.433333
20
0.466667
30
0
0
VERTEX
8
PFV
62
0
70
32
10
4.700000
20
0.600000
30
0
0
VERTEX
8
PFV
62
0
70
32
10
4.933333
20
0.633333
30
0
0
VERTEX
8
PFV
62
0
70
32
10
4.966667
20
0.666667
30
0
0
SEQEND
0
POLYLINE
8
PFV
62
0
66
1
70
8
0
VERTEX
8
PFV
62
0
70
32
10
4.433333
20
0.466667
30
0
0
VERTEX
8
PFV
62
0
70
32
10
4.400000
20
0.500000
30
0
0
SEQEND
0
POLYLINE
8
PFV
62
0
66
1
70
8
0
VERTEX
8
PFV
62
0
70
32
10
4.566667
20
0.533333
30
0
0
VERTEX
8
PFV
62
0
70
32
10
4.433333
20
0.700000
30
0
0
VERTEX
8
PFV
62
0
70
32
10
4.333333
20
0.733333
30
0
0
VERTEX
8
PFV
62
0
70
32
10
4.333333
20
1.200000
30
0
0
VERTEX
8
PFV
62
0
70
32
10
4.433333
20
1.200000
30
0
0
VERTEX
8
PFV
62
0
70
32
10
4.466667
20
1.166667
30
0
0
VERTEX
8
PFV
62
0
70
32
10
4.466667
20
1.200000
30
0
0
SEQEND
0
POLYLINE
8
PFV
62
0
66
1
70
8
0
VERTEX
8
PFV
62
0
70
32
10
4.566667
20
0.533333
30
0
0
VERTEX
8
PFV
62
0
70
32
10
4.533333
20
0.566667
30
0
0
SEQEND
0
POLYLINE
8
PFV
62
0
66
1
70
8
0
VERTEX
8
PFV
62
0
70
32
10
4.700000
20
0.600000
30
0
0
VERTEX
8
PFV
62
0
70
32
10
4.700000
20
0.633333
30
0
0
VERTEX
8
PFV
62
0
70
32
10
4.666667
20
0.666667
30
0
0
VERTEX
8
PFV
62
0
70
32
10
4.666667
20
0.800000
30
0
0
VERTEX
8
PFV
62
0
70
32
10
4.633333
20
0.833333
30
0
0
VERTEX
8
PFV
62
0
70
32
10
4.633333
20
1.000000
30
0
0
SEQEND
0
POLYLINE
8
PFV
62
0
66
1
70
8
0
VERTEX
8
PFV
62
0
70
32
10
4.700000
20
0.600000
30
0
0
VERTEX
8
PFV
62
0
70
32
10
4.533333
20
0.766667
30
0
0
VERTEX
8
PFV
62
0
70
32
10
4.533333
20
0.866667
30
0
0
VERTEX
8
PFV
62
0
70
32
10
4.466667
20
0.866667
30
0
0
VERTEX
8
PFV
62
0
70
32
10
4.400000
20
1.000000
30
0
0
SEQEND
0
POLYLINE
8
PFV
62
0
66
1
70
8
0
VERTEX
8
PFV
62
0
70
32
10
5.033333
20
0.600000
30
0
0
VERTEX
8
PFV
62
0
70
32
10
5.033333
20
0.633333
30
0
0
SEQEND
0
POLYLINE
8
PFV
62
0
66
1
70
8
0
VERTEX
8
PFV
62
0
70
32
10
5.033333
20
0.600000
30
0
0
VERTEX
8
PFV
62
0
70
32
10
4.966667
20
0.533333
30
0
0
VERTEX
8
PFV
62
0
70
32
10
4.933333
20
0.200000
30
0
0
VERTEX
8
PFV
62
0
70
32
10
4.866667
20
0.133333
30
0
0
SEQEND
0
POLYLINE
8
PFV
62
0
66
1
70
8
0
VERTEX
8
PFV
62
0
70
32
10
4.533333
20
0.800000
30
0
0
VERTEX
8
PFV
62
0
70
32
10
4.466667
20
0.800000
30
0
0
VERTEX
8
PFV
62
0
70
32
10
4.466667
20
0.866667
30
0
0
SEQEND
0
POLYLINE
8
PFV
62
0
66
1
70
8
0
VERTEX
8
PFV
62
0
70
32
10
4.866667
20
0.800000
30
0
0
VERTEX
8
PFV
62
0
70
32
10
4.800000
20
0.800000
30
0
0
VERTEX
8
PFV
62
0
70
32
10
4.766667
20
0.833333
30
0
0
VERTEX
8
PFV
62
0
70
32
10
4.766667
20
0.866667
30
0
0
VERTEX
8
PFV
62
0
70
32
10
4.800000
20
0.833333
30
0
0
VERTEX
8
PFV
62
0
70
32
10
4.833333
20
0.866667
30
0
0
SEQEND
0
POLYLINE
8
PFV
62
0
66
1
70
8
0
VERTEX
8
PFV
62
0
70
32
10
4.766667
20
0.900000
30
0
0
VERTEX
8
PFV
62
0
70
32
10
4.766667
20
0.933333
30
0
0
SEQEND
0
POLYLINE
8
PFV
62
0
66
1
70
8
0
VERTEX
8
PFV
62
0
70
32
10
4.633333
20
1.000000
30
0
0
VERTEX
8
PFV
62
0
70
32
10
4.633333
20
1.033333
30
0
0
SEQEND
0
POLYLINE
8
PFV
62
0
66
1
70
8
0
VERTEX
8
PFV
62
0
70
32
10
3.266667
20
1.033333
30
0
0
VERTEX
8
PFV
62
0
70
32
10
3.466667
20
1.200000
30
0
0
VERTEX
8
PFV
62
0
70
32
10
4.333333
20
1.200000
30
0
0
SEQEND
0
POLYLINE
8
PFV
62
0
66
1
70
8
0
VERTEX
8
PFV
62
0
70
32
10
3.266667
20
1.033333
30
0
0
VERTEX
8
PFV
62
0
70
32
10
3.266667
20
0.566667
30
0
0
SEQEND
0
POLYLINE
8
PFV
62
0
66
1
70
8
0
VERTEX
8
PFV
62
0
70
32
10
3.266667
20
1.033333
30
0
0
VERTEX
8
PFV
62
0
70
32
10
3.066667
20
1.233333
30
0
0
VERTEX
8
PFV
62
0
70
32
10
2.766667
20
1.266667
30
0
0
VERTEX
8
PFV
62
0
70
32
10
2.633333
20
1.433333
30
0
0
VERTEX
8
PFV
62
0
70
32
10
2.466667
20
1.500000
30
0
0
SEQEND
0
POLYLINE
8
PFV
62
0
66
1
70
8
0
VERTEX
8
PFV
62
0
70
32
10
3.266667
20
1.033333
30
0
0
VERTEX
8
PFV
62
0
70
32
10
3.233333
20
1.066667
30
0
0
SEQEND
0
POLYLINE
8
PFV
62
0
66
1
70
8
0
VERTEX
8
PFV
62
0
70
32
10
2.366667
20
1.066667
30
0
0
VERTEX
8
PFV
62
0
70
32
10
2.366667
20
1.166667
30
0
0
VERTEX
8
PFV
62
0
70
32
10
2.400000
20
1.200000
30
0
0
VERTEX
8
PFV
62
0
70
32
10
2.366667
20
1.233333
30
0
0
VERTEX
8
PFV
62
0
70
32
10
2.333333
20
1.233333
30
0
0
VERTEX
8
PFV
62
0
70
32
10
2.333333
20
1.266667
30
0
0
VERTEX
8
PFV
62
0
70
32
10
2.300000
20
1.300000
30
0
0
SEQEND
0
POLYLINE
8
PFV
62
0
66
1
70
8
0
VERTEX
8
PFV
62
0
70
32
10
2.366667
20
1.066667
30
0
0
VERTEX
8
PFV
62
0
70
32
10
2.633333
20
1.066667
30
0
0
VERTEX
8
PFV
62
0
70
32
10
2.666667
20
1.100000
30
0
0
VERTEX
8
PFV
62
0
70
32
10
2.700000
20
1.133333
30
0
0
VERTEX
8
PFV
62
0
70
32
10
2.733333
20
1.166667
30
0
0
VERTEX
8
PFV
62
0
70
32
10
2.766667
20
1.200000
30
0
0
VERTEX
8
PFV
62
0
70
32
10
2.800000
20
1.233333
30
0
0
SEQEND
0
POLYLINE
8
PFV
62
0
66
1
70
8
0
VERTEX
8
PFV
62
0
70
32
10
2.366667
20
1.066667
30
0
0
VERTEX
8
PFV
62
0
70
32
10
2.133333
20
1.066667
30
0
0
VERTEX
8
PFV
62
0
70
32
10
2.000000
20
1.266667
30
0
0
VERTEX
8
PFV
62
0
70
32
10
2.000000
20
1.400000
30
0
0
VERTEX
8
PFV
62
0
70
32
10
2.166667
20
1.566667
30
0
0
VERTEX
8
PFV
62
0
70
32
10
2.300000
20
1.566667
30
0
0
SEQEND
0
POLYLINE
8
PFV
62
0
66
1
70
8
0
VERTEX
8
PFV
62
0
70
32
10
2.366667
20
1.166667
30
0
0
VERTEX
8
PFV
62
0
70
32
10
2.400000
20
1.166667
30
0
0
SEQEND
0
POLYLINE
8
PFV
62
0
66
1
70
8
0
VERTEX
8
PFV
62
0
70
32
10
2.366667
20
1.166667
30
0
0
VERTEX
8
PFV
62
0
70
32
10
2.333333
20
1.166667
30
0
0
VERTEX
8
PFV
62
0
70
32
10
2.333333
20
1.233333
30
0
0
SEQEND
0
POLYLINE
8
PFV
62
0
66
1
70
8
0
VERTEX
8
PFV
62
0
70
32
10
2.800000
20
1.233333
30
0
0
VERTEX
8
PFV
62
0
70
32
10
2.800000
20
1.266667
30
0
0
SEQEND
0
POLYLINE
8
PFV
62
0
66
1
70
8
0
VERTEX
8
PFV
62
0
70
32
10
6.833333
20
1.300000
30
0
0
VERTEX
8
PFV
62
0
70
32
10
6.866667
20
1.300000
30
0
0
VERTEX
8
PFV
62
0
70
32
10
6.900000
20
1.333333
30
0
0
VERTEX
8
PFV
62
0
70
32
10
6.933333
20
1.333333
30
0
0
VERTEX
8
PFV
62
0
70
32
10
6.933333
20
1.433333
30
0
0
SEQEND
0
POLYLINE
8
PFV
62
0
66
1
70
8
0
VERTEX
8
PFV
62
0
70
32
10
1.166667
20
1.333333
30
0
0
VERTEX
8
PFV
62
0
70
32
10
1.133333
20
1.400000
30
0
0
VERTEX
8
PFV
62
0
70
32
10
1.000000
20
1.400000
30
0
0
VERTEX
8
PFV
62
0
70
32
10
1.000000
20
1.500000
30
0
0
VERTEX
8
PFV
62
0
70
32
10
0.800000
20
1.500000
30
0
0
VERTEX
8
PFV
62
0
70
32
10
0.833333
20
1.300000
30
0
0
VERTEX
8
PFV
62
0
70
32
10
0.900000
20
1.300000
30
0
0
VERTEX
8
PFV
62
0
70
32
10
1.100000
20
1.233333
30
0
0
VERTEX
8
PFV
62
0
70
32
10
1.166667
20
1.333333
30
0
0
VERTEX
8
PFV
62
0
70
32
10
1.133333
20
1.366667
30
0
0
SEQEND
0
POLYLINE
8
PFV
62
0
66
1
70
8
0
VERTEX
8
PFV
62
0
70
32
10
1.166667
20
1.333333
30
0
0
VERTEX
8
PFV
62
0
70
32
10
1.966667
20
1.333333
30
0
0
SEQEND
0
POLYLINE
8
PFV
62
0
66
1
70
8
0
VERTEX
8
PFV
62
0
70
32
10
1.966667
20
1.333333
30
0
0
VERTEX
8
PFV
62
0
70
32
10
2.000000
20
1.300000
30
0
0
SEQEND
0
POLYLINE
8
PFV
62
0
66
1
70
8
0
VERTEX
8
PFV
62
0
70
32
10
1.066667
20
1.400000
30
0
0
VERTEX
8
PFV
62
0
70
32
10
1.066667
20
1.466667
30
0
0
VERTEX
8
PFV
62
0
70
32
10
1.000000
20
1.466667
30
0
0
SEQEND
0
ENDSEC
0
EOF
