0
SECTION
2
HEADER
0
ENDSEC
0
SECTION
2
TABLES
0
ENDSEC
0
SECTION
2
BLOCKS
0
ENDSEC
0
SECTION
2
ENTITIES
0
POLYLINE
8
PFV
62
0
66
1
70
8
0
VERTEX
8
PFV
62
0
70
32
10
3.866667
20
1.500000
30
0
0
VERTEX
8
PFV
62
0
70
32
10
3.866667
20
1.566667
30
0
0
SEQEND
0
POLYLINE
8
PFV
62
0
66
1
70
8
0
VERTEX
8
PFV
62
0
70
32
10
3.866667
20
1.500000
30
0
0
VERTEX
8
PFV
62
0
70
32
10
4.000000
20
1.500000
30
0
0
SEQEND
0
POLYLINE
8
PFV
62
0
66
1
70
8
0
VERTEX
8
PFV
62
0
70
32
10
3.866667
20
1.500000
30
0
0
VERTEX
8
PFV
62
0
70
32
10
3.866667
20
1.433333
30
0
0
SEQEND
0
POLYLINE
8
PFV
62
0
66
1
70
8
0
VERTEX
8
PFV
62
0
70
32
10
3.933333
20
0.000000
30
0
0
VERTEX
8
PFV
62
0
70
32
10
4.000000
20
0.000000
30
0
0
SEQEND
0
POLYLINE
8
PFV
62
0
66
1
70
8
0
VERTEX
8
PFV
62
0
70
32
10
3.933333
20
0.000000
30
0
0
VERTEX
8
PFV
62
0
70
32
10
3.900000
20
0.033333
30
0
0
VERTEX
8
PFV
62
0
70
32
10
3.866667
20
0.033333
30
0
0
SEQEND
0
POLYLINE
8
PFV
62
0
66
1
70
8
0
VERTEX
8
PFV
62
0
70
32
10
5.033333
20
0.000000
30
0
0
VERTEX
8
PFV
62
0
70
32
10
5.033333
20
0.066667
30
0
0
SEQEND
0
POLYLINE
8
PFV
62
0
66
1
70
8
0
VERTEX
8
PFV
62
0
70
32
10
6.166667
20
0.033333
30
0
0
VERTEX
8
PFV
62
0
70
32
10
6.166667
20
0.100000
30
0
0
SEQEND
0
POLYLINE
8
PFV
62
0
66
1
70
8
0
VERTEX
8
PFV
62
0
70
32
10
6.600000
20
0.033333
30
0
0
VERTEX
8
PFV
62
0
70
32
10
6.566667
20
0.066667
30
0
0
VERTEX
8
PFV
62
0
70
32
10
6.533333
20
0.066667
30
0
0
VERTEX
8
PFV
62
0
70
32
10
6.500000
20
0.100000
30
0
0
VERTEX
8
PFV
62
0
70
32
10
6.466667
20
0.100000
30
0
0
SEQEND
0
POLYLINE
8
PFV
62
0
66
1
70
8
0
VERTEX
8
PFV
62
0
70
32
10
4.600000
20
0.100000
30
0
0
VERTEX
8
PFV
62
0
70
32
10
4.633333
20
0.100000
30
0
0
SEQEND
0
POLYLINE
8
PFV
62
0
66
1
70
8
0
VERTEX
8
PFV
62
0
70
32
10
4.600000
20
0.100000
30
0
0
VERTEX
8
PFV
62
0
70
32
10
4.566667
20
0.133333
30
0
0
VERTEX
8
PFV
62
0
70
32
10
4.533333
20
0.133333
30
0
0
VERTEX
8
PFV
62
0
70
32
10
4.500000
20
0.166667
30
0
0
VERTEX
8
PFV
62
0
70
32
10
4.333333
20
0.166667
30
0
0
SEQEND
0
POLYLINE
8
PFV
62
0
66
1
70
8
0
VERTEX
8
PFV
62
0
70
32
10
3.900000
20
0.200000
30
0
0
VERTEX
8
PFV
62
0
70
32
10
3.966667
20
0.200000
30
0
0
SEQEND
0
POLYLINE
8
PFV
62
0
66
1
70
8
0
VERTEX
8
PFV
62
0
70
32
10
3.900000
20
0.200000
30
0
0
VERTEX
8
PFV
62
0
70
32
10
3.866667
20
0.233333
30
0
0
VERTEX
8
PFV
62
0
70
32
10
3.866667
20
0.300000
30
0
0
VERTEX
8
PFV
62
0
70
32
10
3.800000
20
0.300000
30
0
0
SEQEND
0
POLYLINE
8
PFV
62
0
66
1
70
8
0
VERTEX
8
PFV
62
0
70
32
10
6.533333
20
0.200000
30
0
0
VERTEX
8
PFV
62
0
70
32
10
6.633333
20
0.200000
30
0
0
SEQEND
0
POLYLINE
8
PFV
62
0
66
1
70
8
0
VERTEX
8
PFV
62
0
70
32
10
7.566667
20
0.200000
30
0
0
VERTEX
8
PFV
62
0
70
32
10
7.366667
20
0.500000
30
0
0
VERTEX
8
PFV
62
0
70
32
10
7.233333
20
0.600000
30
0
0
VERTEX
8
PFV
62
0
70
32
10
7.166667
20
0.800000
30
0
0
SEQEND
0
POLYLINE
8
PFV
62
0
66
1
70
8
0
VERTEX
8
PFV
62
0
70
32
10
6.633333
20
0.300000
30
0
0
VERTEX
8
PFV
62
0
70
32
10
6.733333
20
0.300000
30
0
0
SEQEND
0
POLYLINE
8
PFV
62
0
66
1
70
8
0
VERTEX
8
PFV
62
0
70
32
10
3.900000
20
0.400000
30
0
0
VERTEX
8
PFV
62
0
70
32
10
3.966667
20
0.400000
30
0
0
SEQEND
0
POLYLINE
8
PFV
62
0
66
1
70
8
0
VERTEX
8
PFV
62
0
70
32
10
3.900000
20
0.400000
30
0
0
VERTEX
8
PFV
62
0
70
32
10
3.866667
20
0.433333
30
0
0
VERTEX
8
PFV
62
0
70
32
10
3.833333
20
0.466667
30
0
0
VERTEX
8
PFV
62
0
70
32
10
3.800000
20
0.500000
30
0
0
VERTEX
8
PFV
62
0
70
32
10
3.766667
20
0.500000
30
0
0
SEQEND
0
POLYLINE
8
PFV
62
0
66
1
70
8
0
VERTEX
8
PFV
62
0
70
32
10
9.500000
20
0.466667
30
0
0
VERTEX
8
PFV
62
0
70
32
10
9.400000
20
1.066667
30
0
0
VERTEX
8
PFV
62
0
70
32
10
8.400000
20
1.566667
30
0
0
SEQEND
0
POLYLINE
8
PFV
62
0
66
1
70
8
0
VERTEX
8
PFV
62
0
70
32
10
3.866667
20
0.600000
30
0
0
VERTEX
8
PFV
62
0
70
32
10
3.933333
20
0.600000
30
0
0
SEQEND
0
POLYLINE
8
PFV
62
0
66
1
70
8
0
VERTEX
8
PFV
62
0
70
32
10
0.800000
20
0.766667
30
0
0
VERTEX
8
PFV
62
0
70
32
10
1.900000
20
0.766667
30
0
0
SEQEND
0
POLYLINE
8
PFV
62
0
66
1
70
8
0
VERTEX
8
PFV
62
0
70
32
10
3.866667
20
0.800000
30
0
0
VERTEX
8
PFV
62
0
70
32
10
3.966667
20
0.800000
30
0
0
SEQEND
0
POLYLINE
8
PFV
62
0
66
1
70
8
0
VERTEX
8
PFV
62
0
70
32
10
5.066667
20
0.833333
30
0
0
VERTEX
8
PFV
62
0
70
32
10
5.066667
20
1.066667
30
0
0
VERTEX
8
PFV
62
0
70
32
10
5.200000
20
1.300000
30
0
0
VERTEX
8
PFV
62
0
70
32
10
5.166667
20
1.400000
30
0
0
SEQEND
0
POLYLINE
8
PFV
62
0
66
1
70
8
0
VERTEX
8
PFV
62
0
70
32
10
3.900000
20
0.900000
30
0
0
VERTEX
8
PFV
62
0
70
32
10
3.900000
20
0.933333
30
0
0
SEQEND
0
POLYLINE
8
PFV
62
0
66
1
70
8
0
VERTEX
8
PFV
62
0
70
32
10
3.800000
20
0.933333
30
0
0
VERTEX
8
PFV
62
0
70
32
10
3.833333
20
0.933333
30
0
0
SEQEND
0
POLYLINE
8
PFV
62
0
66
1
70
8
0
VERTEX
8
PFV
62
0
70
32
10
4.400000
20
0.933333
30
0
0
VERTEX
8
PFV
62
0
70
32
10
4.500000
20
1.133333
30
0
0
VERTEX
8
PFV
62
0
70
32
10
4.533333
20
1.333333
30
0
0
SEQEND
0
POLYLINE
8
PFV
62
0
66
1
70
8
0
VERTEX
8
PFV
62
0
70
32
10
3.833333
20
1.133333
30
0
0
VERTEX
8
PFV
62
0
70
32
10
3.866667
20
1.133333
30
0
0
SEQEND
0
POLYLINE
8
PFV
62
0
66
1
70
8
0
VERTEX
8
PFV
62
0
70
32
10
3.900000
20
1.300000
30
0
0
VERTEX
8
PFV
62
0
70
32
10
3.966667
20
1.300000
30
0
0
SEQEND
0
ENDSEC
0
EOF
