0
SECTION
2
HEADER
0
ENDSEC
0
SECTION
2
TABLES
0
ENDSEC
0
SECTION
2
BLOCKS
0
ENDSEC
0
SECTION
2
ENTITIES
0
POLYLINE
8
PFV
62
0
66
1
70
8
0
VERTEX
8
PFV
62
0
70
32
10
3.966667
20
0.633333
30
0
0
VERTEX
8
PFV
62
0
70
32
10
4.000000
20
0.633333
30
0
0
VERTEX
8
PFV
62
0
70
32
10
4.033333
20
0.666667
30
0
0
VERTEX
8
PFV
62
0
70
32
10
4.066667
20
0.700000
30
0
0
SEQEND
0
POLYLINE
8
PFV
62
0
66
1
70
8
0
VERTEX
8
PFV
62
0
70
32
10
3.966667
20
0.633333
30
0
0
VERTEX
8
PFV
62
0
70
32
10
3.966667
20
0.400000
30
0
0
VERTEX
8
PFV
62
0
70
32
10
4.000000
20
0.366667
30
0
0
VERTEX
8
PFV
62
0
70
32
10
4.000000
20
0.233333
30
0
0
VERTEX
8
PFV
62
0
70
32
10
4.033333
20
0.200000
30
0
0
VERTEX
8
PFV
62
0
70
32
10
4.033333
20
0.166667
30
0
0
SEQEND
0
POLYLINE
8
PFV
62
0
66
1
70
8
0
VERTEX
8
PFV
62
0
70
32
10
3.966667
20
0.633333
30
0
0
VERTEX
8
PFV
62
0
70
32
10
3.933333
20
0.666667
30
0
0
VERTEX
8
PFV
62
0
70
32
10
3.933333
20
0.766667
30
0
0
VERTEX
8
PFV
62
0
70
32
10
3.966667
20
0.800000
30
0
0
VERTEX
8
PFV
62
0
70
32
10
3.966667
20
0.833333
30
0
0
SEQEND
0
POLYLINE
8
PFV
62
0
66
1
70
8
0
VERTEX
8
PFV
62
0
70
32
10
4.333333
20
0.066667
30
0
0
VERTEX
8
PFV
62
0
70
32
10
4.400000
20
0.066667
30
0
0
SEQEND
0
POLYLINE
8
PFV
62
0
66
1
70
8
0
VERTEX
8
PFV
62
0
70
32
10
6.633333
20
0.066667
30
0
0
VERTEX
8
PFV
62
0
70
32
10
6.600000
20
0.100000
30
0
0
VERTEX
8
PFV
62
0
70
32
10
6.600000
20
0.133333
30
0
0
VERTEX
8
PFV
62
0
70
32
10
6.700000
20
0.133333
30
0
0
VERTEX
8
PFV
62
0
70
32
10
6.733333
20
0.100000
30
0
0
VERTEX
8
PFV
62
0
70
32
10
6.733333
20
0.066667
30
0
0
SEQEND
0
POLYLINE
8
PFV
62
0
66
1
70
8
0
VERTEX
8
PFV
62
0
70
32
10
3.333333
20
0.166667
30
0
0
VERTEX
8
PFV
62
0
70
32
10
3.366667
20
0.166667
30
0
0
SEQEND
0
POLYLINE
8
PFV
62
0
66
1
70
8
0
VERTEX
8
PFV
62
0
70
32
10
4.366667
20
0.266667
30
0
0
VERTEX
8
PFV
62
0
70
32
10
4.466667
20
0.266667
30
0
0
SEQEND
0
POLYLINE
8
PFV
62
0
66
1
70
8
0
VERTEX
8
PFV
62
0
70
32
10
5.933333
20
0.266667
30
0
0
VERTEX
8
PFV
62
0
70
32
10
5.933333
20
0.333333
30
0
0
VERTEX
8
PFV
62
0
70
32
10
5.900000
20
0.333333
30
0
0
VERTEX
8
PFV
62
0
70
32
10
5.866667
20
0.366667
30
0
0
VERTEX
8
PFV
62
0
70
32
10
5.866667
20
0.433333
30
0
0
VERTEX
8
PFV
62
0
70
32
10
5.833333
20
0.466667
30
0
0
VERTEX
8
PFV
62
0
70
32
10
5.833333
20
0.566667
30
0
0
SEQEND
0
POLYLINE
8
PFV
62
0
66
1
70
8
0
VERTEX
8
PFV
62
0
70
32
10
6.366667
20
0.266667
30
0
0
VERTEX
8
PFV
62
0
70
32
10
6.400000
20
0.266667
30
0
0
SEQEND
0
POLYLINE
8
PFV
62
0
66
1
70
8
0
VERTEX
8
PFV
62
0
70
32
10
6.466667
20
0.266667
30
0
0
VERTEX
8
PFV
62
0
70
32
10
6.500000
20
0.266667
30
0
0
SEQEND
0
POLYLINE
8
PFV
62
0
66
1
70
8
0
VERTEX
8
PFV
62
0
70
32
10
6.666667
20
0.300000
30
0
0
VERTEX
8
PFV
62
0
70
32
10
6.766667
20
0.300000
30
0
0
SEQEND
0
POLYLINE
8
PFV
62
0
66
1
70
8
0
VERTEX
8
PFV
62
0
70
32
10
8.000000
20
0.300000
30
0
0
VERTEX
8
PFV
62
0
70
32
10
7.833333
20
0.866667
30
0
0
VERTEX
8
PFV
62
0
70
32
10
7.700000
20
1.333333
30
0
0
VERTEX
8
PFV
62
0
70
32
10
7.366667
20
1.566667
30
0
0
SEQEND
0
POLYLINE
8
PFV
62
0
66
1
70
8
0
VERTEX
8
PFV
62
0
70
32
10
3.366667
20
0.366667
30
0
0
VERTEX
8
PFV
62
0
70
32
10
3.400000
20
0.366667
30
0
0
SEQEND
0
POLYLINE
8
PFV
62
0
66
1
70
8
0
VERTEX
8
PFV
62
0
70
32
10
6.900000
20
0.366667
30
0
0
VERTEX
8
PFV
62
0
70
32
10
6.866667
20
0.400000
30
0
0
VERTEX
8
PFV
62
0
70
32
10
6.866667
20
0.433333
30
0
0
VERTEX
8
PFV
62
0
70
32
10
6.766667
20
0.433333
30
0
0
SEQEND
0
POLYLINE
8
PFV
62
0
66
1
70
8
0
VERTEX
8
PFV
62
0
70
32
10
9.600000
20
0.366667
30
0
0
VERTEX
8
PFV
62
0
70
32
10
9.566667
20
1.200000
30
0
0
VERTEX
8
PFV
62
0
70
32
10
9.100000
20
1.500000
30
0
0
SEQEND
0
POLYLINE
8
PFV
62
0
66
1
70
8
0
VERTEX
8
PFV
62
0
70
32
10
6.433333
20
0.433333
30
0
0
VERTEX
8
PFV
62
0
70
32
10
6.400000
20
0.466667
30
0
0
VERTEX
8
PFV
62
0
70
32
10
6.333333
20
0.466667
30
0
0
SEQEND
0
POLYLINE
8
PFV
62
0
66
1
70
8
0
VERTEX
8
PFV
62
0
70
32
10
6.533333
20
0.433333
30
0
0
VERTEX
8
PFV
62
0
70
32
10
6.566667
20
0.433333
30
0
0
SEQEND
0
POLYLINE
8
PFV
62
0
66
1
70
8
0
VERTEX
8
PFV
62
0
70
32
10
4.400000
20
0.466667
30
0
0
VERTEX
8
PFV
62
0
70
32
10
4.466667
20
0.466667
30
0
0
SEQEND
0
POLYLINE
8
PFV
62
0
66
1
70
8
0
VERTEX
8
PFV
62
0
70
32
10
3.433333
20
0.533333
30
0
0
VERTEX
8
PFV
62
0
70
32
10
3.500000
20
0.533333
30
0
0
SEQEND
0
POLYLINE
8
PFV
62
0
66
1
70
8
0
VERTEX
8
PFV
62
0
70
32
10
6.833333
20
0.566667
30
0
0
VERTEX
8
PFV
62
0
70
32
10
6.933333
20
0.566667
30
0
0
SEQEND
0
POLYLINE
8
PFV
62
0
66
1
70
8
0
VERTEX
8
PFV
62
0
70
32
10
6.433333
20
0.600000
30
0
0
VERTEX
8
PFV
62
0
70
32
10
6.500000
20
0.600000
30
0
0
SEQEND
0
POLYLINE
8
PFV
62
0
66
1
70
8
0
VERTEX
8
PFV
62
0
70
32
10
6.433333
20
0.600000
30
0
0
VERTEX
8
PFV
62
0
70
32
10
6.400000
20
0.633333
30
0
0
VERTEX
8
PFV
62
0
70
32
10
6.366667
20
0.666667
30
0
0
SEQEND
0
POLYLINE
8
PFV
62
0
66
1
70
8
0
VERTEX
8
PFV
62
0
70
32
10
4.433333
20
0.633333
30
0
0
VERTEX
8
PFV
62
0
70
32
10
4.533333
20
0.633333
30
0
0
SEQEND
0
POLYLINE
8
PFV
62
0
66
1
70
8
0
VERTEX
8
PFV
62
0
70
32
10
3.500000
20
0.700000
30
0
0
VERTEX
8
PFV
62
0
70
32
10
3.566667
20
0.700000
30
0
0
SEQEND
0
POLYLINE
8
PFV
62
0
66
1
70
8
0
VERTEX
8
PFV
62
0
70
32
10
0.800000
20
0.766667
30
0
0
VERTEX
8
PFV
62
0
70
32
10
1.900000
20
0.766667
30
0
0
SEQEND
0
POLYLINE
8
PFV
62
0
66
1
70
8
0
VERTEX
8
PFV
62
0
70
32
10
4.500000
20
0.800000
30
0
0
VERTEX
8
PFV
62
0
70
32
10
4.600000
20
0.800000
30
0
0
SEQEND
0
POLYLINE
8
PFV
62
0
66
1
70
8
0
VERTEX
8
PFV
62
0
70
32
10
6.366667
20
0.800000
30
0
0
VERTEX
8
PFV
62
0
70
32
10
6.466667
20
0.800000
30
0
0
SEQEND
0
POLYLINE
8
PFV
62
0
66
1
70
8
0
VERTEX
8
PFV
62
0
70
32
10
3.533333
20
0.866667
30
0
0
VERTEX
8
PFV
62
0
70
32
10
3.633333
20
0.866667
30
0
0
SEQEND
0
POLYLINE
8
PFV
62
0
66
1
70
8
0
VERTEX
8
PFV
62
0
70
32
10
4.066667
20
0.866667
30
0
0
VERTEX
8
PFV
62
0
70
32
10
4.100000
20
0.866667
30
0
0
SEQEND
0
POLYLINE
8
PFV
62
0
66
1
70
8
0
VERTEX
8
PFV
62
0
70
32
10
6.166667
20
0.900000
30
0
0
VERTEX
8
PFV
62
0
70
32
10
6.166667
20
0.933333
30
0
0
SEQEND
0
POLYLINE
8
PFV
62
0
66
1
70
8
0
VERTEX
8
PFV
62
0
70
32
10
6.266667
20
0.900000
30
0
0
VERTEX
8
PFV
62
0
70
32
10
6.400000
20
0.900000
30
0
0
SEQEND
0
POLYLINE
8
PFV
62
0
66
1
70
8
0
VERTEX
8
PFV
62
0
70
32
10
4.600000
20
0.933333
30
0
0
VERTEX
8
PFV
62
0
70
32
10
4.700000
20
0.933333
30
0
0
SEQEND
0
POLYLINE
8
PFV
62
0
66
1
70
8
0
VERTEX
8
PFV
62
0
70
32
10
3.733333
20
1.000000
30
0
0
VERTEX
8
PFV
62
0
70
32
10
3.766667
20
1.000000
30
0
0
SEQEND
0
POLYLINE
8
PFV
62
0
66
1
70
8
0
VERTEX
8
PFV
62
0
70
32
10
3.733333
20
1.000000
30
0
0
VERTEX
8
PFV
62
0
70
32
10
3.700000
20
1.033333
30
0
0
VERTEX
8
PFV
62
0
70
32
10
3.700000
20
1.066667
30
0
0
VERTEX
8
PFV
62
0
70
32
10
3.633333
20
1.066667
30
0
0
SEQEND
0
POLYLINE
8
PFV
62
0
66
1
70
8
0
VERTEX
8
PFV
62
0
70
32
10
4.000000
20
1.033333
30
0
0
VERTEX
8
PFV
62
0
70
32
10
4.133333
20
1.033333
30
0
0
SEQEND
0
POLYLINE
8
PFV
62
0
66
1
70
8
0
VERTEX
8
PFV
62
0
70
32
10
6.400000
20
1.033333
30
0
0
VERTEX
8
PFV
62
0
70
32
10
6.500000
20
1.033333
30
0
0
SEQEND
0
POLYLINE
8
PFV
62
0
66
1
70
8
0
VERTEX
8
PFV
62
0
70
32
10
4.733333
20
1.066667
30
0
0
VERTEX
8
PFV
62
0
70
32
10
4.700000
20
1.100000
30
0
0
VERTEX
8
PFV
62
0
70
32
10
4.666667
20
1.100000
30
0
0
SEQEND
0
POLYLINE
8
PFV
62
0
66
1
70
8
0
VERTEX
8
PFV
62
0
70
32
10
6.133333
20
1.100000
30
0
0
VERTEX
8
PFV
62
0
70
32
10
6.066667
20
1.300000
30
0
0
VERTEX
8
PFV
62
0
70
32
10
6.100000
20
1.500000
30
0
0
SEQEND
0
POLYLINE
8
PFV
62
0
66
1
70
8
0
VERTEX
8
PFV
62
0
70
32
10
3.966667
20
1.200000
30
0
0
VERTEX
8
PFV
62
0
70
32
10
4.100000
20
1.200000
30
0
0
SEQEND
0
POLYLINE
8
PFV
62
0
66
1
70
8
0
VERTEX
8
PFV
62
0
70
32
10
3.966667
20
1.200000
30
0
0
VERTEX
8
PFV
62
0
70
32
10
3.933333
20
1.233333
30
0
0
SEQEND
0
POLYLINE
8
PFV
62
0
66
1
70
8
0
VERTEX
8
PFV
62
0
70
32
10
4.766667
20
1.233333
30
0
0
VERTEX
8
PFV
62
0
70
32
10
4.833333
20
1.233333
30
0
0
SEQEND
0
POLYLINE
8
PFV
62
0
66
1
70
8
0
VERTEX
8
PFV
62
0
70
32
10
6.433333
20
1.233333
30
0
0
VERTEX
8
PFV
62
0
70
32
10
6.500000
20
1.233333
30
0
0
SEQEND
0
POLYLINE
8
PFV
62
0
66
1
70
8
0
VERTEX
8
PFV
62
0
70
32
10
6.333333
20
1.300000
30
0
0
VERTEX
8
PFV
62
0
70
32
10
6.433333
20
1.300000
30
0
0
SEQEND
0
POLYLINE
8
PFV
62
0
66
1
70
8
0
VERTEX
8
PFV
62
0
70
32
10
3.966667
20
1.366667
30
0
0
VERTEX
8
PFV
62
0
70
32
10
4.033333
20
1.366667
30
0
0
SEQEND
0
POLYLINE
8
PFV
62
0
66
1
70
8
0
VERTEX
8
PFV
62
0
70
32
10
3.966667
20
1.366667
30
0
0
VERTEX
8
PFV
62
0
70
32
10
3.933333
20
1.400000
30
0
0
VERTEX
8
PFV
62
0
70
32
10
3.866667
20
1.400000
30
0
0
SEQEND
0
POLYLINE
8
PFV
62
0
66
1
70
8
0
VERTEX
8
PFV
62
0
70
32
10
6.466667
20
1.466667
30
0
0
VERTEX
8
PFV
62
0
70
32
10
6.433333
20
1.500000
30
0
0
SEQEND
0
POLYLINE
8
PFV
62
0
66
1
70
8
0
VERTEX
8
PFV
62
0
70
32
10
3.866667
20
1.566667
30
0
0
VERTEX
8
PFV
62
0
70
32
10
4.033333
20
1.566667
30
0
0
SEQEND
0
ENDSEC
0
EOF
