0
SECTION
2
HEADER
0
ENDSEC
0
SECTION
2
TABLES
0
ENDSEC
0
SECTION
2
BLOCKS
0
ENDSEC
0
SECTION
2
ENTITIES
0
POLYLINE
8
PFV
62
0
66
1
70
8
0
VERTEX
8
PFV
62
0
70
32
10
5.000000
20
1.300000
30
0
0
VERTEX
8
PFV
62
0
70
32
10
5.000000
20
1.366667
30
0
0
VERTEX
8
PFV
62
0
70
32
10
4.966667
20
1.400000
30
0
0
VERTEX
8
PFV
62
0
70
32
10
4.966667
20
1.433333
30
0
0
SEQEND
0
POLYLINE
8
PFV
62
0
66
1
70
8
0
VERTEX
8
PFV
62
0
70
32
10
5.000000
20
1.300000
30
0
0
VERTEX
8
PFV
62
0
70
32
10
5.100000
20
1.300000
30
0
0
VERTEX
8
PFV
62
0
70
32
10
5.100000
20
1.366667
30
0
0
SEQEND
0
POLYLINE
8
PFV
62
0
66
1
70
8
0
VERTEX
8
PFV
62
0
70
32
10
5.000000
20
1.300000
30
0
0
VERTEX
8
PFV
62
0
70
32
10
5.000000
20
1.233333
30
0
0
SEQEND
0
POLYLINE
8
PFV
62
0
66
1
70
8
0
VERTEX
8
PFV
62
0
70
32
10
3.133333
20
0.000000
30
0
0
VERTEX
8
PFV
62
0
70
32
10
3.133333
20
0.033333
30
0
0
SEQEND
0
POLYLINE
8
PFV
62
0
66
1
70
8
0
VERTEX
8
PFV
62
0
70
32
10
4.100000
20
0.000000
30
0
0
VERTEX
8
PFV
62
0
70
32
10
4.200000
20
0.000000
30
0
0
SEQEND
0
POLYLINE
8
PFV
62
0
66
1
70
8
0
VERTEX
8
PFV
62
0
70
32
10
4.100000
20
0.000000
30
0
0
VERTEX
8
PFV
62
0
70
32
10
4.066667
20
0.033333
30
0
0
SEQEND
0
POLYLINE
8
PFV
62
0
66
1
70
8
0
VERTEX
8
PFV
62
0
70
32
10
4.933333
20
0.000000
30
0
0
VERTEX
8
PFV
62
0
70
32
10
5.233333
20
0.000000
30
0
0
SEQEND
0
POLYLINE
8
PFV
62
0
66
1
70
8
0
VERTEX
8
PFV
62
0
70
32
10
2.800000
20
0.100000
30
0
0
VERTEX
8
PFV
62
0
70
32
10
2.900000
20
0.100000
30
0
0
SEQEND
0
POLYLINE
8
PFV
62
0
66
1
70
8
0
VERTEX
8
PFV
62
0
70
32
10
2.800000
20
0.100000
30
0
0
VERTEX
8
PFV
62
0
70
32
10
2.466667
20
0.166667
30
0
0
VERTEX
8
PFV
62
0
70
32
10
1.866667
20
0.766667
30
0
0
VERTEX
8
PFV
62
0
70
32
10
0.800000
20
0.766667
30
0
0
SEQEND
0
POLYLINE
8
PFV
62
0
66
1
70
8
0
VERTEX
8
PFV
62
0
70
32
10
4.166667
20
0.166667
30
0
0
VERTEX
8
PFV
62
0
70
32
10
4.233333
20
0.166667
30
0
0
SEQEND
0
POLYLINE
8
PFV
62
0
66
1
70
8
0
VERTEX
8
PFV
62
0
70
32
10
4.000000
20
0.233333
30
0
0
VERTEX
8
PFV
62
0
70
32
10
4.133333
20
0.233333
30
0
0
SEQEND
0
POLYLINE
8
PFV
62
0
66
1
70
8
0
VERTEX
8
PFV
62
0
70
32
10
7.300000
20
0.400000
30
0
0
VERTEX
8
PFV
62
0
70
32
10
7.233333
20
0.500000
30
0
0
VERTEX
8
PFV
62
0
70
32
10
7.233333
20
1.300000
30
0
0
VERTEX
8
PFV
62
0
70
32
10
7.233333
20
1.466667
30
0
0
VERTEX
8
PFV
62
0
70
32
10
7.133333
20
1.466667
30
0
0
SEQEND
0
POLYLINE
8
PFV
62
0
66
1
70
8
0
VERTEX
8
PFV
62
0
70
32
10
7.300000
20
0.400000
30
0
0
VERTEX
8
PFV
62
0
70
32
10
7.700000
20
0.533333
30
0
0
VERTEX
8
PFV
62
0
70
32
10
7.833333
20
0.833333
30
0
0
VERTEX
8
PFV
62
0
70
32
10
7.900000
20
1.333333
30
0
0
VERTEX
8
PFV
62
0
70
32
10
7.733333
20
1.400000
30
0
0
SEQEND
0
POLYLINE
8
PFV
62
0
66
1
70
8
0
VERTEX
8
PFV
62
0
70
32
10
7.300000
20
0.400000
30
0
0
VERTEX
8
PFV
62
0
70
32
10
7.266667
20
0.433333
30
0
0
SEQEND
0
POLYLINE
8
PFV
62
0
66
1
70
8
0
VERTEX
8
PFV
62
0
70
32
10
4.133333
20
0.433333
30
0
0
VERTEX
8
PFV
62
0
70
32
10
4.200000
20
0.433333
30
0
0
SEQEND
0
POLYLINE
8
PFV
62
0
66
1
70
8
0
VERTEX
8
PFV
62
0
70
32
10
5.033333
20
0.433333
30
0
0
VERTEX
8
PFV
62
0
70
32
10
5.000000
20
0.733333
30
0
0
VERTEX
8
PFV
62
0
70
32
10
4.900000
20
0.800000
30
0
0
VERTEX
8
PFV
62
0
70
32
10
4.833333
20
1.000000
30
0
0
VERTEX
8
PFV
62
0
70
32
10
4.733333
20
1.000000
30
0
0
SEQEND
0
POLYLINE
8
PFV
62
0
66
1
70
8
0
VERTEX
8
PFV
62
0
70
32
10
9.533333
20
0.433333
30
0
0
VERTEX
8
PFV
62
0
70
32
10
9.533333
20
0.733333
30
0
0
VERTEX
8
PFV
62
0
70
32
10
9.566667
20
0.766667
30
0
0
VERTEX
8
PFV
62
0
70
32
10
9.566667
20
1.166667
30
0
0
SEQEND
0
POLYLINE
8
PFV
62
0
66
1
70
8
0
VERTEX
8
PFV
62
0
70
32
10
2.933333
20
0.500000
30
0
0
VERTEX
8
PFV
62
0
70
32
10
2.900000
20
0.533333
30
0
0
SEQEND
0
POLYLINE
8
PFV
62
0
66
1
70
8
0
VERTEX
8
PFV
62
0
70
32
10
4.033333
20
0.533333
30
0
0
VERTEX
8
PFV
62
0
70
32
10
4.033333
20
0.600000
30
0
0
SEQEND
0
POLYLINE
8
PFV
62
0
66
1
70
8
0
VERTEX
8
PFV
62
0
70
32
10
4.100000
20
0.700000
30
0
0
VERTEX
8
PFV
62
0
70
32
10
4.100000
20
0.733333
30
0
0
VERTEX
8
PFV
62
0
70
32
10
4.066667
20
0.766667
30
0
0
VERTEX
8
PFV
62
0
70
32
10
4.066667
20
0.800000
30
0
0
SEQEND
0
POLYLINE
8
PFV
62
0
66
1
70
8
0
VERTEX
8
PFV
62
0
70
32
10
4.100000
20
0.700000
30
0
0
VERTEX
8
PFV
62
0
70
32
10
4.133333
20
0.700000
30
0
0
VERTEX
8
PFV
62
0
70
32
10
4.166667
20
0.733333
30
0
0
VERTEX
8
PFV
62
0
70
32
10
4.200000
20
0.733333
30
0
0
SEQEND
0
POLYLINE
8
PFV
62
0
66
1
70
8
0
VERTEX
8
PFV
62
0
70
32
10
4.266667
20
0.700000
30
0
0
VERTEX
8
PFV
62
0
70
32
10
4.300000
20
0.700000
30
0
0
SEQEND
0
POLYLINE
8
PFV
62
0
66
1
70
8
0
VERTEX
8
PFV
62
0
70
32
10
5.100000
20
1.033333
30
0
0
VERTEX
8
PFV
62
0
70
32
10
5.166667
20
1.033333
30
0
0
SEQEND
0
POLYLINE
8
PFV
62
0
66
1
70
8
0
VERTEX
8
PFV
62
0
70
32
10
4.700000
20
1.100000
30
0
0
VERTEX
8
PFV
62
0
70
32
10
4.766667
20
1.100000
30
0
0
SEQEND
0
POLYLINE
8
PFV
62
0
66
1
70
8
0
VERTEX
8
PFV
62
0
70
32
10
4.133333
20
1.266667
30
0
0
VERTEX
8
PFV
62
0
70
32
10
4.100000
20
1.300000
30
0
0
VERTEX
8
PFV
62
0
70
32
10
4.100000
20
1.333333
30
0
0
VERTEX
8
PFV
62
0
70
32
10
4.133333
20
1.366667
30
0
0
VERTEX
8
PFV
62
0
70
32
10
4.133333
20
1.433333
30
0
0
SEQEND
0
POLYLINE
8
PFV
62
0
66
1
70
8
0
VERTEX
8
PFV
62
0
70
32
10
5.166667
20
1.266667
30
0
0
VERTEX
8
PFV
62
0
70
32
10
5.166667
20
1.300000
30
0
0
SEQEND
0
POLYLINE
8
PFV
62
0
66
1
70
8
0
VERTEX
8
PFV
62
0
70
32
10
4.533333
20
1.400000
30
0
0
VERTEX
8
PFV
62
0
70
32
10
4.600000
20
1.400000
30
0
0
SEQEND
0
POLYLINE
8
PFV
62
0
66
1
70
8
0
VERTEX
8
PFV
62
0
70
32
10
4.733333
20
1.400000
30
0
0
VERTEX
8
PFV
62
0
70
32
10
4.766667
20
1.400000
30
0
0
SEQEND
0
POLYLINE
8
PFV
62
0
66
1
70
8
0
VERTEX
8
PFV
62
0
70
32
10
4.666667
20
1.533333
30
0
0
VERTEX
8
PFV
62
0
70
32
10
4.666667
20
1.566667
30
0
0
SEQEND
0
POLYLINE
8
PFV
62
0
66
1
70
8
0
VERTEX
8
PFV
62
0
70
32
10
4.966667
20
1.533333
30
0
0
VERTEX
8
PFV
62
0
70
32
10
4.966667
20
1.566667
30
0
0
SEQEND
0
POLYLINE
8
PFV
62
0
66
1
70
8
0
VERTEX
8
PFV
62
0
70
32
10
3.133333
20
1.566667
30
0
0
VERTEX
8
PFV
62
0
70
32
10
3.266667
20
1.566667
30
0
0
SEQEND
0
POLYLINE
8
PFV
62
0
66
1
70
8
0
VERTEX
8
PFV
62
0
70
32
10
4.466667
20
1.566667
30
0
0
VERTEX
8
PFV
62
0
70
32
10
4.566667
20
1.566667
30
0
0
SEQEND
0
ENDSEC
0
EOF
