0
SECTION
2
HEADER
0
ENDSEC
0
SECTION
2
TABLES
0
ENDSEC
0
SECTION
2
BLOCKS
0
ENDSEC
0
SECTION
2
ENTITIES
0
POLYLINE
8
PFV
62
0
66
1
70
8
0
VERTEX
8
PFV
62
0
70
32
10
6.500000
20
0.266667
30
0
0
VERTEX
8
PFV
62
0
70
32
10
6.700000
20
0.266667
30
0
0
VERTEX
8
PFV
62
0
70
32
10
6.700000
20
0.100000
30
0
0
VERTEX
8
PFV
62
0
70
32
10
6.500000
20
0.100000
30
0
0
VERTEX
8
PFV
62
0
70
32
10
6.466667
20
0.333333
30
0
0
VERTEX
8
PFV
62
0
70
32
10
6.466667
20
0.533333
30
0
0
VERTEX
8
PFV
62
0
70
32
10
6.466667
20
0.666667
30
0
0
VERTEX
8
PFV
62
0
70
32
10
6.366667
20
0.866667
30
0
0
VERTEX
8
PFV
62
0
70
32
10
6.166667
20
1.000000
30
0
0
VERTEX
8
PFV
62
0
70
32
10
6.066667
20
1.133333
30
0
0
VERTEX
8
PFV
62
0
70
32
10
6.333333
20
1.366667
30
0
0
VERTEX
8
PFV
62
0
70
32
10
6.800000
20
1.366667
30
0
0
VERTEX
8
PFV
62
0
70
32
10
6.933333
20
1.266667
30
0
0
VERTEX
8
PFV
62
0
70
32
10
6.933333
20
0.833333
30
0
0
VERTEX
8
PFV
62
0
70
32
10
6.866667
20
0.700000
30
0
0
VERTEX
8
PFV
62
0
70
32
10
6.700000
20
0.600000
30
0
0
VERTEX
8
PFV
62
0
70
32
10
6.700000
20
0.266667
30
0
0
SEQEND
0
POLYLINE
8
PFV
62
0
66
1
70
8
0
VERTEX
8
PFV
62
0
70
32
10
6.500000
20
0.266667
30
0
0
VERTEX
8
PFV
62
0
70
32
10
6.466667
20
0.266667
30
0
0
SEQEND
0
POLYLINE
8
PFV
62
0
66
1
70
8
0
VERTEX
8
PFV
62
0
70
32
10
6.700000
20
0.566667
30
0
0
VERTEX
8
PFV
62
0
70
32
10
6.633333
20
0.566667
30
0
0
VERTEX
8
PFV
62
0
70
32
10
6.600000
20
0.600000
30
0
0
VERTEX
8
PFV
62
0
70
32
10
6.500000
20
0.600000
30
0
0
SEQEND
0
POLYLINE
8
PFV
62
0
66
1
70
8
0
VERTEX
8
PFV
62
0
70
32
10
3.300000
20
0.600000
30
0
0
VERTEX
8
PFV
62
0
70
32
10
3.300000
20
0.500000
30
0
0
SEQEND
0
POLYLINE
8
PFV
62
0
66
1
70
8
0
VERTEX
8
PFV
62
0
70
32
10
3.300000
20
0.600000
30
0
0
VERTEX
8
PFV
62
0
70
32
10
3.633333
20
0.933333
30
0
0
VERTEX
8
PFV
62
0
70
32
10
4.066667
20
0.966667
30
0
0
VERTEX
8
PFV
62
0
70
32
10
4.233333
20
1.200000
30
0
0
VERTEX
8
PFV
62
0
70
32
10
4.000000
20
1.400000
30
0
0
VERTEX
8
PFV
62
0
70
32
10
3.566667
20
1.366667
30
0
0
VERTEX
8
PFV
62
0
70
32
10
3.266667
20
1.066667
30
0
0
VERTEX
8
PFV
62
0
70
32
10
3.066667
20
1.200000
30
0
0
VERTEX
8
PFV
62
0
70
32
10
2.700000
20
1.233333
30
0
0
VERTEX
8
PFV
62
0
70
32
10
2.466667
20
1.500000
30
0
0
VERTEX
8
PFV
62
0
70
32
10
2.100000
20
1.500000
30
0
0
VERTEX
8
PFV
62
0
70
32
10
2.000000
20
1.433333
30
0
0
VERTEX
8
PFV
62
0
70
32
10
2.000000
20
0.966667
30
0
0
VERTEX
8
PFV
62
0
70
32
10
2.033333
20
0.933333
30
0
0
SEQEND
0
POLYLINE
8
PFV
62
0
66
1
70
8
0
VERTEX
8
PFV
62
0
70
32
10
3.300000
20
0.600000
30
0
0
VERTEX
8
PFV
62
0
70
32
10
3.200000
20
0.600000
30
0
0
VERTEX
8
PFV
62
0
70
32
10
3.000000
20
0.400000
30
0
0
VERTEX
8
PFV
62
0
70
32
10
2.633333
20
0.433333
30
0
0
VERTEX
8
PFV
62
0
70
32
10
2.500000
20
0.866667
30
0
0
VERTEX
8
PFV
62
0
70
32
10
2.766667
20
1.200000
30
0
0
SEQEND
0
POLYLINE
8
PFV
62
0
66
1
70
8
0
VERTEX
8
PFV
62
0
70
32
10
6.500000
20
0.600000
30
0
0
VERTEX
8
PFV
62
0
70
32
10
6.466667
20
0.633333
30
0
0
SEQEND
0
POLYLINE
8
PFV
62
0
66
1
70
8
0
VERTEX
8
PFV
62
0
70
32
10
6.633333
20
0.600000
30
0
0
VERTEX
8
PFV
62
0
70
32
10
6.633333
20
0.733333
30
0
0
VERTEX
8
PFV
62
0
70
32
10
6.666667
20
0.766667
30
0
0
VERTEX
8
PFV
62
0
70
32
10
6.633333
20
0.800000
30
0
0
VERTEX
8
PFV
62
0
70
32
10
6.600000
20
0.766667
30
0
0
VERTEX
8
PFV
62
0
70
32
10
6.600000
20
0.733333
30
0
0
VERTEX
8
PFV
62
0
70
32
10
6.633333
20
0.733333
30
0
0
SEQEND
0
POLYLINE
8
PFV
62
0
66
1
70
8
0
VERTEX
8
PFV
62
0
70
32
10
3.233333
20
0.633333
30
0
0
VERTEX
8
PFV
62
0
70
32
10
3.233333
20
1.066667
30
0
0
SEQEND
0
POLYLINE
8
PFV
62
0
66
1
70
8
0
VERTEX
8
PFV
62
0
70
32
10
6.800000
20
0.700000
30
0
0
VERTEX
8
PFV
62
0
70
32
10
6.800000
20
0.766667
30
0
0
VERTEX
8
PFV
62
0
70
32
10
6.866667
20
0.766667
30
0
0
SEQEND
0
POLYLINE
8
PFV
62
0
66
1
70
8
0
VERTEX
8
PFV
62
0
70
32
10
6.800000
20
0.700000
30
0
0
VERTEX
8
PFV
62
0
70
32
10
6.800000
20
0.666667
30
0
0
SEQEND
0
POLYLINE
8
PFV
62
0
66
1
70
8
0
VERTEX
8
PFV
62
0
70
32
10
6.633333
20
0.733333
30
0
0
VERTEX
8
PFV
62
0
70
32
10
6.666667
20
0.733333
30
0
0
SEQEND
0
POLYLINE
8
PFV
62
0
66
1
70
8
0
VERTEX
8
PFV
62
0
70
32
10
3.233333
20
1.066667
30
0
0
VERTEX
8
PFV
62
0
70
32
10
3.200000
20
1.100000
30
0
0
SEQEND
0
POLYLINE
8
PFV
62
0
66
1
70
8
0
VERTEX
8
PFV
62
0
70
32
10
5.133333
20
1.133333
30
0
0
VERTEX
8
PFV
62
0
70
32
10
5.333333
20
1.366667
30
0
0
VERTEX
8
PFV
62
0
70
32
10
5.800000
20
1.366667
30
0
0
VERTEX
8
PFV
62
0
70
32
10
6.033333
20
1.133333
30
0
0
VERTEX
8
PFV
62
0
70
32
10
5.800000
20
0.866667
30
0
0
VERTEX
8
PFV
62
0
70
32
10
5.300000
20
0.933333
30
0
0
VERTEX
8
PFV
62
0
70
32
10
5.100000
20
1.133333
30
0
0
VERTEX
8
PFV
62
0
70
32
10
4.233333
20
1.166667
30
0
0
SEQEND
0
POLYLINE
8
PFV
62
0
66
1
70
8
0
VERTEX
8
PFV
62
0
70
32
10
4.233333
20
1.166667
30
0
0
VERTEX
8
PFV
62
0
70
32
10
4.200000
20
1.200000
30
0
0
SEQEND
0
ENDSEC
0
EOF
