999
"DXF R12 Output" (www.mydxf.blogspot.com)
 0 
SECTION
 2 
HEADER
 9 
$ACADVER
 1 
AC1009
 9 
$EXTMIN
 10 
 0 
 20 
 0 
 9 
$EXTMAX
 10 
 8.5 
 20 
 11 
 0 
ENDSEC
 0 
SECTION
 2 
ENTITIES
0
LINE
8
Layer 1
10
-50.054654
20
257.559729
11
-52.161878
21
257.436430
0
LINE
8
Layer 1
10
-52.161878
20
257.436430
11
-53.677883
21
257.078432
0
LINE
8
Layer 1
10
-53.677883
20
257.078432
11
-54.813228
21
256.453964
0
LINE
8
Layer 1
10
-54.813228
20
256.453964
11
-55.778473
21
255.531257
0
LINE
8
Layer 1
10
-55.778473
20
255.531257
11
-56.763746
21
254.131117
0
LINE
8
Layer 1
10
-56.763746
20
254.131117
11
-57.442445
21
252.456790
0
LINE
8
Layer 1
10
-57.442445
20
252.456790
11
-57.860218
21
250.355166
0
LINE
8
Layer 1
10
-57.860218
20
250.355166
11
-58.062709
21
247.673132
0
LINE
8
Layer 1
10
-58.062709
20
247.673132
11
-58.076768
21
244.676945
0
LINE
8
Layer 1
10
-58.076768
20
244.676945
11
-57.862435
21
241.844941
0
LINE
8
Layer 1
10
-57.862435
20
241.844941
11
-57.382233
21
238.873300
0
LINE
8
Layer 1
10
-57.382233
20
238.873300
11
-56.598682
21
235.458202
0
LINE
8
Layer 1
10
-56.598682
20
235.458202
11
-55.508783
21
231.635977
0
LINE
8
Layer 1
10
-55.508783
20
231.635977
11
-54.159908
21
227.780798
0
LINE
8
Layer 1
10
-54.159908
20
227.780798
11
-52.511270
21
223.784547
0
LINE
8
Layer 1
10
-52.511270
20
223.784547
11
-50.522084
21
219.539104
0
LINE
8
Layer 1
10
-50.522084
20
219.539104
11
-47.681078
21
214.046567
0
LINE
8
Layer 1
10
-47.681078
20
214.046567
11
-44.789999
21
209.066980
0
LINE
8
Layer 1
10
-44.789999
20
209.066980
11
-41.559095
21
204.131007
0
LINE
8
Layer 1
10
-41.559095
20
204.131007
11
-37.698612
21
198.769313
0
LINE
8
Layer 1
10
-37.698612
20
198.769313
11
-34.576529
21
194.580077
0
LINE
8
Layer 1
10
-34.576529
20
194.580077
11
-34.541251
21
191.431535
0
LINE
8
Layer 1
10
-34.541251
20
191.431535
11
-34.411227
21
188.942171
0
LINE
8
Layer 1
10
-34.411227
20
188.942171
11
-33.946454
21
186.647505
0
LINE
8
Layer 1
10
-33.946454
20
186.647505
11
-32.934618
21
183.801365
0
LINE
8
Layer 1
10
-32.934618
20
183.801365
11
-31.163404
21
179.657577
0
LINE
8
Layer 1
10
-31.163404
20
179.657577
11
-29.701125
21
176.214733
0
LINE
8
Layer 1
10
-29.701125
20
176.214733
11
-28.792614
21
173.569688
0
LINE
8
Layer 1
10
-28.792614
20
173.569688
11
-28.194168
21
170.855324
0
LINE
8
Layer 1
10
-28.194168
20
170.855324
11
-27.662086
21
167.204521
0
LINE
8
Layer 1
10
-27.662086
20
167.204521
11
-26.744863
21
161.321952
0
LINE
8
Layer 1
10
-26.744863
20
161.321952
11
-26.195113
21
159.561729
0
LINE
8
Layer 1
10
-26.195113
20
159.561729
11
-25.413960
21
157.915160
0
LINE
8
Layer 1
10
-25.413960
20
157.915160
11
-24.475845
21
156.514573
0
LINE
8
Layer 1
10
-24.475845
20
156.514573
11
-23.455211
21
155.492299
0
LINE
8
Layer 1
10
-23.455211
20
155.492299
11
-22.220488
21
154.548618
0
LINE
8
Layer 1
10
-22.220488
20
154.548618
11
-22.264586
21
151.638202
0
LINE
8
Layer 1
10
-22.264586
20
151.638202
11
-22.217782
21
149.563091
0
LINE
8
Layer 1
10
-22.217782
20
149.563091
11
-22.009655
21
147.481124
0
LINE
8
Layer 1
10
-22.009655
20
147.481124
11
-21.645029
21
145.409321
0
LINE
8
Layer 1
10
-21.645029
20
145.409321
11
-21.128726
21
143.364703
0
LINE
8
Layer 1
10
-21.128726
20
143.364703
11
-20.465568
21
141.364289
0
LINE
8
Layer 1
10
-20.465568
20
141.364289
11
-19.660379
21
139.425101
0
LINE
8
Layer 1
10
-19.660379
20
139.425101
11
-18.717981
21
137.564157
0
LINE
8
Layer 1
10
-18.717981
20
137.564157
11
-17.643197
21
135.798479
0
LINE
8
Layer 1
10
-17.643197
20
135.798479
11
-16.420315
21
134.110536
0
LINE
8
Layer 1
10
-16.420315
20
134.110536
11
-15.192157
21
132.740421
0
LINE
8
Layer 1
10
-15.192157
20
132.740421
11
-13.882036
21
131.611695
0
LINE
8
Layer 1
10
-13.882036
20
131.611695
11
-12.413266
21
130.647924
0
LINE
8
Layer 1
10
-12.413266
20
130.647924
11
-11.028613
21
129.827716
0
LINE
8
Layer 1
10
-11.028613
20
129.827716
11
-12.307433
21
128.257854
0
LINE
8
Layer 1
10
-12.307433
20
128.257854
11
-14.141693
21
126.029606
0
LINE
8
Layer 1
10
-14.141693
20
126.029606
11
-14.751119
21
124.959423
0
LINE
8
Layer 1
10
-14.751119
20
124.959423
11
-15.184604
21
123.819430
0
LINE
8
Layer 1
10
-15.184604
20
123.819430
11
-15.464046
21
122.535298
0
LINE
8
Layer 1
10
-15.464046
20
122.535298
11
-15.611342
21
121.032701
0
LINE
8
Layer 1
10
-15.611342
20
121.032701
11
-15.597086
21
117.074799
0
LINE
8
Layer 1
10
-15.597086
20
117.074799
11
-15.531231
21
113.956070
0
LINE
8
Layer 1
10
-15.531231
20
113.956070
11
-15.711862
21
111.726695
0
LINE
8
Layer 1
10
-15.711862
20
111.726695
11
-16.278282
21
109.569636
0
LINE
8
Layer 1
10
-16.278282
20
109.569636
11
-17.369794
21
106.667854
0
LINE
8
Layer 1
10
-17.369794
20
106.667854
11
-18.352532
21
103.741150
0
LINE
8
Layer 1
10
-18.352532
20
103.741150
11
-18.583026
21
102.579515
0
LINE
8
Layer 1
10
-18.583026
20
102.579515
11
-18.638591
21
101.594631
0
LINE
8
Layer 1
10
-18.638591
20
101.594631
11
-18.518469
21
100.768200
0
LINE
8
Layer 1
10
-18.518469
20
100.768200
11
-18.221901
21
100.081928
0
LINE
8
Layer 1
10
-18.221901
20
100.081928
11
-17.748128
21
99.517518
0
LINE
8
Layer 1
10
-17.748128
20
99.517518
11
-17.096391
21
99.056674
0
LINE
8
Layer 1
10
-17.096391
20
99.056674
11
-16.897314
21
98.879412
0
LINE
8
Layer 1
10
-16.897314
20
98.879412
11
-16.829811
21
98.572241
0
LINE
8
Layer 1
10
-16.829811
20
98.572241
11
-17.087572
21
97.134035
0
LINE
8
Layer 1
10
-17.087572
20
97.134035
11
-17.484447
21
94.452924
0
LINE
8
Layer 1
10
-17.484447
20
94.452924
11
-17.330083
21
93.372321
0
LINE
8
Layer 1
10
-17.330083
20
93.372321
11
-16.912961
21
92.261331
0
LINE
8
Layer 1
10
-16.912961
20
92.261331
11
-16.296513
21
91.249541
0
LINE
8
Layer 1
10
-16.296513
20
91.249541
11
-15.544169
21
90.466535
0
LINE
8
Layer 1
10
-15.544169
20
90.466535
11
-14.653405
21
89.769799
0
LINE
8
Layer 1
10
-14.653405
20
89.769799
11
-15.217850
21
88.482160
0
LINE
8
Layer 1
10
-15.217850
20
88.482160
11
-15.671182
21
87.127427
0
LINE
8
Layer 1
10
-15.671182
20
87.127427
11
-16.012855
21
85.501374
0
LINE
8
Layer 1
10
-16.012855
20
85.501374
11
-16.190741
21
83.925940
0
LINE
8
Layer 1
10
-16.190741
20
83.925940
11
-16.152711
21
82.723063
0
LINE
8
Layer 1
10
-16.152711
20
82.723063
11
-15.933121
21
82.009308
0
LINE
8
Layer 1
10
-15.933121
20
82.009308
11
-15.614725
21
81.453063
0
LINE
8
Layer 1
10
-15.614725
20
81.453063
11
-15.373555
21
80.897183
0
LINE
8
Layer 1
10
-15.373555
20
80.897183
11
-15.394238
21
80.156604
0
LINE
8
Layer 1
10
-15.394238
20
80.156604
11
-15.424064
21
79.162404
0
LINE
8
Layer 1
10
-15.424064
20
79.162404
11
-15.186974
21
77.997962
0
LINE
8
Layer 1
10
-15.186974
20
77.997962
11
-14.716173
21
76.775133
0
LINE
8
Layer 1
10
-14.716173
20
76.775133
11
-14.044863
21
75.605771
0
LINE
8
Layer 1
10
-14.044863
20
75.605771
11
-13.184809
21
74.620179
0
LINE
8
Layer 1
10
-13.184809
20
74.620179
11
-12.079411
21
73.688262
0
LINE
8
Layer 1
10
-12.079411
20
73.688262
11
-10.977782
21
72.994109
0
LINE
8
Layer 1
10
-10.977782
20
72.994109
11
-10.129030
21
72.721813
0
LINE
8
Layer 1
10
-10.129030
20
72.721813
11
-9.889068
21
72.645385
0
LINE
8
Layer 1
10
-9.889068
20
72.645385
11
-9.710770
21
72.382773
0
LINE
8
Layer 1
10
-9.710770
20
72.382773
11
-9.458752
21
71.099035
0
LINE
8
Layer 1
10
-9.458752
20
71.099035
11
-8.875667
21
67.922833
0
LINE
8
Layer 1
10
-8.875667
20
67.922833
11
-7.972161
21
65.242851
0
LINE
8
Layer 1
10
-7.972161
20
65.242851
11
-6.828582
21
63.242003
0
LINE
8
Layer 1
10
-6.828582
20
63.242003
11
-6.191875
21
62.553414
0
LINE
8
Layer 1
10
-6.191875
20
62.553414
11
-5.525280
21
62.103202
0
LINE
8
Layer 1
10
-5.525280
20
62.103202
11
-4.758228
21
61.581173
0
LINE
8
Layer 1
10
-4.758228
20
61.581173
11
-4.264100
21
60.974313
0
LINE
8
Layer 1
10
-4.264100
20
60.974313
11
-3.230433
21
59.456432
0
LINE
8
Layer 1
10
-3.230433
20
59.456432
11
-1.713005
21
58.064957
0
LINE
8
Layer 1
10
-1.713005
20
58.064957
11
-0.037964
21
57.045573
0
LINE
8
Layer 1
10
-0.037964
20
57.045573
11
0.756739
21
56.752192
0
LINE
8
Layer 1
10
0.756739
20
56.752192
11
1.468540
21
56.643966
0
LINE
8
Layer 1
10
1.468540
20
56.643966
11
1.875245
21
56.573032
0
LINE
8
Layer 1
10
1.875245
20
56.573032
11
2.271889
21
56.344407
0
LINE
8
Layer 1
10
2.271889
20
56.344407
11
3.214789
21
55.276952
0
LINE
8
Layer 1
10
3.214789
20
55.276952
11
4.328638
21
53.923593
0
LINE
8
Layer 1
10
4.328638
20
53.923593
11
5.620455
21
52.624356
0
LINE
8
Layer 1
10
5.620455
20
52.624356
11
6.986054
21
51.474020
0
LINE
8
Layer 1
10
6.986054
20
51.474020
11
8.321248
21
50.567368
0
LINE
8
Layer 1
10
8.321248
20
50.567368
11
9.755656
21
49.920661
0
LINE
8
Layer 1
10
9.755656
20
49.920661
11
11.319859
21
49.711882
0
LINE
8
Layer 1
10
11.319859
20
49.711882
11
12.231621
21
49.654896
0
LINE
8
Layer 1
10
12.231621
20
49.654896
11
12.900829
21
49.485989
0
LINE
8
Layer 1
10
12.900829
20
49.485989
11
13.527000
21
49.123552
0
LINE
8
Layer 1
10
13.527000
20
49.123552
11
14.309650
21
48.485979
0
LINE
8
Layer 1
10
14.309650
20
48.485979
11
15.905732
21
47.301418
0
LINE
8
Layer 1
10
15.905732
20
47.301418
11
17.636539
21
46.368190
0
LINE
8
Layer 1
10
17.636539
20
46.368190
11
19.412669
21
45.726565
0
LINE
8
Layer 1
10
19.412669
20
45.726565
11
21.144720
21
45.416813
0
LINE
8
Layer 1
10
21.144720
20
45.416813
11
22.218036
21
45.276762
0
LINE
8
Layer 1
10
22.218036
20
45.276762
11
23.282899
21
44.981727
0
LINE
8
Layer 1
10
23.282899
20
44.981727
11
26.339373
21
43.600007
0
LINE
8
Layer 1
10
26.339373
20
43.600007
11
30.776076
21
41.642374
0
LINE
8
Layer 1
10
30.776076
20
41.642374
11
34.714981
21
40.416479
0
LINE
8
Layer 1
10
34.714981
20
40.416479
11
36.440173
21
40.091065
0
LINE
8
Layer 1
10
36.440173
20
40.091065
11
37.971812
21
39.964345
0
LINE
8
Layer 1
10
37.971812
20
39.964345
11
39.286862
21
40.041570
0
LINE
8
Layer 1
10
39.286862
20
40.041570
11
40.362291
21
40.327993
0
LINE
8
Layer 1
10
40.362291
20
40.327993
11
41.350058
21
40.584734
0
LINE
8
Layer 1
10
41.350058
20
40.584734
11
42.337846
21
40.469104
0
LINE
8
Layer 1
10
42.337846
20
40.469104
11
45.442291
21
39.842924
0
LINE
8
Layer 1
10
45.442291
20
39.842924
11
48.880165
21
39.466830
0
LINE
8
Layer 1
10
48.880165
20
39.466830
11
52.069040
21
39.529375
0
LINE
8
Layer 1
10
52.069040
20
39.529375
11
54.843933
21
40.015483
0
LINE
8
Layer 1
10
54.843933
20
40.015483
11
56.024578
21
40.412662
0
LINE
8
Layer 1
10
56.024578
20
40.412662
11
57.039860
21
40.910077
0
LINE
8
Layer 1
10
57.039860
20
40.910077
11
60.373871
21
42.703304
0
LINE
8
Layer 1
10
60.373871
20
42.703304
11
61.639252
21
43.178719
0
LINE
8
Layer 1
10
61.639252
20
43.178719
11
62.948888
21
43.511813
0
LINE
8
Layer 1
10
62.948888
20
43.511813
11
64.695383
21
43.968275
0
LINE
8
Layer 1
10
64.695383
20
43.968275
11
66.136223
21
44.588333
0
LINE
8
Layer 1
10
66.136223
20
44.588333
11
67.500340
21
45.494748
0
LINE
8
Layer 1
10
67.500340
20
45.494748
11
69.016666
21
46.810285
0
LINE
8
Layer 1
10
69.016666
20
46.810285
11
70.657329
21
48.510477
0
LINE
8
Layer 1
10
70.657329
20
48.510477
11
72.409461
21
50.633555
0
LINE
8
Layer 1
10
72.409461
20
50.633555
11
76.176875
21
56.008247
0
LINE
8
Layer 1
10
76.176875
20
56.008247
11
80.176394
21
62.654108
0
LINE
8
Layer 1
10
80.176394
20
62.654108
11
84.265507
21
70.290885
0
LINE
8
Layer 1
10
84.265507
20
70.290885
11
88.301701
21
78.638324
0
LINE
8
Layer 1
10
88.301701
20
78.638324
11
92.142462
21
87.416174
0
LINE
8
Layer 1
10
92.142462
20
87.416174
11
95.645278
21
96.344180
0
LINE
8
Layer 1
10
95.645278
20
96.344180
11
98.667638
21
105.142091
0
LINE
8
Layer 1
10
98.667638
20
105.142091
11
100.131666
21
109.763479
0
LINE
8
Layer 1
10
100.131666
20
109.763479
11
100.272777
21
99.779868
0
LINE
8
Layer 1
10
100.272777
20
99.779868
11
100.423461
21
93.186834
0
LINE
8
Layer 1
10
100.423461
20
93.186834
11
100.699221
21
88.233849
0
LINE
8
Layer 1
10
100.699221
20
88.233849
11
101.165249
21
84.130419
0
LINE
8
Layer 1
10
101.165249
20
84.130419
11
101.886735
21
80.086049
0
LINE
8
Layer 1
10
101.886735
20
80.086049
11
102.413962
21
78.037748
0
LINE
8
Layer 1
10
102.413962
20
78.037748
11
103.086845
21
76.197209
0
LINE
8
Layer 1
10
103.086845
20
76.197209
11
103.812312
21
74.781940
0
LINE
8
Layer 1
10
103.812312
20
74.781940
11
104.497291
21
74.009452
0
LINE
8
Layer 1
10
104.497291
20
74.009452
11
104.950881
21
73.890094
0
LINE
8
Layer 1
10
104.950881
20
73.890094
11
105.502707
21
74.009452
0
LINE
8
Layer 1
10
105.502707
20
74.009452
11
106.187686
21
74.781940
0
LINE
8
Layer 1
10
106.187686
20
74.781940
11
106.913153
21
76.197209
0
LINE
8
Layer 1
10
106.913153
20
76.197209
11
107.586035
21
78.037748
0
LINE
8
Layer 1
10
107.586035
20
78.037748
11
108.113263
21
80.086049
0
LINE
8
Layer 1
10
108.113263
20
80.086049
11
108.834748
21
84.130419
0
LINE
8
Layer 1
10
108.834748
20
84.130419
11
109.300776
21
88.233849
0
LINE
8
Layer 1
10
109.300776
20
88.233849
11
109.576537
21
93.186834
0
LINE
8
Layer 1
10
109.576537
20
93.186834
11
109.727221
21
99.779868
0
LINE
8
Layer 1
10
109.727221
20
99.779868
11
109.868332
21
109.763479
0
LINE
8
Layer 1
10
109.868332
20
109.763479
11
111.332360
21
105.142091
0
LINE
8
Layer 1
10
111.332360
20
105.142091
11
114.354719
21
96.344180
0
LINE
8
Layer 1
10
114.354719
20
96.344180
11
117.857536
21
87.416174
0
LINE
8
Layer 1
10
117.857536
20
87.416174
11
121.698297
21
78.638324
0
LINE
8
Layer 1
10
121.698297
20
78.638324
11
125.734491
21
70.290885
0
LINE
8
Layer 1
10
125.734491
20
70.290885
11
129.823603
21
62.654108
0
LINE
8
Layer 1
10
129.823603
20
62.654108
11
133.823123
21
56.008247
0
LINE
8
Layer 1
10
133.823123
20
56.008247
11
137.590537
21
50.633555
0
LINE
8
Layer 1
10
137.590537
20
50.633555
11
139.342669
21
48.510477
0
LINE
8
Layer 1
10
139.342669
20
48.510477
11
140.983332
21
46.810285
0
LINE
8
Layer 1
10
140.983332
20
46.810285
11
142.499659
21
45.494748
0
LINE
8
Layer 1
10
142.499659
20
45.494748
11
143.863778
21
44.588333
0
LINE
8
Layer 1
10
143.863778
20
44.588333
11
145.304618
21
43.968275
0
LINE
8
Layer 1
10
145.304618
20
43.968275
11
147.051110
21
43.511813
0
LINE
8
Layer 1
10
147.051110
20
43.511813
11
148.360747
21
43.178719
0
LINE
8
Layer 1
10
148.360747
20
43.178719
11
149.626130
21
42.703304
0
LINE
8
Layer 1
10
149.626130
20
42.703304
11
152.960138
21
40.910077
0
LINE
8
Layer 1
10
152.960138
20
40.910077
11
153.975420
21
40.412662
0
LINE
8
Layer 1
10
153.975420
20
40.412662
11
155.156066
21
40.015483
0
LINE
8
Layer 1
10
155.156066
20
40.015483
11
157.930961
21
39.529375
0
LINE
8
Layer 1
10
157.930961
20
39.529375
11
161.119836
21
39.466830
0
LINE
8
Layer 1
10
161.119836
20
39.466830
11
164.557707
21
39.842924
0
LINE
8
Layer 1
10
164.557707
20
39.842924
11
167.662152
21
40.469104
0
LINE
8
Layer 1
10
167.662152
20
40.469104
11
168.649943
21
40.584734
0
LINE
8
Layer 1
10
168.649943
20
40.584734
11
169.637707
21
40.327993
0
LINE
8
Layer 1
10
169.637707
20
40.327993
11
170.713136
21
40.041570
0
LINE
8
Layer 1
10
170.713136
20
40.041570
11
172.028187
21
39.964345
0
LINE
8
Layer 1
10
172.028187
20
39.964345
11
173.559827
21
40.091065
0
LINE
8
Layer 1
10
173.559827
20
40.091065
11
175.285019
21
40.416479
0
LINE
8
Layer 1
10
175.285019
20
40.416479
11
179.223925
21
41.642374
0
LINE
8
Layer 1
10
179.223925
20
41.642374
11
183.660624
21
43.600007
0
LINE
8
Layer 1
10
183.660624
20
43.600007
11
186.717101
21
44.981727
0
LINE
8
Layer 1
10
186.717101
20
44.981727
11
187.781964
21
45.276762
0
LINE
8
Layer 1
10
187.781964
20
45.276762
11
188.855277
21
45.416813
0
LINE
8
Layer 1
10
188.855277
20
45.416813
11
190.587329
21
45.726565
0
LINE
8
Layer 1
10
190.587329
20
45.726565
11
192.363461
21
46.368190
0
LINE
8
Layer 1
10
192.363461
20
46.368190
11
194.094268
21
47.301418
0
LINE
8
Layer 1
10
194.094268
20
47.301418
11
195.690346
21
48.485979
0
LINE
8
Layer 1
10
195.690346
20
48.485979
11
196.472998
21
49.123552
0
LINE
8
Layer 1
10
196.472998
20
49.123552
11
197.099171
21
49.485989
0
LINE
8
Layer 1
10
197.099171
20
49.485989
11
197.768379
21
49.654896
0
LINE
8
Layer 1
10
197.768379
20
49.654896
11
198.680138
21
49.711882
0
LINE
8
Layer 1
10
198.680138
20
49.711882
11
200.244343
21
49.920661
0
LINE
8
Layer 1
10
200.244343
20
49.920661
11
201.678749
21
50.567368
0
LINE
8
Layer 1
10
201.678749
20
50.567368
11
203.013943
21
51.474020
0
LINE
8
Layer 1
10
203.013943
20
51.474020
11
204.379545
21
52.624356
0
LINE
8
Layer 1
10
204.379545
20
52.624356
11
205.671363
21
53.923593
0
LINE
8
Layer 1
10
205.671363
20
53.923593
11
206.785207
21
55.276952
0
LINE
8
Layer 1
10
206.785207
20
55.276952
11
207.728111
21
56.344407
0
LINE
8
Layer 1
10
207.728111
20
56.344407
11
208.124755
21
56.573032
0
LINE
8
Layer 1
10
208.124755
20
56.573032
11
208.531457
21
56.643966
0
LINE
8
Layer 1
10
208.531457
20
56.643966
11
209.243258
21
56.752192
0
LINE
8
Layer 1
10
209.243258
20
56.752192
11
210.037962
21
57.045573
0
LINE
8
Layer 1
10
210.037962
20
57.045573
11
211.713004
21
58.064957
0
LINE
8
Layer 1
10
211.713004
20
58.064957
11
213.230433
21
59.456432
0
LINE
8
Layer 1
10
213.230433
20
59.456432
11
214.264096
21
60.974313
0
LINE
8
Layer 1
10
214.264096
20
60.974313
11
214.758228
21
61.581173
0
LINE
8
Layer 1
10
214.758228
20
61.581173
11
215.525277
21
62.103202
0
LINE
8
Layer 1
10
215.525277
20
62.103202
11
216.191872
21
62.553414
0
LINE
8
Layer 1
10
216.191872
20
62.553414
11
216.828580
21
63.242003
0
LINE
8
Layer 1
10
216.828580
20
63.242003
11
217.972161
21
65.242851
0
LINE
8
Layer 1
10
217.972161
20
65.242851
11
218.875667
21
67.922833
0
LINE
8
Layer 1
10
218.875667
20
67.922833
11
219.458749
21
71.099035
0
LINE
8
Layer 1
10
219.458749
20
71.099035
11
219.710769
21
72.382773
0
LINE
8
Layer 1
10
219.710769
20
72.382773
11
219.889068
21
72.645385
0
LINE
8
Layer 1
10
219.889068
20
72.645385
11
220.129027
21
72.721813
0
LINE
8
Layer 1
10
220.129027
20
72.721813
11
220.977779
21
72.994109
0
LINE
8
Layer 1
10
220.977779
20
72.994109
11
222.079411
21
73.688262
0
LINE
8
Layer 1
10
222.079411
20
73.688262
11
223.184809
21
74.620179
0
LINE
8
Layer 1
10
223.184809
20
74.620179
11
224.044860
21
75.605771
0
LINE
8
Layer 1
10
224.044860
20
75.605771
11
224.716171
21
76.775133
0
LINE
8
Layer 1
10
224.716171
20
76.775133
11
225.186974
21
77.997962
0
LINE
8
Layer 1
10
225.186974
20
77.997962
11
225.424064
21
79.162404
0
LINE
8
Layer 1
10
225.424064
20
79.162404
11
225.394235
21
80.156604
0
LINE
8
Layer 1
10
225.394235
20
80.156604
11
225.373555
21
80.897183
0
LINE
8
Layer 1
10
225.373555
20
80.897183
11
225.614721
21
81.453063
0
LINE
8
Layer 1
10
225.614721
20
81.453063
11
225.933120
21
82.009308
0
LINE
8
Layer 1
10
225.933120
20
82.009308
11
226.152707
21
82.723063
0
LINE
8
Layer 1
10
226.152707
20
82.723063
11
226.190739
21
83.925940
0
LINE
8
Layer 1
10
226.190739
20
83.925940
11
226.012855
21
85.501374
0
LINE
8
Layer 1
10
226.012855
20
85.501374
11
225.671182
21
87.127427
0
LINE
8
Layer 1
10
225.671182
20
87.127427
11
225.217846
21
88.482160
0
LINE
8
Layer 1
10
225.217846
20
88.482160
11
224.653402
21
89.769799
0
LINE
8
Layer 1
10
224.653402
20
89.769799
11
225.544166
21
90.466535
0
LINE
8
Layer 1
10
225.544166
20
90.466535
11
226.296510
21
91.249541
0
LINE
8
Layer 1
10
226.296510
20
91.249541
11
226.912961
21
92.261331
0
LINE
8
Layer 1
10
226.912961
20
92.261331
11
227.330083
21
93.372321
0
LINE
8
Layer 1
10
227.330083
20
93.372321
11
227.484443
21
94.452924
0
LINE
8
Layer 1
10
227.484443
20
94.452924
11
227.087568
21
97.134035
0
LINE
8
Layer 1
10
227.087568
20
97.134035
11
226.829811
21
98.572241
0
LINE
8
Layer 1
10
226.829811
20
98.572241
11
226.897314
21
98.879412
0
LINE
8
Layer 1
10
226.897314
20
98.879412
11
227.096388
21
99.056674
0
LINE
8
Layer 1
10
227.096388
20
99.056674
11
227.748124
21
99.517518
0
LINE
8
Layer 1
10
227.748124
20
99.517518
11
228.221898
21
100.081928
0
LINE
8
Layer 1
10
228.221898
20
100.081928
11
228.518468
21
100.768200
0
LINE
8
Layer 1
10
228.518468
20
100.768200
11
228.638591
21
101.594631
0
LINE
8
Layer 1
10
228.638591
20
101.594631
11
228.583026
21
102.579515
0
LINE
8
Layer 1
10
228.583026
20
102.579515
11
228.352532
21
103.741150
0
LINE
8
Layer 1
10
228.352532
20
103.741150
11
227.369791
21
106.667854
0
LINE
8
Layer 1
10
227.369791
20
106.667854
11
226.278280
21
109.569636
0
LINE
8
Layer 1
10
226.278280
20
109.569636
11
225.711862
21
111.726695
0
LINE
8
Layer 1
10
225.711862
20
111.726695
11
225.531231
21
113.956070
0
LINE
8
Layer 1
10
225.531231
20
113.956070
11
225.597082
21
117.074799
0
LINE
8
Layer 1
10
225.597082
20
117.074799
11
225.611340
21
121.032701
0
LINE
8
Layer 1
10
225.611340
20
121.032701
11
225.464044
21
122.535298
0
LINE
8
Layer 1
10
225.464044
20
122.535298
11
225.184603
21
123.819430
0
LINE
8
Layer 1
10
225.184603
20
123.819430
11
224.751119
21
124.959423
0
LINE
8
Layer 1
10
224.751119
20
124.959423
11
224.141694
21
126.029606
0
LINE
8
Layer 1
10
224.141694
20
126.029606
11
222.307429
21
128.257854
0
LINE
8
Layer 1
10
222.307429
20
128.257854
11
221.028610
21
129.827716
0
LINE
8
Layer 1
10
221.028610
20
129.827716
11
222.413263
21
130.647924
0
LINE
8
Layer 1
10
222.413263
20
130.647924
11
223.882035
21
131.611695
0
LINE
8
Layer 1
10
223.882035
20
131.611695
11
225.192157
21
132.740421
0
LINE
8
Layer 1
10
225.192157
20
132.740421
11
226.420315
21
134.110536
0
LINE
8
Layer 1
10
226.420315
20
134.110536
11
227.643193
21
135.798479
0
LINE
8
Layer 1
10
227.643193
20
135.798479
11
228.717978
21
137.564157
0
LINE
8
Layer 1
10
228.717978
20
137.564157
11
229.660377
21
139.425101
0
LINE
8
Layer 1
10
229.660377
20
139.425101
11
230.465567
21
141.364289
0
LINE
8
Layer 1
10
230.465567
20
141.364289
11
231.128726
21
143.364703
0
LINE
8
Layer 1
10
231.128726
20
143.364703
11
231.645029
21
145.409321
0
LINE
8
Layer 1
10
231.645029
20
145.409321
11
232.009655
21
147.481124
0
LINE
8
Layer 1
10
232.009655
20
147.481124
11
232.217781
21
149.563091
0
LINE
8
Layer 1
10
232.217781
20
149.563091
11
232.264582
21
151.638202
0
LINE
8
Layer 1
10
232.264582
20
151.638202
11
232.220485
21
154.548618
0
LINE
8
Layer 1
10
232.220485
20
154.548618
11
233.455207
21
155.492299
0
LINE
8
Layer 1
10
233.455207
20
155.492299
11
234.475843
21
156.514573
0
LINE
8
Layer 1
10
234.475843
20
156.514573
11
235.413960
21
157.915160
0
LINE
8
Layer 1
10
235.413960
20
157.915160
11
236.195113
21
159.561729
0
LINE
8
Layer 1
10
236.195113
20
159.561729
11
236.744860
21
161.321952
0
LINE
8
Layer 1
10
236.744860
20
161.321952
11
237.662082
21
167.204521
0
LINE
8
Layer 1
10
237.662082
20
167.204521
11
238.194167
21
170.855324
0
LINE
8
Layer 1
10
238.194167
20
170.855324
11
238.792615
21
173.569688
0
LINE
8
Layer 1
10
238.792615
20
173.569688
11
239.701126
21
176.214733
0
LINE
8
Layer 1
10
239.701126
20
176.214733
11
241.163402
21
179.657577
0
LINE
8
Layer 1
10
241.163402
20
179.657577
11
242.934617
21
183.801365
0
LINE
8
Layer 1
10
242.934617
20
183.801365
11
243.946455
21
186.647505
0
LINE
8
Layer 1
10
243.946455
20
186.647505
11
244.411228
21
188.942171
0
LINE
8
Layer 1
10
244.411228
20
188.942171
11
244.541249
21
191.431535
0
LINE
8
Layer 1
10
244.541249
20
191.431535
11
244.576527
21
194.580077
0
LINE
8
Layer 1
10
244.576527
20
194.580077
11
247.698610
21
198.769313
0
LINE
8
Layer 1
10
247.698610
20
198.769313
11
251.559094
21
204.131007
0
LINE
8
Layer 1
10
251.559094
20
204.131007
11
254.790000
21
209.066980
0
LINE
8
Layer 1
10
254.790000
20
209.066980
11
257.681079
21
214.046567
0
LINE
8
Layer 1
10
257.681079
20
214.046567
11
260.522082
21
219.539104
0
LINE
8
Layer 1
10
260.522082
20
219.539104
11
262.511269
21
223.784547
0
LINE
8
Layer 1
10
262.511269
20
223.784547
11
264.159909
21
227.780798
0
LINE
8
Layer 1
10
264.159909
20
227.780798
11
265.508784
21
231.635977
0
LINE
8
Layer 1
10
265.508784
20
231.635977
11
266.598679
21
235.458202
0
LINE
8
Layer 1
10
266.598679
20
235.458202
11
267.382232
21
238.873300
0
LINE
8
Layer 1
10
267.382232
20
238.873300
11
267.862436
21
241.844941
0
LINE
8
Layer 1
10
267.862436
20
241.844941
11
268.076769
21
244.676945
0
LINE
8
Layer 1
10
268.076769
20
244.676945
11
268.062707
21
247.673132
0
LINE
8
Layer 1
10
268.062707
20
247.673132
11
267.860217
21
250.355166
0
LINE
8
Layer 1
10
267.860217
20
250.355166
11
267.442446
21
252.456790
0
LINE
8
Layer 1
10
267.442446
20
252.456790
11
266.763747
21
254.131117
0
LINE
8
Layer 1
10
266.763747
20
254.131117
11
265.778471
21
255.531257
0
LINE
8
Layer 1
10
265.778471
20
255.531257
11
264.813227
21
256.453964
0
LINE
8
Layer 1
10
264.813227
20
256.453964
11
263.677884
21
257.078432
0
LINE
8
Layer 1
10
263.677884
20
257.078432
11
262.161879
21
257.436430
0
LINE
8
Layer 1
10
262.161879
20
257.436430
11
260.054652
21
257.559729
0
LINE
8
Layer 1
10
260.054652
20
257.559729
11
254.022152
21
257.286327
0
LINE
8
Layer 1
10
254.022152
20
257.286327
11
245.880626
21
256.414482
0
LINE
8
Layer 1
10
245.880626
20
256.414482
11
237.665798
21
254.942786
0
LINE
8
Layer 1
10
237.665798
20
254.942786
11
229.385823
21
252.874113
0
LINE
8
Layer 1
10
229.385823
20
252.874113
11
221.048859
21
250.211336
0
LINE
8
Layer 1
10
221.048859
20
250.211336
11
212.663062
21
246.957330
0
LINE
8
Layer 1
10
212.663062
20
246.957330
11
204.236588
21
243.114968
0
LINE
8
Layer 1
10
204.236588
20
243.114968
11
195.777593
21
238.687125
0
LINE
8
Layer 1
10
195.777593
20
238.687125
11
187.294235
21
233.676674
0
LINE
8
Layer 1
10
187.294235
20
233.676674
11
182.263671
21
230.427210
0
LINE
8
Layer 1
10
182.263671
20
230.427210
11
177.245340
21
226.968090
0
LINE
8
Layer 1
10
177.245340
20
226.968090
11
172.247650
21
223.307530
0
LINE
8
Layer 1
10
172.247650
20
223.307530
11
167.279009
21
219.453747
0
LINE
8
Layer 1
10
167.279009
20
219.453747
11
162.347825
21
215.414958
0
LINE
8
Layer 1
10
162.347825
20
215.414958
11
157.462505
21
211.199380
0
LINE
8
Layer 1
10
157.462505
20
211.199380
11
152.631458
21
206.815231
0
LINE
8
Layer 1
10
152.631458
20
206.815231
11
147.863092
21
202.270725
0
LINE
8
Layer 1
10
147.863092
20
202.270725
11
143.165813
21
197.574082
0
LINE
8
Layer 1
10
143.165813
20
197.574082
11
138.548031
21
192.733517
0
LINE
8
Layer 1
10
138.548031
20
192.733517
11
134.018152
21
187.757248
0
LINE
8
Layer 1
10
134.018152
20
187.757248
11
129.584586
21
182.653490
0
LINE
8
Layer 1
10
129.584586
20
182.653490
11
125.255739
21
177.430463
0
LINE
8
Layer 1
10
125.255739
20
177.430463
11
121.040020
21
172.096381
0
LINE
8
Layer 1
10
121.040020
20
172.096381
11
116.945836
21
166.659463
0
LINE
8
Layer 1
10
116.945836
20
166.659463
11
112.981596
21
161.127924
0
LINE
8
Layer 1
10
112.981596
20
161.127924
11
109.577291
21
156.259591
0
LINE
8
Layer 1
10
109.577291
20
156.259591
11
109.127499
21
157.582507
0
LINE
8
Layer 1
10
109.127499
20
157.582507
11
108.804811
21
158.568184
0
LINE
8
Layer 1
10
108.804811
20
158.568184
11
108.735686
21
159.102380
0
LINE
8
Layer 1
10
108.735686
20
159.102380
11
108.959482
21
159.392576
0
LINE
8
Layer 1
10
108.959482
20
159.392576
11
109.515554
21
159.646257
0
LINE
8
Layer 1
10
109.515554
20
159.646257
11
110.442203
21
160.253142
0
LINE
8
Layer 1
10
110.442203
20
160.253142
11
111.491110
21
161.224938
0
LINE
8
Layer 1
10
111.491110
20
161.224938
11
112.427894
21
162.467355
0
LINE
8
Layer 1
10
112.427894
20
162.467355
11
112.589025
21
163.032704
0
LINE
8
Layer 1
10
112.589025
20
163.032704
11
112.628818
21
163.747299
0
LINE
8
Layer 1
10
112.628818
20
163.747299
11
112.443631
21
165.166021
0
LINE
8
Layer 1
10
112.443631
20
165.166021
11
111.871871
21
166.374920
0
LINE
8
Layer 1
10
111.871871
20
166.374920
11
110.889244
21
167.407718
0
LINE
8
Layer 1
10
110.889244
20
167.407718
11
109.471457
21
168.298132
0
LINE
8
Layer 1
10
109.471457
20
168.298132
11
108.430763
21
168.818479
0
LINE
8
Layer 1
10
108.430763
20
168.818479
11
109.497916
21
172.064035
0
LINE
8
Layer 1
10
109.497916
20
172.064035
11
110.784563
21
175.720606
0
LINE
8
Layer 1
10
110.784563
20
175.720606
11
112.247248
21
179.398860
0
LINE
8
Layer 1
10
112.247248
20
179.398860
11
116.024304
21
187.586257
0
LINE
8
Layer 1
10
116.024304
20
187.586257
11
118.731921
21
192.864361
0
LINE
8
Layer 1
10
118.731921
20
192.864361
11
121.507386
21
197.878247
0
LINE
8
Layer 1
10
121.507386
20
197.878247
11
124.334409
21
202.604000
0
LINE
8
Layer 1
10
124.334409
20
202.604000
11
127.196697
21
207.017702
0
LINE
8
Layer 1
10
127.196697
20
207.017702
11
130.077956
21
211.095438
0
LINE
8
Layer 1
10
130.077956
20
211.095438
11
132.961894
21
214.813292
0
LINE
8
Layer 1
10
132.961894
20
214.813292
11
135.832219
21
218.147348
0
LINE
8
Layer 1
10
135.832219
20
218.147348
11
138.672638
21
221.073688
0
LINE
8
Layer 1
10
138.672638
20
221.073688
11
141.038361
21
223.241767
0
LINE
8
Layer 1
10
141.038361
20
223.241767
11
143.099910
21
224.886735
0
LINE
8
Layer 1
10
143.099910
20
224.886735
11
144.927788
21
226.058339
0
LINE
8
Layer 1
10
144.927788
20
226.058339
11
146.592499
21
226.806327
0
LINE
8
Layer 1
10
146.592499
20
226.806327
11
148.984593
21
227.796150
0
LINE
8
Layer 1
10
148.984593
20
227.796150
11
150.837762
21
228.897702
0
LINE
8
Layer 1
10
150.837762
20
228.897702
11
152.010278
21
230.007490
0
LINE
8
Layer 1
10
152.010278
20
230.007490
11
152.297002
21
230.533131
0
LINE
8
Layer 1
10
152.297002
20
230.533131
11
152.360416
21
231.022021
0
LINE
8
Layer 1
10
152.360416
20
231.022021
11
152.285792
21
231.406997
0
LINE
8
Layer 1
10
152.285792
20
231.406997
11
152.132364
21
231.619652
0
LINE
8
Layer 1
10
152.132364
20
231.619652
11
151.337360
21
231.683479
0
LINE
8
Layer 1
10
151.337360
20
231.683479
11
149.964121
21
231.349736
0
LINE
8
Layer 1
10
149.964121
20
231.349736
11
148.384479
21
230.570011
0
LINE
8
Layer 1
10
148.384479
20
230.570011
11
146.651885
21
229.376881
0
LINE
8
Layer 1
10
146.651885
20
229.376881
11
144.819791
21
227.802924
0
LINE
8
Layer 1
10
144.819791
20
227.802924
11
137.577060
21
220.680939
0
LINE
8
Layer 1
10
137.577060
20
220.680939
11
134.519392
21
217.387125
0
LINE
8
Layer 1
10
134.519392
20
217.387125
11
131.734408
21
214.146318
0
LINE
8
Layer 1
10
131.734408
20
214.146318
11
129.144771
21
210.864682
0
LINE
8
Layer 1
10
129.144771
20
210.864682
11
126.673145
21
207.448385
0
LINE
8
Layer 1
10
126.673145
20
207.448385
11
121.774582
21
199.836466
0
LINE
8
Layer 1
10
121.774582
20
199.836466
11
118.015881
21
193.059372
0
LINE
8
Layer 1
10
118.015881
20
193.059372
11
114.067207
21
185.054376
0
LINE
8
Layer 1
10
114.067207
20
185.054376
11
110.532638
21
177.109262
0
LINE
8
Layer 1
10
110.532638
20
177.109262
11
108.016249
21
170.511813
0
LINE
8
Layer 1
10
108.016249
20
170.511813
11
107.548818
21
169.100702
0
LINE
8
Layer 1
10
107.548818
20
169.100702
11
102.451179
21
169.100702
0
LINE
8
Layer 1
10
102.451179
20
169.100702
11
101.983749
21
170.511813
0
LINE
8
Layer 1
10
101.983749
20
170.511813
11
99.467360
21
177.109262
0
LINE
8
Layer 1
10
99.467360
20
177.109262
11
95.932790
21
185.054376
0
LINE
8
Layer 1
10
95.932790
20
185.054376
11
91.984117
21
193.059372
0
LINE
8
Layer 1
10
91.984117
20
193.059372
11
88.225416
21
199.836466
0
LINE
8
Layer 1
10
88.225416
20
199.836466
11
83.326853
21
207.448385
0
LINE
8
Layer 1
10
83.326853
20
207.448385
11
80.855227
21
210.864682
0
LINE
8
Layer 1
10
80.855227
20
210.864682
11
78.265590
21
214.146318
0
LINE
8
Layer 1
10
78.265590
20
214.146318
11
75.480605
21
217.387125
0
LINE
8
Layer 1
10
75.480605
20
217.387125
11
72.422938
21
220.680939
0
LINE
8
Layer 1
10
72.422938
20
220.680939
11
65.180207
21
227.802924
0
LINE
8
Layer 1
10
65.180207
20
227.802924
11
63.348116
21
229.376881
0
LINE
8
Layer 1
10
63.348116
20
229.376881
11
61.615522
21
230.570011
0
LINE
8
Layer 1
10
61.615522
20
230.570011
11
60.035878
21
231.349736
0
LINE
8
Layer 1
10
60.035878
20
231.349736
11
58.662638
21
231.683479
0
LINE
8
Layer 1
10
58.662638
20
231.683479
11
57.867636
21
231.619652
0
LINE
8
Layer 1
10
57.867636
20
231.619652
11
57.714207
21
231.406997
0
LINE
8
Layer 1
10
57.714207
20
231.406997
11
57.639582
21
231.022021
0
LINE
8
Layer 1
10
57.639582
20
231.022021
11
57.702998
21
230.533131
0
LINE
8
Layer 1
10
57.702998
20
230.533131
11
57.989723
21
230.007490
0
LINE
8
Layer 1
10
57.989723
20
230.007490
11
59.162239
21
228.897702
0
LINE
8
Layer 1
10
59.162239
20
228.897702
11
61.015406
21
227.796150
0
LINE
8
Layer 1
10
61.015406
20
227.796150
11
63.407499
21
226.806327
0
LINE
8
Layer 1
10
63.407499
20
226.806327
11
65.072213
21
226.058339
0
LINE
8
Layer 1
10
65.072213
20
226.058339
11
66.900091
21
224.886735
0
LINE
8
Layer 1
10
66.900091
20
224.886735
11
68.961637
21
223.241767
0
LINE
8
Layer 1
10
68.961637
20
223.241767
11
71.327360
21
221.073688
0
LINE
8
Layer 1
10
71.327360
20
221.073688
11
74.167779
21
218.147348
0
LINE
8
Layer 1
10
74.167779
20
218.147348
11
77.038104
21
214.813292
0
LINE
8
Layer 1
10
77.038104
20
214.813292
11
79.922042
21
211.095438
0
LINE
8
Layer 1
10
79.922042
20
211.095438
11
82.803301
21
207.017702
0
LINE
8
Layer 1
10
82.803301
20
207.017702
11
85.665588
21
202.604000
0
LINE
8
Layer 1
10
85.665588
20
202.604000
11
88.492611
21
197.878247
0
LINE
8
Layer 1
10
88.492611
20
197.878247
11
91.268077
21
192.864361
0
LINE
8
Layer 1
10
91.268077
20
192.864361
11
93.975693
21
187.586257
0
LINE
8
Layer 1
10
93.975693
20
187.586257
11
97.752750
21
179.398860
0
LINE
8
Layer 1
10
97.752750
20
179.398860
11
99.215434
21
175.720606
0
LINE
8
Layer 1
10
99.215434
20
175.720606
11
100.502082
21
172.064035
0
LINE
8
Layer 1
10
100.502082
20
172.064035
11
101.569235
21
168.818479
0
LINE
8
Layer 1
10
101.569235
20
168.818479
11
100.528541
21
168.298132
0
LINE
8
Layer 1
10
100.528541
20
168.298132
11
99.110754
21
167.407718
0
LINE
8
Layer 1
10
99.110754
20
167.407718
11
98.128127
21
166.374920
0
LINE
8
Layer 1
10
98.128127
20
166.374920
11
97.556366
21
165.166021
0
LINE
8
Layer 1
10
97.556366
20
165.166021
11
97.371179
21
163.747299
0
LINE
8
Layer 1
10
97.371179
20
163.747299
11
97.410973
21
163.032704
0
LINE
8
Layer 1
10
97.410973
20
163.032704
11
97.572104
21
162.467355
0
LINE
8
Layer 1
10
97.572104
20
162.467355
11
98.508888
21
161.224938
0
LINE
8
Layer 1
10
98.508888
20
161.224938
11
99.557795
21
160.253142
0
LINE
8
Layer 1
10
99.557795
20
160.253142
11
100.484443
21
159.646257
0
LINE
8
Layer 1
10
100.484443
20
159.646257
11
101.040516
21
159.392576
0
LINE
8
Layer 1
10
101.040516
20
159.392576
11
101.264311
21
159.102380
0
LINE
8
Layer 1
10
101.264311
20
159.102380
11
101.195187
21
158.568184
0
LINE
8
Layer 1
10
101.195187
20
158.568184
11
100.872499
21
157.582507
0
LINE
8
Layer 1
10
100.872499
20
157.582507
11
100.422707
21
156.259591
0
LINE
8
Layer 1
10
100.422707
20
156.259591
11
97.018402
21
161.127924
0
LINE
8
Layer 1
10
97.018402
20
161.127924
11
93.054161
21
166.659463
0
LINE
8
Layer 1
10
93.054161
20
166.659463
11
88.959978
21
172.096381
0
LINE
8
Layer 1
10
88.959978
20
172.096381
11
84.744259
21
177.430463
0
LINE
8
Layer 1
10
84.744259
20
177.430463
11
80.415412
21
182.653490
0
LINE
8
Layer 1
10
80.415412
20
182.653490
11
75.981845
21
187.757248
0
LINE
8
Layer 1
10
75.981845
20
187.757248
11
71.451967
21
192.733517
0
LINE
8
Layer 1
10
71.451967
20
192.733517
11
66.834185
21
197.574082
0
LINE
8
Layer 1
10
66.834185
20
197.574082
11
62.136906
21
202.270725
0
LINE
8
Layer 1
10
62.136906
20
202.270725
11
57.368539
21
206.815231
0
LINE
8
Layer 1
10
57.368539
20
206.815231
11
52.537492
21
211.199380
0
LINE
8
Layer 1
10
52.537492
20
211.199380
11
47.652172
21
215.414958
0
LINE
8
Layer 1
10
47.652172
20
215.414958
11
42.720988
21
219.453747
0
LINE
8
Layer 1
10
42.720988
20
219.453747
11
37.752347
21
223.307530
0
LINE
8
Layer 1
10
37.752347
20
223.307530
11
32.754657
21
226.968090
0
LINE
8
Layer 1
10
32.754657
20
226.968090
11
27.736326
21
230.427210
0
LINE
8
Layer 1
10
27.736326
20
230.427210
11
22.705762
21
233.676674
0
LINE
8
Layer 1
10
22.705762
20
233.676674
11
14.222406
21
238.687125
0
LINE
8
Layer 1
10
14.222406
20
238.687125
11
5.763413
21
243.114968
0
LINE
8
Layer 1
10
5.763413
20
243.114968
11
-2.663061
21
246.957330
0
LINE
8
Layer 1
10
-2.663061
20
246.957330
11
-11.048859
21
250.211336
0
LINE
8
Layer 1
10
-11.048859
20
250.211336
11
-19.385824
21
252.874113
0
LINE
8
Layer 1
10
-19.385824
20
252.874113
11
-27.665799
21
254.942786
0
LINE
8
Layer 1
10
-27.665799
20
254.942786
11
-35.880628
21
256.414482
0
LINE
8
Layer 1
10
-35.880628
20
256.414482
11
-44.022154
21
257.286327
0
LINE
8
Layer 1
10
-44.022154
20
257.286327
11
-50.054654
21
257.559729
0
LINE
8
Layer 1
10
-50.054654
20
257.559729
11
-50.054654
21
257.559729
0
LINE
8
Layer 1
10
-34.056182
20
254.702229
11
-32.121481
21
254.506739
0
LINE
8
Layer 1
10
-32.121481
20
254.506739
11
-30.122709
21
253.934938
0
LINE
8
Layer 1
10
-30.122709
20
253.934938
11
-29.090996
21
253.480834
0
LINE
8
Layer 1
10
-29.090996
20
253.480834
11
-28.449514
21
253.009526
0
LINE
8
Layer 1
10
-28.449514
20
253.009526
11
-28.064751
21
252.376949
0
LINE
8
Layer 1
10
-28.064751
20
252.376949
11
-27.803197
21
251.439035
0
LINE
8
Layer 1
10
-27.803197
20
251.439035
11
-27.609169
21
250.521813
0
LINE
8
Layer 1
10
-27.609169
20
250.521813
11
-29.672918
21
250.539452
0
LINE
8
Layer 1
10
-29.672918
20
250.539452
11
-31.365993
21
250.661967
0
LINE
8
Layer 1
10
-31.365993
20
250.661967
11
-33.232737
21
250.980956
0
LINE
8
Layer 1
10
-33.232737
20
250.980956
11
-35.092280
21
251.458430
0
LINE
8
Layer 1
10
-35.092280
20
251.458430
11
-36.763751
21
252.056396
0
LINE
8
Layer 1
10
-36.763751
20
252.056396
11
-37.593851
21
252.532503
0
LINE
8
Layer 1
10
-37.593851
20
252.532503
11
-37.643357
21
252.769430
0
LINE
8
Layer 1
10
-37.643357
20
252.769430
11
-37.513404
21
253.088271
0
LINE
8
Layer 1
10
-37.513404
20
253.088271
11
-37.035886
21
253.658918
0
LINE
8
Layer 1
10
-37.035886
20
253.658918
11
-36.313959
21
254.225979
0
LINE
8
Layer 1
10
-36.313959
20
254.225979
11
-35.346381
21
254.584525
0
LINE
8
Layer 1
10
-35.346381
20
254.584525
11
-34.056182
21
254.702229
0
LINE
8
Layer 1
10
-34.056182
20
254.702229
11
-34.056182
21
254.702229
0
LINE
8
Layer 1
10
244.056179
20
254.702229
11
245.346382
21
254.584525
0
LINE
8
Layer 1
10
245.346382
20
254.584525
11
246.313957
21
254.225979
0
LINE
8
Layer 1
10
246.313957
20
254.225979
11
247.035887
21
253.658918
0
LINE
8
Layer 1
10
247.035887
20
253.658918
11
247.513402
21
253.088271
0
LINE
8
Layer 1
10
247.513402
20
253.088271
11
247.643356
21
252.769430
0
LINE
8
Layer 1
10
247.643356
20
252.769430
11
247.593852
21
252.532503
0
LINE
8
Layer 1
10
247.593852
20
252.532503
11
246.763749
21
252.056396
0
LINE
8
Layer 1
10
246.763749
20
252.056396
11
245.092279
21
251.458430
0
LINE
8
Layer 1
10
245.092279
20
251.458430
11
243.232738
21
250.980956
0
LINE
8
Layer 1
10
243.232738
20
250.980956
11
241.365994
21
250.661967
0
LINE
8
Layer 1
10
241.365994
20
250.661967
11
239.672916
21
250.539452
0
LINE
8
Layer 1
10
239.672916
20
250.539452
11
237.609166
21
250.521813
0
LINE
8
Layer 1
10
237.609166
20
250.521813
11
237.803193
21
251.439035
0
LINE
8
Layer 1
10
237.803193
20
251.439035
11
238.064750
21
252.376949
0
LINE
8
Layer 1
10
238.064750
20
252.376949
11
238.449515
21
253.009526
0
LINE
8
Layer 1
10
238.449515
20
253.009526
11
239.090997
21
253.480834
0
LINE
8
Layer 1
10
239.090997
20
253.480834
11
240.122707
21
253.934938
0
LINE
8
Layer 1
10
240.122707
20
253.934938
11
242.121482
21
254.506739
0
LINE
8
Layer 1
10
242.121482
20
254.506739
11
244.056179
21
254.702229
0
LINE
8
Layer 1
10
244.056179
20
254.702229
11
244.056179
21
254.702229
0
LINE
8
Layer 1
10
-53.079723
20
252.612021
11
-52.127223
21
252.488549
0
LINE
8
Layer 1
10
-52.127223
20
252.488549
11
-50.254548
21
251.931629
0
LINE
8
Layer 1
10
-50.254548
20
251.931629
11
-49.832730
21
251.630811
0
LINE
8
Layer 1
10
-49.832730
20
251.630811
11
-49.842987
21
251.359660
0
LINE
8
Layer 1
10
-49.842987
20
251.359660
11
-50.427161
21
251.151563
0
LINE
8
Layer 1
10
-50.427161
20
251.151563
11
-51.501822
21
251.002625
0
LINE
8
Layer 1
10
-51.501822
20
251.002625
11
-53.829376
21
250.998063
0
LINE
8
Layer 1
10
-53.829376
20
250.998063
11
-54.457102
21
251.185354
0
LINE
8
Layer 1
10
-54.457102
20
251.185354
11
-54.719195
21
251.496789
0
LINE
8
Layer 1
10
-54.719195
20
251.496789
11
-54.606934
21
251.891796
0
LINE
8
Layer 1
10
-54.606934
20
251.891796
11
-54.111598
21
252.329799
0
LINE
8
Layer 1
10
-54.111598
20
252.329799
11
-53.641810
21
252.548747
0
LINE
8
Layer 1
10
-53.641810
20
252.548747
11
-53.079723
21
252.612021
0
LINE
8
Layer 1
10
-53.079723
20
252.612021
11
-53.079723
21
252.612021
0
LINE
8
Layer 1
10
263.079721
20
252.612021
11
263.641810
21
252.548747
0
LINE
8
Layer 1
10
263.641810
20
252.548747
11
264.111596
21
252.329799
0
LINE
8
Layer 1
10
264.111596
20
252.329799
11
264.606933
21
251.891796
0
LINE
8
Layer 1
10
264.606933
20
251.891796
11
264.719195
21
251.496789
0
LINE
8
Layer 1
10
264.719195
20
251.496789
11
264.457103
21
251.185354
0
LINE
8
Layer 1
10
264.457103
20
251.185354
11
263.829374
21
250.998063
0
LINE
8
Layer 1
10
263.829374
20
250.998063
11
261.501823
21
251.002625
0
LINE
8
Layer 1
10
261.501823
20
251.002625
11
260.427163
21
251.151563
0
LINE
8
Layer 1
10
260.427163
20
251.151563
11
259.842985
21
251.359660
0
LINE
8
Layer 1
10
259.842985
20
251.359660
11
259.832729
21
251.630811
0
LINE
8
Layer 1
10
259.832729
20
251.630811
11
260.254549
21
251.931629
0
LINE
8
Layer 1
10
260.254549
20
251.931629
11
262.127221
21
252.488549
0
LINE
8
Layer 1
10
262.127221
20
252.488549
11
263.079721
21
252.612021
0
LINE
8
Layer 1
10
263.079721
20
252.612021
11
263.079721
21
252.612021
0
LINE
8
Layer 1
10
-41.155834
20
250.213132
11
-40.295849
21
250.123113
0
LINE
8
Layer 1
10
-40.295849
20
250.123113
11
-39.418404
21
249.789799
0
LINE
8
Layer 1
10
-39.418404
20
249.789799
11
-38.495276
21
249.164844
0
LINE
8
Layer 1
10
-38.495276
20
249.164844
11
-37.879602
21
248.409329
0
LINE
8
Layer 1
10
-37.879602
20
248.409329
11
-37.564020
21
247.575444
0
LINE
8
Layer 1
10
-37.564020
20
247.575444
11
-37.541168
21
246.715382
0
LINE
8
Layer 1
10
-37.541168
20
246.715382
11
-37.803681
21
245.881331
0
LINE
8
Layer 1
10
-37.803681
20
245.881331
11
-38.344198
21
245.125483
0
LINE
8
Layer 1
10
-38.344198
20
245.125483
11
-39.155356
21
244.500030
0
LINE
8
Layer 1
10
-39.155356
20
244.500030
11
-40.229793
21
244.057160
0
LINE
8
Layer 1
10
-40.229793
20
244.057160
11
-41.644382
21
243.795993
0
LINE
8
Layer 1
10
-41.644382
20
243.795993
11
-43.166668
21
244.039521
0
LINE
8
Layer 1
10
-43.166668
20
244.039521
11
-44.019600
21
244.397909
0
LINE
8
Layer 1
10
-44.019600
20
244.397909
11
-44.743323
21
244.990315
0
LINE
8
Layer 1
10
-44.743323
20
244.990315
11
-45.245368
21
245.718070
0
LINE
8
Layer 1
10
-45.245368
20
245.718070
11
-45.433265
21
246.482507
0
LINE
8
Layer 1
10
-45.433265
20
246.482507
11
-45.249760
21
247.368943
0
LINE
8
Layer 1
10
-45.249760
20
247.368943
11
-44.746950
21
248.257069
0
LINE
8
Layer 1
10
-44.746950
20
248.257069
11
-43.996395
21
249.051664
0
LINE
8
Layer 1
10
-43.996395
20
249.051664
11
-43.069654
21
249.657507
0
LINE
8
Layer 1
10
-43.069654
20
249.657507
11
-42.058585
21
250.059217
0
LINE
8
Layer 1
10
-42.058585
20
250.059217
11
-41.155834
21
250.213132
0
LINE
8
Layer 1
10
-41.155834
20
250.213132
11
-41.155834
21
250.213132
0
LINE
8
Layer 1
10
250.935346
20
250.213132
11
251.155832
21
250.213132
0
LINE
8
Layer 1
10
251.155832
20
250.213132
11
252.058586
21
250.059217
0
LINE
8
Layer 1
10
252.058586
20
250.059217
11
253.069652
21
249.657507
0
LINE
8
Layer 1
10
253.069652
20
249.657507
11
253.996394
21
249.051664
0
LINE
8
Layer 1
10
253.996394
20
249.051664
11
254.746951
21
248.257069
0
LINE
8
Layer 1
10
254.746951
20
248.257069
11
255.249761
21
247.368943
0
LINE
8
Layer 1
10
255.249761
20
247.368943
11
255.433263
21
246.482507
0
LINE
8
Layer 1
10
255.433263
20
246.482507
11
255.245367
21
245.718070
0
LINE
8
Layer 1
10
255.245367
20
245.718070
11
254.743324
21
244.990315
0
LINE
8
Layer 1
10
254.743324
20
244.990315
11
254.019602
21
244.397909
0
LINE
8
Layer 1
10
254.019602
20
244.397909
11
253.166666
21
244.039521
0
LINE
8
Layer 1
10
253.166666
20
244.039521
11
251.644383
21
243.795993
0
LINE
8
Layer 1
10
251.644383
20
243.795993
11
250.229791
21
244.057160
0
LINE
8
Layer 1
10
250.229791
20
244.057160
11
249.155354
21
244.500030
0
LINE
8
Layer 1
10
249.155354
20
244.500030
11
248.344197
21
245.125483
0
LINE
8
Layer 1
10
248.344197
20
245.125483
11
247.803681
21
245.881331
0
LINE
8
Layer 1
10
247.803681
20
245.881331
11
247.541168
21
246.715382
0
LINE
8
Layer 1
10
247.541168
20
246.715382
11
247.564022
21
247.575444
0
LINE
8
Layer 1
10
247.564022
20
247.575444
11
247.879604
21
248.409329
0
LINE
8
Layer 1
10
247.879604
20
248.409329
11
248.495276
21
249.164844
0
LINE
8
Layer 1
10
248.495276
20
249.164844
11
249.418402
21
249.789799
0
LINE
8
Layer 1
10
249.418402
20
249.789799
11
250.186467
21
250.094668
0
LINE
8
Layer 1
10
250.186467
20
250.094668
11
250.935346
21
250.213132
0
LINE
8
Layer 1
10
250.935346
20
250.213132
11
250.935346
21
250.213132
0
LINE
8
Layer 1
10
-27.415141
20
245.380077
11
-26.295072
21
245.380077
0
LINE
8
Layer 1
10
-26.295072
20
245.380077
11
-22.384120
21
245.195318
0
LINE
8
Layer 1
10
-22.384120
20
245.195318
11
-19.045488
21
244.745077
0
LINE
8
Layer 1
10
-19.045488
20
244.745077
11
-17.559644
21
244.286245
0
LINE
8
Layer 1
10
-17.559644
20
244.286245
11
-16.450819
21
243.635344
0
LINE
8
Layer 1
10
-16.450819
20
243.635344
11
-15.757383
21
242.822729
0
LINE
8
Layer 1
10
-15.757383
20
242.822729
11
-15.517711
21
241.878757
0
LINE
8
Layer 1
10
-15.517711
20
241.878757
11
-15.648303
21
241.270510
0
LINE
8
Layer 1
10
-15.648303
20
241.270510
11
-16.028215
21
240.664857
0
LINE
8
Layer 1
10
-16.028215
20
240.664857
11
-16.639651
21
240.072584
0
LINE
8
Layer 1
10
-16.639651
20
240.072584
11
-17.464814
21
239.504481
0
LINE
8
Layer 1
10
-17.464814
20
239.504481
11
-19.685136
21
238.483935
0
LINE
8
Layer 1
10
-19.685136
20
238.483935
11
-22.546808
21
237.689521
0
LINE
8
Layer 1
10
-22.546808
20
237.689521
11
-25.864769
21
237.212011
0
LINE
8
Layer 1
10
-25.864769
20
237.212011
11
-29.060658
21
237.134764
0
LINE
8
Layer 1
10
-29.060658
20
237.134764
11
-31.824050
21
237.445139
0
LINE
8
Layer 1
10
-31.824050
20
237.445139
11
-32.946550
21
237.741734
0
LINE
8
Layer 1
10
-32.946550
20
237.741734
11
-33.844515
21
238.130493
0
LINE
8
Layer 1
10
-33.844515
20
238.130493
11
-34.452912
21
238.567177
0
LINE
8
Layer 1
10
-34.452912
20
238.567177
11
-34.964357
21
239.121054
0
LINE
8
Layer 1
10
-34.964357
20
239.121054
11
-35.655401
21
240.450505
0
LINE
8
Layer 1
10
-35.655401
20
240.450505
11
-35.835673
21
241.859082
0
LINE
8
Layer 1
10
-35.835673
20
241.859082
11
-35.708651
21
242.511866
0
LINE
8
Layer 1
10
-35.708651
20
242.511866
11
-35.423196
21
243.087021
0
LINE
8
Layer 1
10
-35.423196
20
243.087021
11
-34.700551
21
243.709627
0
LINE
8
Layer 1
10
-34.700551
20
243.709627
11
-33.491547
21
244.302352
0
LINE
8
Layer 1
10
-33.491547
20
244.302352
11
-31.932065
21
244.812168
0
LINE
8
Layer 1
10
-31.932065
20
244.812168
11
-30.157987
21
245.186049
0
LINE
8
Layer 1
10
-30.157987
20
245.186049
11
-27.415141
21
245.380077
0
LINE
8
Layer 1
10
-27.415141
20
245.380077
11
-27.415141
21
245.380077
0
LINE
8
Layer 1
10
236.295068
20
245.380077
11
240.157985
21
245.186049
0
LINE
8
Layer 1
10
240.157985
20
245.186049
11
241.932064
21
244.812168
0
LINE
8
Layer 1
10
241.932064
20
244.812168
11
243.491548
21
244.302352
0
LINE
8
Layer 1
10
243.491548
20
244.302352
11
244.700552
21
243.709627
0
LINE
8
Layer 1
10
244.700552
20
243.709627
11
245.423193
21
243.087021
0
LINE
8
Layer 1
10
245.423193
20
243.087021
11
245.708649
21
242.511866
0
LINE
8
Layer 1
10
245.708649
20
242.511866
11
245.835672
21
241.859082
0
LINE
8
Layer 1
10
245.835672
20
241.859082
11
245.655402
21
240.450505
0
LINE
8
Layer 1
10
245.655402
20
240.450505
11
244.964358
21
239.121054
0
LINE
8
Layer 1
10
244.964358
20
239.121054
11
244.452912
21
238.567177
0
LINE
8
Layer 1
10
244.452912
20
238.567177
11
243.844513
21
238.130493
0
LINE
8
Layer 1
10
243.844513
20
238.130493
11
242.946548
21
237.741734
0
LINE
8
Layer 1
10
242.946548
20
237.741734
11
241.824048
21
237.445139
0
LINE
8
Layer 1
10
241.824048
20
237.445139
11
239.060659
21
237.134764
0
LINE
8
Layer 1
10
239.060659
20
237.134764
11
235.864769
21
237.212011
0
LINE
8
Layer 1
10
235.864769
20
237.212011
11
232.546804
21
237.689521
0
LINE
8
Layer 1
10
232.546804
20
237.689521
11
229.685134
21
238.483935
0
LINE
8
Layer 1
10
229.685134
20
238.483935
11
227.464814
21
239.504481
0
LINE
8
Layer 1
10
227.464814
20
239.504481
11
226.639652
21
240.072584
0
LINE
8
Layer 1
10
226.639652
20
240.072584
11
226.028215
21
240.664857
0
LINE
8
Layer 1
10
226.028215
20
240.664857
11
225.648302
21
241.270510
0
LINE
8
Layer 1
10
225.648302
20
241.270510
11
225.517707
21
241.878757
0
LINE
8
Layer 1
10
225.517707
20
241.878757
11
225.757382
21
242.822729
0
LINE
8
Layer 1
10
225.757382
20
242.822729
11
226.450819
21
243.635344
0
LINE
8
Layer 1
10
226.450819
20
243.635344
11
227.559645
21
244.286245
0
LINE
8
Layer 1
10
227.559645
20
244.286245
11
229.045485
21
244.745077
0
LINE
8
Layer 1
10
229.045485
20
244.745077
11
232.384120
21
245.195318
0
LINE
8
Layer 1
10
232.384120
20
245.195318
11
236.295068
21
245.380077
0
LINE
8
Layer 1
10
236.295068
20
245.380077
11
236.295068
21
245.380077
0
LINE
8
Layer 1
10
-51.774446
20
244.004243
11
-51.239891
21
243.915601
0
LINE
8
Layer 1
10
-51.239891
20
243.915601
11
-50.753507
21
243.650794
0
LINE
8
Layer 1
10
-50.753507
20
243.650794
11
-49.931182
21
242.593132
0
LINE
8
Layer 1
10
-49.931182
20
242.593132
11
-49.537506
21
241.602444
0
LINE
8
Layer 1
10
-49.537506
20
241.602444
11
-49.684237
21
241.049729
0
LINE
8
Layer 1
10
-49.684237
20
241.049729
11
-50.241097
21
240.745023
0
LINE
8
Layer 1
10
-50.241097
20
240.745023
11
-51.117217
21
240.671863
0
LINE
8
Layer 1
10
-51.117217
20
240.671863
11
-52.172020
21
240.825118
0
LINE
8
Layer 1
10
-52.172020
20
240.825118
11
-53.264932
21
241.199660
0
LINE
8
Layer 1
10
-53.264932
20
241.199660
11
-54.064816
21
241.655470
0
LINE
8
Layer 1
10
-54.064816
20
241.655470
11
-54.402748
21
242.108893
0
LINE
8
Layer 1
10
-54.402748
20
242.108893
11
-54.288630
21
242.597179
0
LINE
8
Layer 1
10
-54.288630
20
242.597179
11
-53.732362
21
243.157577
0
LINE
8
Layer 1
10
-53.732362
20
243.157577
11
-52.698890
21
243.794730
0
LINE
8
Layer 1
10
-52.698890
20
243.794730
11
-51.774446
21
244.004243
0
LINE
8
Layer 1
10
-51.774446
20
244.004243
11
-51.774446
21
244.004243
0
LINE
8
Layer 1
10
261.774443
20
244.004243
11
262.698891
21
243.794730
0
LINE
8
Layer 1
10
262.698891
20
243.794730
11
263.732360
21
243.157577
0
LINE
8
Layer 1
10
263.732360
20
243.157577
11
264.288629
21
242.597179
0
LINE
8
Layer 1
10
264.288629
20
242.597179
11
264.402749
21
242.108893
0
LINE
8
Layer 1
10
264.402749
20
242.108893
11
264.064817
21
241.655470
0
LINE
8
Layer 1
10
264.064817
20
241.655470
11
263.264929
21
241.199660
0
LINE
8
Layer 1
10
263.264929
20
241.199660
11
262.172019
21
240.825118
0
LINE
8
Layer 1
10
262.172019
20
240.825118
11
261.117218
21
240.671863
0
LINE
8
Layer 1
10
261.117218
20
240.671863
11
260.241099
21
240.745023
0
LINE
8
Layer 1
10
260.241099
20
240.745023
11
259.684235
21
241.049729
0
LINE
8
Layer 1
10
259.684235
20
241.049729
11
259.537507
21
241.602444
0
LINE
8
Layer 1
10
259.537507
20
241.602444
11
259.931179
21
242.593132
0
LINE
8
Layer 1
10
259.931179
20
242.593132
11
260.753508
21
243.650794
0
LINE
8
Layer 1
10
260.753508
20
243.650794
11
261.239892
21
243.915601
0
LINE
8
Layer 1
10
261.239892
20
243.915601
11
261.774443
21
244.004243
0
LINE
8
Layer 1
10
261.774443
20
244.004243
11
261.774443
21
244.004243
0
LINE
8
Layer 1
10
-0.665766
20
243.422160
11
0.143721
21
243.188074
0
LINE
8
Layer 1
10
0.143721
20
243.188074
11
1.512637
21
242.452021
0
LINE
8
Layer 1
10
1.512637
20
242.452021
11
3.817616
21
240.889006
0
LINE
8
Layer 1
10
3.817616
20
240.889006
11
4.350630
21
240.284595
0
LINE
8
Layer 1
10
4.350630
20
240.284595
11
4.520067
21
239.753271
0
LINE
8
Layer 1
10
4.520067
20
239.753271
11
4.360885
21
239.346961
0
LINE
8
Layer 1
10
4.360885
20
239.346961
11
3.844226
21
239.283316
0
LINE
8
Layer 1
10
3.844226
20
239.283316
11
2.911426
21
239.571507
0
LINE
8
Layer 1
10
2.911426
20
239.571507
11
1.503817
21
240.220702
0
LINE
8
Layer 1
10
1.503817
20
240.220702
11
0.064401
21
240.999960
0
LINE
8
Layer 1
10
0.064401
20
240.999960
11
-0.816134
21
241.643728
0
LINE
8
Layer 1
10
-0.816134
20
241.643728
11
-1.217995
21
242.230827
0
LINE
8
Layer 1
10
-1.217995
20
242.230827
11
-1.221391
21
242.840077
0
LINE
8
Layer 1
10
-1.221391
20
242.840077
11
-1.021046
21
243.269872
0
LINE
8
Layer 1
10
-1.021046
20
243.269872
11
-0.665766
21
243.422160
0
LINE
8
Layer 1
10
-0.665766
20
243.422160
11
-0.665766
21
243.422160
0
LINE
8
Layer 1
10
210.665763
20
243.422160
11
211.021046
21
243.269872
0
LINE
8
Layer 1
10
211.021046
20
243.269872
11
211.221388
21
242.840077
0
LINE
8
Layer 1
10
211.221388
20
242.840077
11
211.217993
21
242.230827
0
LINE
8
Layer 1
10
211.217993
20
242.230827
11
210.816134
21
241.643728
0
LINE
8
Layer 1
10
210.816134
20
241.643728
11
209.935600
21
240.999960
0
LINE
8
Layer 1
10
209.935600
20
240.999960
11
208.496179
21
240.220702
0
LINE
8
Layer 1
10
208.496179
20
240.220702
11
207.088572
21
239.571507
0
LINE
8
Layer 1
10
207.088572
20
239.571507
11
206.155774
21
239.283316
0
LINE
8
Layer 1
10
206.155774
20
239.283316
11
205.639116
21
239.346961
0
LINE
8
Layer 1
10
205.639116
20
239.346961
11
205.479929
21
239.753271
0
LINE
8
Layer 1
10
205.479929
20
239.753271
11
205.649368
21
240.284595
0
LINE
8
Layer 1
10
205.649368
20
240.284595
11
206.182384
21
240.889006
0
LINE
8
Layer 1
10
206.182384
20
240.889006
11
208.487360
21
242.452021
0
LINE
8
Layer 1
10
208.487360
20
242.452021
11
209.856279
21
243.188074
0
LINE
8
Layer 1
10
209.856279
20
243.188074
11
210.665763
21
243.422160
0
LINE
8
Layer 1
10
210.665763
20
243.422160
11
210.665763
21
243.422160
0
LINE
8
Layer 1
10
-11.125627
20
243.369243
11
-9.940579
21
243.222229
0
LINE
8
Layer 1
10
-9.940579
20
243.222229
11
-8.691461
21
242.743063
0
LINE
8
Layer 1
10
-8.691461
20
242.743063
11
-7.924169
21
242.337368
0
LINE
8
Layer 1
10
-7.924169
20
242.337368
11
-8.462155
21
241.137924
0
LINE
8
Layer 1
10
-8.462155
20
241.137924
11
-9.026906
21
240.208548
0
LINE
8
Layer 1
10
-9.026906
20
240.208548
11
-9.643961
21
239.753271
0
LINE
8
Layer 1
10
-9.643961
20
239.753271
11
-10.606034
21
239.576499
0
LINE
8
Layer 1
10
-10.606034
20
239.576499
11
-11.496938
21
239.588050
0
LINE
8
Layer 1
10
-11.496938
20
239.588050
11
-12.281438
21
239.764058
0
LINE
8
Layer 1
10
-12.281438
20
239.764058
11
-12.924297
21
240.080658
0
LINE
8
Layer 1
10
-12.924297
20
240.080658
11
-13.390277
21
240.513981
0
LINE
8
Layer 1
10
-13.390277
20
240.513981
11
-13.644143
21
241.040163
0
LINE
8
Layer 1
10
-13.644143
20
241.040163
11
-13.650658
21
241.635335
0
LINE
8
Layer 1
10
-13.650658
20
241.635335
11
-13.374586
21
242.275632
0
LINE
8
Layer 1
10
-13.374586
20
242.275632
11
-12.963065
21
242.743897
0
LINE
8
Layer 1
10
-12.963065
20
242.743897
11
-12.438293
21
243.083581
0
LINE
8
Layer 1
10
-12.438293
20
243.083581
11
-11.125627
21
243.369243
0
LINE
8
Layer 1
10
-11.125627
20
243.369243
11
-11.125627
21
243.369243
0
LINE
8
Layer 1
10
221.125624
20
243.369243
11
222.438294
21
243.083581
0
LINE
8
Layer 1
10
222.438294
20
243.083581
11
222.963066
21
242.743897
0
LINE
8
Layer 1
10
222.963066
20
242.743897
11
223.374582
21
242.275632
0
LINE
8
Layer 1
10
223.374582
20
242.275632
11
223.650655
21
241.635335
0
LINE
8
Layer 1
10
223.650655
20
241.635335
11
223.644141
21
241.040163
0
LINE
8
Layer 1
10
223.644141
20
241.040163
11
223.390276
21
240.513981
0
LINE
8
Layer 1
10
223.390276
20
240.513981
11
222.924296
21
240.080658
0
LINE
8
Layer 1
10
222.924296
20
240.080658
11
222.281438
21
239.764058
0
LINE
8
Layer 1
10
222.281438
20
239.764058
11
221.496938
21
239.588050
0
LINE
8
Layer 1
10
221.496938
20
239.588050
11
220.606033
21
239.576499
0
LINE
8
Layer 1
10
220.606033
20
239.576499
11
219.643957
21
239.753271
0
LINE
8
Layer 1
10
219.643957
20
239.753271
11
219.026906
21
240.208548
0
LINE
8
Layer 1
10
219.026906
20
240.208548
11
218.462152
21
241.137924
0
LINE
8
Layer 1
10
218.462152
20
241.137924
11
217.924166
21
242.337368
0
LINE
8
Layer 1
10
217.924166
20
242.337368
11
218.691457
21
242.743063
0
LINE
8
Layer 1
10
218.691457
20
242.743063
11
219.940579
21
243.222229
0
LINE
8
Layer 1
10
219.940579
20
243.222229
11
221.125624
21
243.369243
0
LINE
8
Layer 1
10
221.125624
20
243.369243
11
221.125624
21
243.369243
0
LINE
8
Layer 1
10
-3.267502
20
240.344174
11
-1.874030
21
239.982577
0
LINE
8
Layer 1
10
-1.874030
20
239.982577
11
-0.715326
21
239.241855
0
LINE
8
Layer 1
10
-0.715326
20
239.241855
11
0.790903
21
237.964285
0
LINE
8
Layer 1
10
0.790903
20
237.964285
11
2.283172
21
236.483187
0
LINE
8
Layer 1
10
2.283172
20
236.483187
11
3.399998
21
235.131882
0
LINE
8
Layer 1
10
3.399998
20
235.131882
11
4.034956
21
233.994852
0
LINE
8
Layer 1
10
4.034956
20
233.994852
11
4.493535
21
232.752544
0
LINE
8
Layer 1
10
4.493535
20
232.752544
11
4.727255
21
231.575425
0
LINE
8
Layer 1
10
4.727255
20
231.575425
11
4.687637
21
230.633966
0
LINE
8
Layer 1
10
4.687637
20
230.633966
11
4.370835
21
230.064265
0
LINE
8
Layer 1
10
4.370835
20
230.064265
11
3.602845
21
229.946049
0
LINE
8
Layer 1
10
3.602845
20
229.946049
11
2.236903
21
230.091125
0
LINE
8
Layer 1
10
2.236903
20
230.091125
11
0.680921
21
230.418739
0
LINE
8
Layer 1
10
0.680921
20
230.418739
11
-0.767884
21
230.853966
0
LINE
8
Layer 1
10
-0.767884
20
230.853966
11
-1.812294
21
231.321882
0
LINE
8
Layer 1
10
-1.812294
20
231.321882
11
-2.987878
21
232.208738
0
LINE
8
Layer 1
10
-2.987878
20
232.208738
11
-3.970352
21
233.264624
0
LINE
8
Layer 1
10
-3.970352
20
233.264624
11
-4.739041
21
234.428419
0
LINE
8
Layer 1
10
-4.739041
20
234.428419
11
-5.273273
21
235.639002
0
LINE
8
Layer 1
10
-5.273273
20
235.639002
11
-5.552374
21
236.835254
0
LINE
8
Layer 1
10
-5.552374
20
236.835254
11
-5.555671
21
237.956053
0
LINE
8
Layer 1
10
-5.555671
20
237.956053
11
-5.262489
21
238.940280
0
LINE
8
Layer 1
10
-5.262489
20
238.940280
11
-4.652155
21
239.726813
0
LINE
8
Layer 1
10
-4.652155
20
239.726813
11
-4.039237
21
240.154046
0
LINE
8
Layer 1
10
-4.039237
20
240.154046
11
-3.426252
21
240.335354
0
LINE
8
Layer 1
10
-3.426252
20
240.335354
11
-3.267502
21
240.344174
0
LINE
8
Layer 1
10
-3.267502
20
240.344174
11
-3.267502
21
240.344174
0
LINE
8
Layer 1
10
213.258679
20
240.344174
11
213.426249
21
240.335354
0
LINE
8
Layer 1
10
213.426249
20
240.335354
11
214.039237
21
240.154046
0
LINE
8
Layer 1
10
214.039237
20
240.154046
11
214.652152
21
239.726813
0
LINE
8
Layer 1
10
214.652152
20
239.726813
11
215.262486
21
238.940280
0
LINE
8
Layer 1
10
215.262486
20
238.940280
11
215.555668
21
237.956053
0
LINE
8
Layer 1
10
215.555668
20
237.956053
11
215.552373
21
236.835254
0
LINE
8
Layer 1
10
215.552373
20
236.835254
11
215.273273
21
235.639002
0
LINE
8
Layer 1
10
215.273273
20
235.639002
11
214.739041
21
234.428419
0
LINE
8
Layer 1
10
214.739041
20
234.428419
11
213.970352
21
233.264624
0
LINE
8
Layer 1
10
213.970352
20
233.264624
11
212.987877
21
232.208738
0
LINE
8
Layer 1
10
212.987877
20
232.208738
11
211.812291
21
231.321882
0
LINE
8
Layer 1
10
211.812291
20
231.321882
11
210.767882
21
230.853966
0
LINE
8
Layer 1
10
210.767882
20
230.853966
11
209.319079
21
230.418739
0
LINE
8
Layer 1
10
209.319079
20
230.418739
11
207.763098
21
230.091125
0
LINE
8
Layer 1
10
207.763098
20
230.091125
11
206.397152
21
229.946049
0
LINE
8
Layer 1
10
206.397152
20
229.946049
11
205.629165
21
230.064265
0
LINE
8
Layer 1
10
205.629165
20
230.064265
11
205.312360
21
230.633966
0
LINE
8
Layer 1
10
205.312360
20
230.633966
11
205.272743
21
231.575425
0
LINE
8
Layer 1
10
205.272743
20
231.575425
11
205.506465
21
232.752544
0
LINE
8
Layer 1
10
205.506465
20
232.752544
11
205.965044
21
233.994852
0
LINE
8
Layer 1
10
205.965044
20
233.994852
11
206.599999
21
235.131882
0
LINE
8
Layer 1
10
206.599999
20
235.131882
11
207.716826
21
236.483187
0
LINE
8
Layer 1
10
207.716826
20
236.483187
11
209.209097
21
237.964285
0
LINE
8
Layer 1
10
209.209097
20
237.964285
11
210.715326
21
239.241855
0
LINE
8
Layer 1
10
210.715326
20
239.241855
11
211.874027
21
239.982577
0
LINE
8
Layer 1
10
211.874027
20
239.982577
11
213.258679
21
240.344174
0
LINE
8
Layer 1
10
213.258679
20
240.344174
11
213.258679
21
240.344174
0
LINE
8
Layer 1
10
-42.910904
20
238.386257
11
-41.384639
21
238.209849
0
LINE
8
Layer 1
10
-41.384639
20
238.209849
11
-39.770956
21
237.748999
0
LINE
8
Layer 1
10
-39.770956
20
237.748999
11
-38.351413
21
237.106276
0
LINE
8
Layer 1
10
-38.351413
20
237.106276
11
-37.407571
21
236.384243
0
LINE
8
Layer 1
10
-37.407571
20
236.384243
11
-36.896113
21
235.649659
0
LINE
8
Layer 1
10
-36.896113
20
235.649659
11
-36.684376
21
235.096604
0
LINE
8
Layer 1
10
-36.684376
20
235.096604
11
-36.962210
21
234.418919
0
LINE
8
Layer 1
10
-36.962210
20
234.418919
11
-37.717779
21
233.700118
0
LINE
8
Layer 1
10
-37.717779
20
233.700118
11
-38.834181
21
233.026922
0
LINE
8
Layer 1
10
-38.834181
20
233.026922
11
-40.194515
21
232.486049
0
LINE
8
Layer 1
10
-40.194515
20
232.486049
11
-41.640310
21
232.079298
0
LINE
8
Layer 1
10
-41.640310
20
232.079298
11
-42.657585
21
231.939505
0
LINE
8
Layer 1
10
-42.657585
20
231.939505
11
-43.521502
21
232.064164
0
LINE
8
Layer 1
10
-43.521502
20
232.064164
11
-44.507223
21
232.450771
0
LINE
8
Layer 1
10
-44.507223
20
232.450771
11
-45.732020
21
233.304473
0
LINE
8
Layer 1
10
-45.732020
20
233.304473
11
-46.541320
21
234.466255
0
LINE
8
Layer 1
10
-46.541320
20
234.466255
11
-46.849509
21
235.749184
0
LINE
8
Layer 1
10
-46.849509
20
235.749184
11
-46.788933
21
236.377662
0
LINE
8
Layer 1
10
-46.788933
20
236.377662
11
-46.570973
21
236.966327
0
LINE
8
Layer 1
10
-46.570973
20
236.966327
11
-46.039021
21
237.473309
0
LINE
8
Layer 1
10
-46.039021
20
237.473309
11
-45.118700
21
237.929730
0
LINE
8
Layer 1
10
-45.118700
20
237.929730
11
-44.009498
21
238.259432
0
LINE
8
Layer 1
10
-44.009498
20
238.259432
11
-42.910904
21
238.386257
0
LINE
8
Layer 1
10
-42.910904
20
238.386257
11
-42.910904
21
238.386257
0
LINE
8
Layer 1
10
252.910902
20
238.386257
11
254.009497
21
238.259432
0
LINE
8
Layer 1
10
254.009497
20
238.259432
11
255.118701
21
237.929730
0
LINE
8
Layer 1
10
255.118701
20
237.929730
11
256.039022
21
237.473309
0
LINE
8
Layer 1
10
256.039022
20
237.473309
11
256.570971
21
236.966327
0
LINE
8
Layer 1
10
256.570971
20
236.966327
11
256.788931
21
236.377662
0
LINE
8
Layer 1
10
256.788931
20
236.377662
11
256.849508
21
235.749184
0
LINE
8
Layer 1
10
256.849508
20
235.749184
11
256.541321
21
234.466255
0
LINE
8
Layer 1
10
256.541321
20
234.466255
11
255.732021
21
233.304473
0
LINE
8
Layer 1
10
255.732021
20
233.304473
11
254.507221
21
232.450771
0
LINE
8
Layer 1
10
254.507221
20
232.450771
11
253.521501
21
232.064164
0
LINE
8
Layer 1
10
253.521501
20
232.064164
11
252.657586
21
231.939505
0
LINE
8
Layer 1
10
252.657586
20
231.939505
11
251.640311
21
232.079298
0
LINE
8
Layer 1
10
251.640311
20
232.079298
11
250.194513
21
232.486049
0
LINE
8
Layer 1
10
250.194513
20
232.486049
11
248.834179
21
233.026922
0
LINE
8
Layer 1
10
248.834179
20
233.026922
11
247.717780
21
233.700118
0
LINE
8
Layer 1
10
247.717780
20
233.700118
11
246.962212
21
234.418919
0
LINE
8
Layer 1
10
246.962212
20
234.418919
11
246.684374
21
235.096604
0
LINE
8
Layer 1
10
246.684374
20
235.096604
11
246.896114
21
235.649659
0
LINE
8
Layer 1
10
246.896114
20
235.649659
11
247.407568
21
236.384243
0
LINE
8
Layer 1
10
247.407568
20
236.384243
11
248.351412
21
237.106276
0
LINE
8
Layer 1
10
248.351412
20
237.106276
11
249.770957
21
237.748999
0
LINE
8
Layer 1
10
249.770957
20
237.748999
11
251.384640
21
238.209849
0
LINE
8
Layer 1
10
251.384640
20
238.209849
11
252.910902
21
238.386257
0
LINE
8
Layer 1
10
252.910902
20
238.386257
11
252.910902
21
238.386257
0
LINE
8
Layer 1
10
8.303609
20
238.077577
11
9.141456
21
238.015841
0
LINE
8
Layer 1
10
9.141456
20
238.015841
11
10.544591
21
237.713369
0
LINE
8
Layer 1
10
10.544591
20
237.713369
11
12.039646
21
237.206292
0
LINE
8
Layer 1
10
12.039646
20
237.206292
11
13.463643
21
236.559389
0
LINE
8
Layer 1
10
13.463643
20
236.559389
11
14.653609
21
235.837438
0
LINE
8
Layer 1
10
14.653609
20
235.837438
11
15.615077
21
234.996747
0
LINE
8
Layer 1
10
15.615077
20
234.996747
11
16.536937
21
233.963661
0
LINE
8
Layer 1
10
16.536937
20
233.963661
11
17.229304
21
232.976700
0
LINE
8
Layer 1
10
17.229304
20
232.976700
11
17.502289
21
232.274382
0
LINE
8
Layer 1
10
17.502289
20
232.274382
11
17.401883
21
232.060354
0
LINE
8
Layer 1
10
17.401883
20
232.060354
11
17.121343
21
231.929514
0
LINE
8
Layer 1
10
17.121343
20
231.929514
11
16.143943
21
231.904192
0
LINE
8
Layer 1
10
16.143943
20
231.904192
11
14.818252
21
232.172003
0
LINE
8
Layer 1
10
14.818252
20
232.172003
11
13.392428
21
232.706535
0
LINE
8
Layer 1
10
13.392428
20
232.706535
11
12.008934
21
233.462199
0
LINE
8
Layer 1
10
12.008934
20
233.462199
11
10.764671
21
234.353042
0
LINE
8
Layer 1
10
10.764671
20
234.353042
11
9.663506
21
235.375336
0
LINE
8
Layer 1
10
9.663506
20
235.375336
11
8.709303
21
236.525354
0
LINE
8
Layer 1
10
8.709303
20
236.525354
11
7.984552
21
237.705807
0
LINE
8
Layer 1
10
7.984552
20
237.705807
11
8.008117
21
237.975185
0
LINE
8
Layer 1
10
8.008117
20
237.975185
11
8.303609
21
238.077577
0
LINE
8
Layer 1
10
8.303609
20
238.077577
11
8.303609
21
238.077577
0
LINE
8
Layer 1
10
201.696388
20
238.077577
11
201.991882
21
237.975185
0
LINE
8
Layer 1
10
201.991882
20
237.975185
11
202.015449
21
237.705807
0
LINE
8
Layer 1
10
202.015449
20
237.705807
11
201.290693
21
236.525354
0
LINE
8
Layer 1
10
201.290693
20
236.525354
11
200.336492
21
235.375336
0
LINE
8
Layer 1
10
200.336492
20
235.375336
11
199.235328
21
234.353042
0
LINE
8
Layer 1
10
199.235328
20
234.353042
11
197.991066
21
233.462199
0
LINE
8
Layer 1
10
197.991066
20
233.462199
11
196.607568
21
232.706535
0
LINE
8
Layer 1
10
196.607568
20
232.706535
11
195.181746
21
232.172003
0
LINE
8
Layer 1
10
195.181746
20
232.172003
11
193.856056
21
231.904192
0
LINE
8
Layer 1
10
193.856056
20
231.904192
11
192.878657
21
231.929514
0
LINE
8
Layer 1
10
192.878657
20
231.929514
11
192.598116
21
232.060354
0
LINE
8
Layer 1
10
192.598116
20
232.060354
11
192.497707
21
232.274382
0
LINE
8
Layer 1
10
192.497707
20
232.274382
11
192.770695
21
232.976700
0
LINE
8
Layer 1
10
192.770695
20
232.976700
11
193.463063
21
233.963661
0
LINE
8
Layer 1
10
193.463063
20
233.963661
11
194.384923
21
234.996747
0
LINE
8
Layer 1
10
194.384923
20
234.996747
11
195.346388
21
235.837438
0
LINE
8
Layer 1
10
195.346388
20
235.837438
11
196.536355
21
236.559389
0
LINE
8
Layer 1
10
196.536355
20
236.559389
11
197.960354
21
237.206292
0
LINE
8
Layer 1
10
197.960354
20
237.206292
11
199.455409
21
237.713369
0
LINE
8
Layer 1
10
199.455409
20
237.713369
11
200.858541
21
238.015841
0
LINE
8
Layer 1
10
200.858541
20
238.015841
11
201.696388
21
238.077577
0
LINE
8
Layer 1
10
201.696388
20
238.077577
11
201.696388
21
238.077577
0
LINE
8
Layer 1
10
-19.283613
20
235.105424
11
-14.327086
21
234.902577
0
LINE
8
Layer 1
10
-14.327086
20
234.902577
11
-12.148683
21
234.673271
0
LINE
8
Layer 1
10
-12.148683
20
234.673271
11
-11.963475
21
233.685493
0
LINE
8
Layer 1
10
-11.963475
20
233.685493
11
-11.934829
21
232.744588
0
LINE
8
Layer 1
10
-11.934829
20
232.744588
11
-12.325072
21
231.939243
0
LINE
8
Layer 1
10
-12.325072
20
231.939243
11
-12.898795
21
231.338565
0
LINE
8
Layer 1
10
-12.898795
20
231.338565
11
-13.711752
21
230.758669
0
LINE
8
Layer 1
10
-13.711752
20
230.758669
11
-15.991152
21
229.685094
0
LINE
8
Layer 1
10
-15.991152
20
229.685094
11
-19.034839
21
228.766250
0
LINE
8
Layer 1
10
-19.034839
20
228.766250
11
-22.714377
21
228.049868
0
LINE
8
Layer 1
10
-22.714377
20
228.049868
11
-25.156185
21
227.808779
0
LINE
8
Layer 1
10
-25.156185
20
227.808779
11
-27.995919
21
227.706683
0
LINE
8
Layer 1
10
-27.995919
20
227.706683
11
-30.613614
21
227.749721
0
LINE
8
Layer 1
10
-30.613614
20
227.749721
11
-32.389307
21
227.944035
0
LINE
8
Layer 1
10
-32.389307
20
227.944035
11
-33.327009
21
228.275030
0
LINE
8
Layer 1
10
-33.327009
20
228.275030
11
-33.958508
21
228.771590
0
LINE
8
Layer 1
10
-33.958508
20
228.771590
11
-34.314730
21
229.471734
0
LINE
8
Layer 1
10
-34.314730
20
229.471734
11
-34.426598
21
230.413479
0
LINE
8
Layer 1
10
-34.426598
20
230.413479
11
-34.265220
21
231.566556
0
LINE
8
Layer 1
10
-34.265220
20
231.566556
11
-33.641668
21
232.441952
0
LINE
8
Layer 1
10
-33.641668
20
232.441952
11
-32.664558
21
233.150213
0
LINE
8
Layer 1
10
-32.664558
20
233.150213
11
-31.253892
21
233.800441
0
LINE
8
Layer 1
10
-31.253892
20
233.800441
11
-29.520169
21
234.351303
0
LINE
8
Layer 1
10
-29.520169
20
234.351303
11
-27.573891
21
234.761466
0
LINE
8
Layer 1
10
-27.573891
20
234.761466
11
-24.088910
21
235.032013
0
LINE
8
Layer 1
10
-24.088910
20
235.032013
11
-19.283613
21
235.105424
0
LINE
8
Layer 1
10
-19.283613
20
235.105424
11
-19.283613
21
235.105424
0
LINE
8
Layer 1
10
229.283610
20
235.105424
11
234.088911
21
235.032013
0
LINE
8
Layer 1
10
234.088911
20
235.032013
11
237.573888
21
234.761466
0
LINE
8
Layer 1
10
237.573888
20
234.761466
11
239.520167
21
234.351303
0
LINE
8
Layer 1
10
239.520167
20
234.351303
11
241.253892
21
233.800441
0
LINE
8
Layer 1
10
241.253892
20
233.800441
11
242.664559
21
233.150213
0
LINE
8
Layer 1
10
242.664559
20
233.150213
11
243.641666
21
232.441952
0
LINE
8
Layer 1
10
243.641666
20
232.441952
11
244.265221
21
231.566556
0
LINE
8
Layer 1
10
244.265221
20
231.566556
11
244.426596
21
230.413479
0
LINE
8
Layer 1
10
244.426596
20
230.413479
11
244.314729
21
229.471734
0
LINE
8
Layer 1
10
244.314729
20
229.471734
11
243.958509
21
228.771590
0
LINE
8
Layer 1
10
243.958509
20
228.771590
11
243.327010
21
228.275030
0
LINE
8
Layer 1
10
243.327010
20
228.275030
11
242.389304
21
227.944035
0
LINE
8
Layer 1
10
242.389304
20
227.944035
11
240.613612
21
227.749721
0
LINE
8
Layer 1
10
240.613612
20
227.749721
11
237.995919
21
227.706683
0
LINE
8
Layer 1
10
237.995919
20
227.706683
11
235.156186
21
227.808779
0
LINE
8
Layer 1
10
235.156186
20
227.808779
11
232.714374
21
228.049868
0
LINE
8
Layer 1
10
232.714374
20
228.049868
11
229.034837
21
228.766250
0
LINE
8
Layer 1
10
229.034837
20
228.766250
11
225.991152
21
229.685094
0
LINE
8
Layer 1
10
225.991152
20
229.685094
11
223.711752
21
230.758669
0
LINE
8
Layer 1
10
223.711752
20
230.758669
11
222.898794
21
231.338565
0
LINE
8
Layer 1
10
222.898794
20
231.338565
11
222.325068
21
231.939243
0
LINE
8
Layer 1
10
222.325068
20
231.939243
11
221.934829
21
232.744588
0
LINE
8
Layer 1
10
221.934829
20
232.744588
11
221.963471
21
233.685493
0
LINE
8
Layer 1
10
221.963471
20
233.685493
11
222.148679
21
234.673271
0
LINE
8
Layer 1
10
222.148679
20
234.673271
11
224.327082
21
234.902577
0
LINE
8
Layer 1
10
224.327082
20
234.902577
11
229.283610
21
235.105424
0
LINE
8
Layer 1
10
229.283610
20
235.105424
11
229.283610
21
235.105424
0
LINE
8
Layer 1
10
-7.421461
20
230.378202
11
-5.781055
21
230.326956
0
LINE
8
Layer 1
10
-5.781055
20
230.326956
11
-3.950391
21
230.109684
0
LINE
8
Layer 1
10
-3.950391
20
230.109684
11
-2.155314
21
229.757678
0
LINE
8
Layer 1
10
-2.155314
20
229.757678
11
-0.621669
21
229.302229
0
LINE
8
Layer 1
10
-0.621669
20
229.302229
11
0.624896
21
228.689654
0
LINE
8
Layer 1
10
0.624896
20
228.689654
11
1.833559
21
227.868326
0
LINE
8
Layer 1
10
1.833559
20
227.868326
11
2.747264
21
227.038551
0
LINE
8
Layer 1
10
2.747264
20
227.038551
11
3.108956
21
226.400632
0
LINE
8
Layer 1
10
3.108956
20
226.400632
11
2.756619
21
226.008568
0
LINE
8
Layer 1
10
2.756619
20
226.008568
11
1.909512
21
225.553966
0
LINE
8
Layer 1
10
1.909512
20
225.553966
11
0.315308
21
225.141717
0
LINE
8
Layer 1
10
0.315308
20
225.141717
11
-1.706976
21
224.939708
0
LINE
8
Layer 1
10
-1.706976
20
224.939708
11
-3.698134
21
224.967657
0
LINE
8
Layer 1
10
-3.698134
20
224.967657
11
-5.198961
21
225.245285
0
LINE
8
Layer 1
10
-5.198961
20
225.245285
11
-6.634053
21
225.981706
0
LINE
8
Layer 1
10
-6.634053
20
225.981706
11
-7.916087
21
227.011367
0
LINE
8
Layer 1
10
-7.916087
20
227.011367
11
-8.902300
21
228.194273
0
LINE
8
Layer 1
10
-8.902300
20
228.194273
11
-9.449933
21
229.390424
0
LINE
8
Layer 1
10
-9.449933
20
229.390424
11
-9.519907
21
229.807069
0
LINE
8
Layer 1
10
-9.519907
20
229.807069
11
-9.402865
21
230.049259
0
LINE
8
Layer 1
10
-9.402865
20
230.049259
11
-8.188752
21
230.316466
0
LINE
8
Layer 1
10
-8.188752
20
230.316466
11
-7.421461
21
230.378202
0
LINE
8
Layer 1
10
-7.421461
20
230.378202
11
-7.421461
21
230.378202
0
LINE
8
Layer 1
10
216.636527
20
230.378202
11
217.421457
21
230.378202
0
LINE
8
Layer 1
10
217.421457
20
230.378202
11
218.188749
21
230.316466
0
LINE
8
Layer 1
10
218.188749
20
230.316466
11
219.402865
21
230.049259
0
LINE
8
Layer 1
10
219.402865
20
230.049259
11
219.519907
21
229.807069
0
LINE
8
Layer 1
10
219.519907
20
229.807069
11
219.449929
21
229.390424
0
LINE
8
Layer 1
10
219.449929
20
229.390424
11
218.902298
21
228.194273
0
LINE
8
Layer 1
10
218.902298
20
228.194273
11
217.916087
21
227.011367
0
LINE
8
Layer 1
10
217.916087
20
227.011367
11
216.634053
21
225.981706
0
LINE
8
Layer 1
10
216.634053
20
225.981706
11
215.198957
21
225.245285
0
LINE
8
Layer 1
10
215.198957
20
225.245285
11
213.698131
21
224.967657
0
LINE
8
Layer 1
10
213.698131
20
224.967657
11
211.706975
21
224.939708
0
LINE
8
Layer 1
10
211.706975
20
224.939708
11
209.684692
21
225.141717
0
LINE
8
Layer 1
10
209.684692
20
225.141717
11
208.090485
21
225.553966
0
LINE
8
Layer 1
10
208.090485
20
225.553966
11
207.243380
21
226.008568
0
LINE
8
Layer 1
10
207.243380
20
226.008568
11
206.891041
21
226.400632
0
LINE
8
Layer 1
10
206.891041
20
226.400632
11
207.252734
21
227.038551
0
LINE
8
Layer 1
10
207.252734
20
227.038551
11
208.166441
21
227.868326
0
LINE
8
Layer 1
10
208.166441
20
227.868326
11
209.375105
21
228.689654
0
LINE
8
Layer 1
10
209.375105
20
228.689654
11
210.621666
21
229.302229
0
LINE
8
Layer 1
10
210.621666
20
229.302229
11
213.488150
21
230.034549
0
LINE
8
Layer 1
10
213.488150
20
230.034549
11
216.636527
21
230.378202
0
LINE
8
Layer 1
10
216.636527
20
230.378202
11
216.636527
21
230.378202
0
LINE
8
Layer 1
10
-47.347084
20
230.148896
11
-45.901483
21
229.966475
0
LINE
8
Layer 1
10
-45.901483
20
229.966475
11
-44.313196
21
229.363966
0
LINE
8
Layer 1
10
-44.313196
20
229.363966
11
-43.389694
21
228.713153
0
LINE
8
Layer 1
10
-43.389694
20
228.713153
11
-43.016737
21
227.829382
0
LINE
8
Layer 1
10
-43.016737
20
227.829382
11
-42.936248
21
226.902651
0
LINE
8
Layer 1
10
-42.936248
20
226.902651
11
-43.094334
21
226.182625
0
LINE
8
Layer 1
10
-43.094334
20
226.182625
11
-43.504663
21
225.637748
0
LINE
8
Layer 1
10
-43.504663
20
225.637748
11
-44.180904
21
225.236466
0
LINE
8
Layer 1
10
-44.180904
20
225.236466
11
-45.212779
21
224.857229
0
LINE
8
Layer 1
10
-45.212779
20
224.857229
11
-46.141903
21
225.121576
0
LINE
8
Layer 1
10
-46.141903
20
225.121576
11
-47.146710
21
225.594980
0
LINE
8
Layer 1
10
-47.146710
20
225.594980
11
-48.066497
21
226.188988
0
LINE
8
Layer 1
10
-48.066497
20
226.188988
11
-48.740557
21
226.815146
0
LINE
8
Layer 1
10
-48.740557
20
226.815146
11
-49.031688
21
227.484345
0
LINE
8
Layer 1
10
-49.031688
20
227.484345
11
-49.085305
21
228.335995
0
LINE
8
Layer 1
10
-49.085305
20
228.335995
11
-48.915837
21
229.168055
0
LINE
8
Layer 1
10
-48.915837
20
229.168055
11
-48.537709
21
229.778479
0
LINE
8
Layer 1
10
-48.537709
20
229.778479
11
-48.038644
21
230.046190
0
LINE
8
Layer 1
10
-48.038644
20
230.046190
11
-47.347084
21
230.148896
0
LINE
8
Layer 1
10
-47.347084
20
230.148896
11
-47.347084
21
230.148896
0
LINE
8
Layer 1
10
257.347082
20
230.148896
11
258.038645
21
230.046190
0
LINE
8
Layer 1
10
258.038645
20
230.046190
11
258.537707
21
229.778479
0
LINE
8
Layer 1
10
258.537707
20
229.778479
11
258.915835
21
229.168055
0
LINE
8
Layer 1
10
258.915835
20
229.168055
11
259.085306
21
228.335995
0
LINE
8
Layer 1
10
259.085306
20
228.335995
11
259.031689
21
227.484345
0
LINE
8
Layer 1
10
259.031689
20
227.484345
11
258.740554
21
226.815146
0
LINE
8
Layer 1
10
258.740554
20
226.815146
11
258.066496
21
226.188988
0
LINE
8
Layer 1
10
258.066496
20
226.188988
11
257.146711
21
225.594980
0
LINE
8
Layer 1
10
257.146711
20
225.594980
11
256.141904
21
225.121576
0
LINE
8
Layer 1
10
256.141904
20
225.121576
11
255.212777
21
224.857229
0
LINE
8
Layer 1
10
255.212777
20
224.857229
11
254.180902
21
225.236466
0
LINE
8
Layer 1
10
254.180902
20
225.236466
11
253.504662
21
225.637748
0
LINE
8
Layer 1
10
253.504662
20
225.637748
11
253.094335
21
226.182625
0
LINE
8
Layer 1
10
253.094335
20
226.182625
11
252.936250
21
226.902651
0
LINE
8
Layer 1
10
252.936250
20
226.902651
11
253.016735
21
227.829382
0
LINE
8
Layer 1
10
253.016735
20
227.829382
11
253.389695
21
228.713153
0
LINE
8
Layer 1
10
253.389695
20
228.713153
11
254.313193
21
229.363966
0
LINE
8
Layer 1
10
254.313193
20
229.363966
11
255.901484
21
229.966475
0
LINE
8
Layer 1
10
255.901484
20
229.966475
11
257.347082
21
230.148896
0
LINE
8
Layer 1
10
257.347082
20
230.148896
11
257.347082
21
230.148896
0
LINE
8
Layer 1
10
18.851664
20
228.226257
11
20.071418
21
228.107285
0
LINE
8
Layer 1
10
20.071418
20
228.107285
11
21.557802
21
227.766934
0
LINE
8
Layer 1
10
21.557802
20
227.766934
11
25.091128
21
226.521469
0
LINE
8
Layer 1
10
25.091128
20
226.521469
11
28.972969
21
224.688625
0
LINE
8
Layer 1
10
28.972969
20
224.688625
11
32.724652
21
222.467160
0
LINE
8
Layer 1
10
32.724652
20
222.467160
11
34.931219
21
220.836818
0
LINE
8
Layer 1
10
34.931219
20
220.836818
11
36.850441
21
219.139506
0
LINE
8
Layer 1
10
36.850441
20
219.139506
11
38.179615
21
217.670657
0
LINE
8
Layer 1
10
38.179615
20
217.670657
11
38.528340
21
217.114228
0
LINE
8
Layer 1
10
38.528340
20
217.114228
11
38.616041
21
216.725702
0
LINE
8
Layer 1
10
38.616041
20
216.725702
11
38.407966
21
216.374357
0
LINE
8
Layer 1
10
38.407966
20
216.374357
11
37.954240
21
216.216030
0
LINE
8
Layer 1
10
37.954240
20
216.216030
11
37.255749
21
216.250392
0
LINE
8
Layer 1
10
37.255749
20
216.250392
11
36.313382
21
216.477113
0
LINE
8
Layer 1
10
36.313382
20
216.477113
11
33.700573
21
217.506309
0
LINE
8
Layer 1
10
33.700573
20
217.506309
11
30.122916
21
219.300979
0
LINE
8
Layer 1
10
30.122916
20
219.300979
11
25.996145
21
221.713038
0
LINE
8
Layer 1
10
25.996145
20
221.713038
11
21.999140
21
224.358750
0
LINE
8
Layer 1
10
21.999140
20
224.358750
11
18.979422
21
226.642954
0
LINE
8
Layer 1
10
18.979422
20
226.642954
11
18.100896
21
227.463504
0
LINE
8
Layer 1
10
18.100896
20
227.463504
11
17.784512
21
227.970493
0
LINE
8
Layer 1
10
17.784512
20
227.970493
11
18.098632
21
228.151636
0
LINE
8
Layer 1
10
18.098632
20
228.151636
11
18.851664
21
228.226257
0
LINE
8
Layer 1
10
18.851664
20
228.226257
11
18.851664
21
228.226257
0
LINE
8
Layer 1
10
191.148332
20
228.226257
11
191.901368
21
228.151636
0
LINE
8
Layer 1
10
191.901368
20
228.151636
11
192.215485
21
227.970493
0
LINE
8
Layer 1
10
192.215485
20
227.970493
11
191.899102
21
227.463504
0
LINE
8
Layer 1
10
191.899102
20
227.463504
11
191.020577
21
226.642954
0
LINE
8
Layer 1
10
191.020577
20
226.642954
11
188.000860
21
224.358750
0
LINE
8
Layer 1
10
188.000860
20
224.358750
11
184.003855
21
221.713038
0
LINE
8
Layer 1
10
184.003855
20
221.713038
11
179.877082
21
219.300979
0
LINE
8
Layer 1
10
179.877082
20
219.300979
11
176.299426
21
217.506309
0
LINE
8
Layer 1
10
176.299426
20
217.506309
11
173.686619
21
216.477113
0
LINE
8
Layer 1
10
173.686619
20
216.477113
11
172.744252
21
216.250392
0
LINE
8
Layer 1
10
172.744252
20
216.250392
11
172.045762
21
216.216030
0
LINE
8
Layer 1
10
172.045762
20
216.216030
11
171.592034
21
216.374357
0
LINE
8
Layer 1
10
171.592034
20
216.374357
11
171.383957
21
216.725702
0
LINE
8
Layer 1
10
171.383957
20
216.725702
11
171.471658
21
217.114228
0
LINE
8
Layer 1
10
171.471658
20
217.114228
11
171.820384
21
217.670657
0
LINE
8
Layer 1
10
171.820384
20
217.670657
11
173.149560
21
219.139506
0
LINE
8
Layer 1
10
173.149560
20
219.139506
11
175.068782
21
220.836818
0
LINE
8
Layer 1
10
175.068782
20
220.836818
11
177.275346
21
222.467160
0
LINE
8
Layer 1
10
177.275346
20
222.467160
11
181.027029
21
224.688625
0
LINE
8
Layer 1
10
181.027029
20
224.688625
11
184.908871
21
226.521469
0
LINE
8
Layer 1
10
184.908871
20
226.521469
11
188.442198
21
227.766934
0
LINE
8
Layer 1
10
188.442198
20
227.766934
11
189.928581
21
228.107285
0
LINE
8
Layer 1
10
189.928581
20
228.107285
11
191.148332
21
228.226257
0
LINE
8
Layer 1
10
191.148332
20
228.226257
11
191.148332
21
228.226257
0
LINE
8
Layer 1
10
-17.343336
20
223.701882
11
-15.219960
21
223.627255
0
LINE
8
Layer 1
10
-15.219960
20
223.627255
11
-13.727363
21
223.410841
0
LINE
8
Layer 1
10
-13.727363
20
223.410841
11
-12.671267
21
222.931492
0
LINE
8
Layer 1
10
-12.671267
20
222.931492
11
-11.654794
21
222.202577
0
LINE
8
Layer 1
10
-11.654794
20
222.202577
11
-10.832637
21
221.163948
0
LINE
8
Layer 1
10
-10.832637
20
221.163948
11
-10.468914
21
219.971607
0
LINE
8
Layer 1
10
-10.468914
20
219.971607
11
-10.563634
21
218.620341
0
LINE
8
Layer 1
10
-10.563634
20
218.620341
11
-11.116808
21
217.104938
0
LINE
8
Layer 1
10
-11.116808
20
217.104938
11
-11.871727
21
215.846996
0
LINE
8
Layer 1
10
-11.871727
20
215.846996
11
-12.822848
21
214.766936
0
LINE
8
Layer 1
10
-12.822848
20
214.766936
11
-13.981487
21
213.854870
0
LINE
8
Layer 1
10
-13.981487
20
213.854870
11
-15.358961
21
213.100910
0
LINE
8
Layer 1
10
-15.358961
20
213.100910
11
-16.940869
21
212.547036
0
LINE
8
Layer 1
10
-16.940869
20
212.547036
11
-18.532420
21
212.306640
0
LINE
8
Layer 1
10
-18.532420
20
212.306640
11
-20.107384
21
212.370930
0
LINE
8
Layer 1
10
-20.107384
20
212.370930
11
-21.639534
21
212.731117
0
LINE
8
Layer 1
10
-21.639534
20
212.731117
11
-23.102641
21
213.378409
0
LINE
8
Layer 1
10
-23.102641
20
213.378409
11
-24.470477
21
214.304015
0
LINE
8
Layer 1
10
-24.470477
20
214.304015
11
-25.716812
21
215.499145
0
LINE
8
Layer 1
10
-25.716812
20
215.499145
11
-26.815419
21
216.955007
0
LINE
8
Layer 1
10
-26.815419
20
216.955007
11
-27.471025
21
218.195166
0
LINE
8
Layer 1
10
-27.471025
20
218.195166
11
-27.761603
21
219.307135
0
LINE
8
Layer 1
10
-27.761603
20
219.307135
11
-27.685138
21
220.293284
0
LINE
8
Layer 1
10
-27.685138
20
220.293284
11
-27.239612
21
221.155983
0
LINE
8
Layer 1
10
-27.239612
20
221.155983
11
-26.423012
21
221.897600
0
LINE
8
Layer 1
10
-26.423012
20
221.897600
11
-25.233320
21
222.520506
0
LINE
8
Layer 1
10
-25.233320
20
222.520506
11
-23.668521
21
223.027069
0
LINE
8
Layer 1
10
-23.668521
20
223.027069
11
-21.726600
21
223.419660
0
LINE
8
Layer 1
10
-21.726600
20
223.419660
11
-19.660392
21
223.632247
0
LINE
8
Layer 1
10
-19.660392
20
223.632247
11
-17.343336
21
223.701882
0
LINE
8
Layer 1
10
-17.343336
20
223.701882
11
-17.343336
21
223.701882
0
LINE
8
Layer 1
10
227.343332
20
223.701882
11
229.660392
21
223.632247
0
LINE
8
Layer 1
10
229.660392
20
223.632247
11
231.726596
21
223.419660
0
LINE
8
Layer 1
10
231.726596
20
223.419660
11
233.668518
21
223.027069
0
LINE
8
Layer 1
10
233.668518
20
223.027069
11
235.233318
21
222.520506
0
LINE
8
Layer 1
10
235.233318
20
222.520506
11
236.423011
21
221.897600
0
LINE
8
Layer 1
10
236.423011
20
221.897600
11
237.239613
21
221.155983
0
LINE
8
Layer 1
10
237.239613
20
221.155983
11
237.685139
21
220.293284
0
LINE
8
Layer 1
10
237.685139
20
220.293284
11
237.761604
21
219.307135
0
LINE
8
Layer 1
10
237.761604
20
219.307135
11
237.471024
21
218.195166
0
LINE
8
Layer 1
10
237.471024
20
218.195166
11
236.815416
21
216.955007
0
LINE
8
Layer 1
10
236.815416
20
216.955007
11
235.716810
21
215.499145
0
LINE
8
Layer 1
10
235.716810
20
215.499145
11
234.470475
21
214.304015
0
LINE
8
Layer 1
10
234.470475
20
214.304015
11
233.102641
21
213.378409
0
LINE
8
Layer 1
10
233.102641
20
213.378409
11
231.639535
21
212.731117
0
LINE
8
Layer 1
10
231.639535
20
212.731117
11
230.107385
21
212.370930
0
LINE
8
Layer 1
10
230.107385
20
212.370930
11
228.532420
21
212.306640
0
LINE
8
Layer 1
10
228.532420
20
212.306640
11
226.940868
21
212.547036
0
LINE
8
Layer 1
10
226.940868
20
212.547036
11
225.358957
21
213.100910
0
LINE
8
Layer 1
10
225.358957
20
213.100910
11
223.981485
21
213.854870
0
LINE
8
Layer 1
10
223.981485
20
213.854870
11
222.822848
21
214.766936
0
LINE
8
Layer 1
10
222.822848
20
214.766936
11
221.871727
21
215.846996
0
LINE
8
Layer 1
10
221.871727
20
215.846996
11
221.116804
21
217.104938
0
LINE
8
Layer 1
10
221.116804
20
217.104938
11
220.563632
21
218.620341
0
LINE
8
Layer 1
10
220.563632
20
218.620341
11
220.468914
21
219.971607
0
LINE
8
Layer 1
10
220.468914
20
219.971607
11
220.832638
21
221.163948
0
LINE
8
Layer 1
10
220.832638
20
221.163948
11
221.654791
21
222.202577
0
LINE
8
Layer 1
10
221.654791
20
222.202577
11
222.671266
21
222.931492
0
LINE
8
Layer 1
10
222.671266
20
222.931492
11
223.727360
21
223.410841
0
LINE
8
Layer 1
10
223.727360
20
223.410841
11
225.219960
21
223.627255
0
LINE
8
Layer 1
10
225.219960
20
223.627255
11
227.343332
21
223.701882
0
LINE
8
Layer 1
10
227.343332
20
223.701882
11
227.343332
21
223.701882
0
LINE
8
Layer 1
10
-39.074446
20
223.446118
11
-37.723108
21
223.310636
0
LINE
8
Layer 1
10
-37.723108
20
223.310636
11
-36.442912
21
222.914567
0
LINE
8
Layer 1
10
-36.442912
20
222.914567
11
-35.367233
21
222.294795
0
LINE
8
Layer 1
10
-35.367233
20
222.294795
11
-34.629446
21
221.488202
0
LINE
8
Layer 1
10
-34.629446
20
221.488202
11
-34.180675
21
220.291808
0
LINE
8
Layer 1
10
-34.180675
20
220.291808
11
-34.282415
21
219.187183
0
LINE
8
Layer 1
10
-34.282415
20
219.187183
11
-34.923677
21
218.205603
0
LINE
8
Layer 1
10
-34.923677
20
218.205603
11
-36.093473
21
217.378341
0
LINE
8
Layer 1
10
-36.093473
20
217.378341
11
-37.191683
21
216.960153
0
LINE
8
Layer 1
10
-37.191683
20
216.960153
11
-38.314248
21
216.796664
0
LINE
8
Layer 1
10
-38.314248
20
216.796664
11
-39.408488
21
216.866882
0
LINE
8
Layer 1
10
-39.408488
20
216.866882
11
-40.421725
21
217.149816
0
LINE
8
Layer 1
10
-40.421725
20
217.149816
11
-41.301278
21
217.624476
0
LINE
8
Layer 1
10
-41.301278
20
217.624476
11
-41.994469
21
218.269869
0
LINE
8
Layer 1
10
-41.994469
20
218.269869
11
-42.448617
21
219.065007
0
LINE
8
Layer 1
10
-42.448617
20
219.065007
11
-42.611043
21
219.988896
0
LINE
8
Layer 1
10
-42.611043
20
219.988896
11
-42.456934
21
220.974682
0
LINE
8
Layer 1
10
-42.456934
20
220.974682
11
-42.046718
21
221.916687
0
LINE
8
Layer 1
10
-42.046718
20
221.916687
11
-41.455644
21
222.686342
0
LINE
8
Layer 1
10
-41.455644
20
222.686342
11
-40.758959
21
223.155077
0
LINE
8
Layer 1
10
-40.758959
20
223.155077
11
-39.950118
21
223.371775
0
LINE
8
Layer 1
10
-39.950118
20
223.371775
11
-39.074446
21
223.446118
0
LINE
8
Layer 1
10
-39.074446
20
223.446118
11
-39.074446
21
223.446118
0
LINE
8
Layer 1
10
249.074443
20
223.446118
11
249.950119
21
223.371775
0
LINE
8
Layer 1
10
249.950119
20
223.371775
11
250.758957
21
223.155077
0
LINE
8
Layer 1
10
250.758957
20
223.155077
11
251.455643
21
222.686342
0
LINE
8
Layer 1
10
251.455643
20
222.686342
11
252.046719
21
221.916687
0
LINE
8
Layer 1
10
252.046719
20
221.916687
11
252.456935
21
220.974682
0
LINE
8
Layer 1
10
252.456935
20
220.974682
11
252.611041
21
219.988896
0
LINE
8
Layer 1
10
252.611041
20
219.988896
11
252.448615
21
219.065007
0
LINE
8
Layer 1
10
252.448615
20
219.065007
11
251.994468
21
218.269869
0
LINE
8
Layer 1
10
251.994468
20
218.269869
11
251.301278
21
217.624476
0
LINE
8
Layer 1
10
251.301278
20
217.624476
11
250.421726
21
217.149816
0
LINE
8
Layer 1
10
250.421726
20
217.149816
11
249.408490
21
216.866882
0
LINE
8
Layer 1
10
249.408490
20
216.866882
11
248.314249
21
216.796664
0
LINE
8
Layer 1
10
248.314249
20
216.796664
11
247.191683
21
216.960153
0
LINE
8
Layer 1
10
247.191683
20
216.960153
11
246.093471
21
217.378341
0
LINE
8
Layer 1
10
246.093471
20
217.378341
11
244.923676
21
218.205603
0
LINE
8
Layer 1
10
244.923676
20
218.205603
11
244.282415
21
219.187183
0
LINE
8
Layer 1
10
244.282415
20
219.187183
11
244.180676
21
220.291808
0
LINE
8
Layer 1
10
244.180676
20
220.291808
11
244.629443
21
221.488202
0
LINE
8
Layer 1
10
244.629443
20
221.488202
11
245.367232
21
222.294795
0
LINE
8
Layer 1
10
245.367232
20
222.294795
11
246.442913
21
222.914567
0
LINE
8
Layer 1
10
246.442913
20
222.914567
11
247.723110
21
223.310636
0
LINE
8
Layer 1
10
247.723110
20
223.310636
11
249.074443
21
223.446118
0
LINE
8
Layer 1
10
249.074443
20
223.446118
11
249.074443
21
223.446118
0
LINE
8
Layer 1
10
5.225623
20
222.996327
11
7.238059
21
222.886485
0
LINE
8
Layer 1
10
7.238059
20
222.886485
11
9.006025
21
222.547913
0
LINE
8
Layer 1
10
9.006025
20
222.547913
11
10.594762
21
221.963913
0
LINE
8
Layer 1
10
10.594762
20
221.963913
11
12.069512
21
221.117785
0
LINE
8
Layer 1
10
12.069512
20
221.117785
11
13.321666
21
220.034046
0
LINE
8
Layer 1
10
13.321666
20
220.034046
11
13.668196
21
219.522414
0
LINE
8
Layer 1
10
13.668196
20
219.522414
11
13.826962
21
219.041720
0
LINE
8
Layer 1
10
13.826962
20
219.041720
11
13.796915
21
218.600047
0
LINE
8
Layer 1
10
13.796915
20
218.600047
11
13.577005
21
218.205481
0
LINE
8
Layer 1
10
13.577005
20
218.205481
11
13.166184
21
217.866107
0
LINE
8
Layer 1
10
13.166184
20
217.866107
11
12.563400
21
217.590007
0
LINE
8
Layer 1
10
12.563400
20
217.590007
11
11.246161
21
217.247783
0
LINE
8
Layer 1
10
11.246161
20
217.247783
11
9.822565
21
217.088836
0
LINE
8
Layer 1
10
9.822565
20
217.088836
11
8.311277
21
217.109788
0
LINE
8
Layer 1
10
8.311277
20
217.109788
11
6.730961
21
217.307264
0
LINE
8
Layer 1
10
6.730961
20
217.307264
11
5.100281
21
217.677886
0
LINE
8
Layer 1
10
5.100281
20
217.677886
11
3.437903
21
218.218279
0
LINE
8
Layer 1
10
3.437903
20
218.218279
11
1.762490
21
218.925065
0
LINE
8
Layer 1
10
1.762490
20
218.925065
11
0.092706
21
219.794868
0
LINE
8
Layer 1
10
0.092706
20
219.794868
11
-0.897528
21
220.437669
0
LINE
8
Layer 1
10
-0.897528
20
220.437669
11
-1.111093
21
220.693827
0
LINE
8
Layer 1
10
-1.111093
20
220.693827
11
-1.127157
21
220.935249
0
LINE
8
Layer 1
10
-1.127157
20
220.935249
11
-0.537392
21
221.460155
0
LINE
8
Layer 1
10
-0.537392
20
221.460155
11
0.930553
21
222.184938
0
LINE
8
Layer 1
10
0.930553
20
222.184938
11
2.825115
21
222.852307
0
LINE
8
Layer 1
10
2.825115
20
222.852307
11
5.225623
21
222.996327
0
LINE
8
Layer 1
10
5.225623
20
222.996327
11
5.225623
21
222.996327
0
LINE
8
Layer 1
10
204.774374
20
222.996327
11
207.174885
21
222.852307
0
LINE
8
Layer 1
10
207.174885
20
222.852307
11
209.069443
21
222.184938
0
LINE
8
Layer 1
10
209.069443
20
222.184938
11
210.537390
21
221.460155
0
LINE
8
Layer 1
10
210.537390
20
221.460155
11
211.127157
21
220.935249
0
LINE
8
Layer 1
10
211.127157
20
220.935249
11
211.111093
21
220.693827
0
LINE
8
Layer 1
10
211.111093
20
220.693827
11
210.897529
21
220.437669
0
LINE
8
Layer 1
10
210.897529
20
220.437669
11
209.907291
21
219.794868
0
LINE
8
Layer 1
10
209.907291
20
219.794868
11
208.237507
21
218.925065
0
LINE
8
Layer 1
10
208.237507
20
218.925065
11
206.562095
21
218.218279
0
LINE
8
Layer 1
10
206.562095
20
218.218279
11
204.899717
21
217.677886
0
LINE
8
Layer 1
10
204.899717
20
217.677886
11
203.269039
21
217.307264
0
LINE
8
Layer 1
10
203.269039
20
217.307264
11
201.688723
21
217.109788
0
LINE
8
Layer 1
10
201.688723
20
217.109788
11
200.177435
21
217.088836
0
LINE
8
Layer 1
10
200.177435
20
217.088836
11
198.753838
21
217.247783
0
LINE
8
Layer 1
10
198.753838
20
217.247783
11
197.436596
21
217.590007
0
LINE
8
Layer 1
10
197.436596
20
217.590007
11
196.833814
21
217.866107
0
LINE
8
Layer 1
10
196.833814
20
217.866107
11
196.422993
21
218.205481
0
LINE
8
Layer 1
10
196.422993
20
218.205481
11
196.203085
21
218.600047
0
LINE
8
Layer 1
10
196.203085
20
218.600047
11
196.173038
21
219.041720
0
LINE
8
Layer 1
10
196.173038
20
219.041720
11
196.331805
21
219.522414
0
LINE
8
Layer 1
10
196.331805
20
219.522414
11
196.678335
21
220.034046
0
LINE
8
Layer 1
10
196.678335
20
220.034046
11
197.930485
21
221.117785
0
LINE
8
Layer 1
10
197.930485
20
221.117785
11
199.405236
21
221.963913
0
LINE
8
Layer 1
10
199.405236
20
221.963913
11
200.993975
21
222.547913
0
LINE
8
Layer 1
10
200.993975
20
222.547913
11
202.761942
21
222.886485
0
LINE
8
Layer 1
10
202.761942
20
222.886485
11
204.774374
21
222.996327
0
LINE
8
Layer 1
10
204.774374
20
222.996327
11
204.774374
21
222.996327
0
LINE
8
Layer 1
10
-28.993821
20
215.499799
11
-28.222091
21
215.333338
0
LINE
8
Layer 1
10
-28.222091
20
215.333338
11
-27.503336
21
214.785424
0
LINE
8
Layer 1
10
-27.503336
20
214.785424
11
-26.961183
21
214.001498
0
LINE
8
Layer 1
10
-26.961183
20
214.001498
11
-26.661682
21
213.122520
0
LINE
8
Layer 1
10
-26.661682
20
213.122520
11
-26.619848
21
212.226123
0
LINE
8
Layer 1
10
-26.619848
20
212.226123
11
-26.850697
21
211.389938
0
LINE
8
Layer 1
10
-26.850697
20
211.389938
11
-27.358880
21
210.740872
0
LINE
8
Layer 1
10
-27.358880
20
210.740872
11
-28.217711
21
210.507993
0
LINE
8
Layer 1
10
-28.217711
20
210.507993
11
-29.114209
21
210.551445
0
LINE
8
Layer 1
10
-29.114209
20
210.551445
11
-29.753217
21
210.904087
0
LINE
8
Layer 1
10
-29.753217
20
210.904087
11
-30.204351
21
211.634152
0
LINE
8
Layer 1
10
-30.204351
20
211.634152
11
-30.537223
21
212.809868
0
LINE
8
Layer 1
10
-30.537223
20
212.809868
11
-30.746484
21
214.307755
0
LINE
8
Layer 1
10
-30.746484
20
214.307755
11
-30.592187
21
214.661949
0
LINE
8
Layer 1
10
-30.592187
20
214.661949
11
-30.228543
21
214.997091
0
LINE
8
Layer 1
10
-30.228543
20
214.997091
11
-29.614031
21
215.365246
0
LINE
8
Layer 1
10
-29.614031
20
215.365246
11
-28.993821
21
215.499799
0
LINE
8
Layer 1
10
-28.993821
20
215.499799
11
-28.993821
21
215.499799
0
LINE
8
Layer 1
10
238.993818
20
215.499799
11
239.614032
21
215.365246
0
LINE
8
Layer 1
10
239.614032
20
215.365246
11
240.228541
21
214.997091
0
LINE
8
Layer 1
10
240.228541
20
214.997091
11
240.592185
21
214.661949
0
LINE
8
Layer 1
10
240.592185
20
214.661949
11
240.746485
21
214.307755
0
LINE
8
Layer 1
10
240.746485
20
214.307755
11
240.537221
21
212.809868
0
LINE
8
Layer 1
10
240.537221
20
212.809868
11
240.204350
21
211.634152
0
LINE
8
Layer 1
10
240.204350
20
211.634152
11
239.753218
21
210.904087
0
LINE
8
Layer 1
10
239.753218
20
210.904087
11
239.114209
21
210.551445
0
LINE
8
Layer 1
10
239.114209
20
210.551445
11
238.217707
21
210.507993
0
LINE
8
Layer 1
10
238.217707
20
210.507993
11
237.358881
21
210.740872
0
LINE
8
Layer 1
10
237.358881
20
210.740872
11
236.850693
21
211.389938
0
LINE
8
Layer 1
10
236.850693
20
211.389938
11
236.619846
21
212.226123
0
LINE
8
Layer 1
10
236.619846
20
212.226123
11
236.661682
21
213.122520
0
LINE
8
Layer 1
10
236.661682
20
213.122520
11
236.961183
21
214.001498
0
LINE
8
Layer 1
10
236.961183
20
214.001498
11
237.503332
21
214.785424
0
LINE
8
Layer 1
10
237.503332
20
214.785424
11
238.222091
21
215.333338
0
LINE
8
Layer 1
10
238.222091
20
215.333338
11
238.993818
21
215.499799
0
LINE
8
Layer 1
10
238.993818
20
215.499799
11
238.993818
21
215.499799
0
LINE
8
Layer 1
10
18.498887
20
214.062229
11
26.132365
21
213.883822
0
LINE
8
Layer 1
10
26.132365
20
213.883822
11
29.952349
21
213.657871
0
LINE
8
Layer 1
10
29.952349
20
213.657871
11
32.601179
21
213.383132
0
LINE
8
Layer 1
10
32.601179
20
213.383132
11
36.460896
21
212.545253
0
LINE
8
Layer 1
10
36.460896
20
212.545253
11
40.223122
21
211.287130
0
LINE
8
Layer 1
10
40.223122
20
211.287130
11
43.945408
21
209.571157
0
LINE
8
Layer 1
10
43.945408
20
209.571157
11
47.685302
21
207.359730
0
LINE
8
Layer 1
10
47.685302
20
207.359730
11
51.500354
21
204.615243
0
LINE
8
Layer 1
10
51.500354
20
204.615243
11
55.448111
21
201.300091
0
LINE
8
Layer 1
10
55.448111
20
201.300091
11
59.586125
21
197.376668
0
LINE
8
Layer 1
10
59.586125
20
197.376668
11
63.971943
21
192.807368
0
LINE
8
Layer 1
10
63.971943
20
192.807368
11
76.063402
21
180.248479
0
LINE
8
Layer 1
10
76.063402
20
180.248479
11
83.198827
21
172.866692
0
LINE
8
Layer 1
10
83.198827
20
172.866692
11
88.430876
21
167.125011
0
LINE
8
Layer 1
10
88.430876
20
167.125011
11
92.385004
21
162.302825
0
LINE
8
Layer 1
10
92.385004
20
162.302825
11
95.686666
21
157.679521
0
LINE
8
Layer 1
10
95.686666
20
157.679521
11
96.995963
21
155.591919
0
LINE
8
Layer 1
10
96.995963
20
155.591919
11
97.866436
21
153.874109
0
LINE
8
Layer 1
10
97.866436
20
153.874109
11
98.350374
21
152.403155
0
LINE
8
Layer 1
10
98.350374
20
152.403155
11
98.500068
21
151.056118
0
LINE
8
Layer 1
10
98.500068
20
151.056118
11
98.369878
21
149.972775
0
LINE
8
Layer 1
10
98.369878
20
149.972775
11
97.873888
21
149.362785
0
LINE
8
Layer 1
10
97.873888
20
149.362785
11
96.762243
21
148.988399
0
LINE
8
Layer 1
10
96.762243
20
148.988399
11
95.164616
21
149.070935
0
LINE
8
Layer 1
10
95.164616
20
149.070935
11
93.095695
21
149.603930
0
LINE
8
Layer 1
10
93.095695
20
149.603930
11
90.570165
21
150.580921
0
LINE
8
Layer 1
10
90.570165
20
150.580921
11
87.602713
21
151.995445
0
LINE
8
Layer 1
10
87.602713
20
151.995445
11
84.208026
21
153.841040
0
LINE
8
Layer 1
10
84.208026
20
153.841040
11
76.195693
21
158.799591
0
LINE
8
Layer 1
10
76.195693
20
158.799591
11
71.822044
21
161.234252
0
LINE
8
Layer 1
10
71.822044
20
161.234252
11
64.588271
21
164.952138
0
LINE
8
Layer 1
10
64.588271
20
164.952138
11
57.286663
21
168.548264
0
LINE
8
Layer 1
10
57.286663
20
168.548264
11
52.709513
21
170.617646
0
LINE
8
Layer 1
10
52.709513
20
170.617646
11
49.701845
21
171.850248
0
LINE
8
Layer 1
10
49.701845
20
171.850248
11
47.651546
21
173.104284
0
LINE
8
Layer 1
10
47.651546
20
173.104284
11
46.864690
21
173.836752
0
LINE
8
Layer 1
10
46.864690
20
173.836752
11
46.172314
21
174.691476
0
LINE
8
Layer 1
10
46.172314
20
174.691476
11
44.877846
21
176.923549
0
LINE
8
Layer 1
10
44.877846
20
176.923549
11
43.495747
21
179.482282
0
LINE
8
Layer 1
10
43.495747
20
179.482282
11
42.065883
21
181.684804
0
LINE
8
Layer 1
10
42.065883
20
181.684804
11
40.469934
21
183.696126
0
LINE
8
Layer 1
10
40.469934
20
183.696126
11
38.589582
21
185.681257
0
LINE
8
Layer 1
10
38.589582
20
185.681257
11
36.592740
21
187.447827
0
LINE
8
Layer 1
10
36.592740
20
187.447827
11
34.112441
21
189.336908
0
LINE
8
Layer 1
10
34.112441
20
189.336908
11
31.377014
21
191.184101
0
LINE
8
Layer 1
10
31.377014
20
191.184101
11
28.614791
21
192.825007
0
LINE
8
Layer 1
10
28.614791
20
192.825007
11
26.891511
21
193.837793
0
LINE
8
Layer 1
10
26.891511
20
193.837793
11
25.848236
21
194.755284
0
LINE
8
Layer 1
10
25.848236
20
194.755284
11
25.167387
21
195.971023
0
LINE
8
Layer 1
10
25.167387
20
195.971023
11
24.531387
21
197.878549
0
LINE
8
Layer 1
10
24.531387
20
197.878549
11
22.907685
21
202.796893
0
LINE
8
Layer 1
10
22.907685
20
202.796893
11
21.313563
21
206.420599
0
LINE
8
Layer 1
10
21.313563
20
206.420599
11
20.438915
21
207.914449
0
LINE
8
Layer 1
10
20.438915
20
207.914449
11
19.465246
21
209.285623
0
LINE
8
Layer 1
10
19.465246
20
209.285623
11
17.078956
21
211.927924
0
LINE
8
Layer 1
10
17.078956
20
211.927924
11
15.218053
21
213.762368
0
LINE
8
Layer 1
10
15.218053
20
213.762368
11
16.532150
21
213.965216
0
LINE
8
Layer 1
10
16.532150
20
213.965216
11
18.498887
21
214.062229
0
LINE
8
Layer 1
10
18.498887
20
214.062229
11
18.498887
21
214.062229
0
LINE
8
Layer 1
10
189.869513
20
214.062229
11
191.501110
21
214.062229
0
LINE
8
Layer 1
10
191.501110
20
214.062229
11
193.467846
21
213.965216
0
LINE
8
Layer 1
10
193.467846
20
213.965216
11
194.781943
21
213.762368
0
LINE
8
Layer 1
10
194.781943
20
213.762368
11
192.921041
21
211.927924
0
LINE
8
Layer 1
10
192.921041
20
211.927924
11
190.534752
21
209.285623
0
LINE
8
Layer 1
10
190.534752
20
209.285623
11
189.561084
21
207.914449
0
LINE
8
Layer 1
10
189.561084
20
207.914449
11
188.686437
21
206.420599
0
LINE
8
Layer 1
10
188.686437
20
206.420599
11
187.092316
21
202.796893
0
LINE
8
Layer 1
10
187.092316
20
202.796893
11
185.468610
21
197.878549
0
LINE
8
Layer 1
10
185.468610
20
197.878549
11
184.832611
21
195.971023
0
LINE
8
Layer 1
10
184.832611
20
195.971023
11
184.151764
21
194.755284
0
LINE
8
Layer 1
10
184.151764
20
194.755284
11
183.108489
21
193.837793
0
LINE
8
Layer 1
10
183.108489
20
193.837793
11
181.385207
21
192.825007
0
LINE
8
Layer 1
10
181.385207
20
192.825007
11
178.622985
21
191.184101
0
LINE
8
Layer 1
10
178.622985
20
191.184101
11
175.887560
21
189.336908
0
LINE
8
Layer 1
10
175.887560
20
189.336908
11
173.407261
21
187.447827
0
LINE
8
Layer 1
10
173.407261
20
187.447827
11
171.410416
21
185.681257
0
LINE
8
Layer 1
10
171.410416
20
185.681257
11
169.530065
21
183.696126
0
LINE
8
Layer 1
10
169.530065
20
183.696126
11
167.934118
21
181.684804
0
LINE
8
Layer 1
10
167.934118
20
181.684804
11
166.504254
21
179.482282
0
LINE
8
Layer 1
10
166.504254
20
179.482282
11
165.122152
21
176.923549
0
LINE
8
Layer 1
10
165.122152
20
176.923549
11
163.827685
21
174.691476
0
LINE
8
Layer 1
10
163.827685
20
174.691476
11
163.135310
21
173.836752
0
LINE
8
Layer 1
10
163.135310
20
173.836752
11
162.348455
21
173.104284
0
LINE
8
Layer 1
10
162.348455
20
173.104284
11
160.298156
21
171.850248
0
LINE
8
Layer 1
10
160.298156
20
171.850248
11
157.290485
21
170.617646
0
LINE
8
Layer 1
10
157.290485
20
170.617646
11
152.713334
21
168.548264
0
LINE
8
Layer 1
10
152.713334
20
168.548264
11
145.411727
21
164.952138
0
LINE
8
Layer 1
10
145.411727
20
164.952138
11
138.177953
21
161.234252
0
LINE
8
Layer 1
10
138.177953
20
161.234252
11
133.804304
21
158.799591
0
LINE
8
Layer 1
10
133.804304
20
158.799591
11
125.791972
21
153.841040
0
LINE
8
Layer 1
10
125.791972
20
153.841040
11
122.397285
21
151.995445
0
LINE
8
Layer 1
10
122.397285
20
151.995445
11
119.429833
21
150.580921
0
LINE
8
Layer 1
10
119.429833
20
150.580921
11
116.904303
21
149.603930
0
LINE
8
Layer 1
10
116.904303
20
149.603930
11
114.835382
21
149.070935
0
LINE
8
Layer 1
10
114.835382
20
149.070935
11
113.237755
21
148.988399
0
LINE
8
Layer 1
10
113.237755
20
148.988399
11
112.126110
21
149.362785
0
LINE
8
Layer 1
10
112.126110
20
149.362785
11
111.630120
21
149.972775
0
LINE
8
Layer 1
10
111.630120
20
149.972775
11
111.499929
21
151.056118
0
LINE
8
Layer 1
10
111.499929
20
151.056118
11
111.649623
21
152.403155
0
LINE
8
Layer 1
10
111.649623
20
152.403155
11
112.133562
21
153.874109
0
LINE
8
Layer 1
10
112.133562
20
153.874109
11
113.004034
21
155.591919
0
LINE
8
Layer 1
10
113.004034
20
155.591919
11
114.313332
21
157.679521
0
LINE
8
Layer 1
10
114.313332
20
157.679521
11
117.614994
21
162.302825
0
LINE
8
Layer 1
10
117.614994
20
162.302825
11
121.569122
21
167.125011
0
LINE
8
Layer 1
10
121.569122
20
167.125011
11
126.801171
21
172.866692
0
LINE
8
Layer 1
10
126.801171
20
172.866692
11
133.936596
21
180.248479
0
LINE
8
Layer 1
10
133.936596
20
180.248479
11
146.028054
21
192.807368
0
LINE
8
Layer 1
10
146.028054
20
192.807368
11
150.413873
21
197.376668
0
LINE
8
Layer 1
10
150.413873
20
197.376668
11
154.551887
21
201.300091
0
LINE
8
Layer 1
10
154.551887
20
201.300091
11
158.499646
21
204.615243
0
LINE
8
Layer 1
10
158.499646
20
204.615243
11
162.314699
21
207.359730
0
LINE
8
Layer 1
10
162.314699
20
207.359730
11
166.054593
21
209.571157
0
LINE
8
Layer 1
10
166.054593
20
209.571157
11
169.776879
21
211.287130
0
LINE
8
Layer 1
10
169.776879
20
211.287130
11
173.539104
21
212.545253
0
LINE
8
Layer 1
10
173.539104
20
212.545253
11
177.398818
21
213.383132
0
LINE
8
Layer 1
10
177.398818
20
213.383132
11
182.851451
21
213.833887
0
LINE
8
Layer 1
10
182.851451
20
213.833887
11
189.869513
21
214.062229
0
LINE
8
Layer 1
10
189.869513
20
214.062229
11
189.869513
21
214.062229
0
LINE
8
Layer 1
10
3.788053
20
212.536466
11
8.489962
21
212.321304
0
LINE
8
Layer 1
10
8.489962
20
212.321304
11
10.696269
21
212.003748
0
LINE
8
Layer 1
10
10.696269
20
212.003748
11
12.598678
21
211.548688
0
LINE
8
Layer 1
10
12.598678
20
211.548688
11
14.313758
21
210.934637
0
LINE
8
Layer 1
10
14.313758
20
210.934637
11
15.737864
21
210.217829
0
LINE
8
Layer 1
10
15.737864
20
210.217829
11
16.981441
21
209.333013
0
LINE
8
Layer 1
10
16.981441
20
209.333013
11
18.154928
21
208.214938
0
LINE
8
Layer 1
10
18.154928
20
208.214938
11
19.230938
21
206.910057
0
LINE
8
Layer 1
10
19.230938
20
206.910057
11
20.124917
21
205.413857
0
LINE
8
Layer 1
10
20.124917
20
205.413857
11
20.962148
21
203.477139
0
LINE
8
Layer 1
10
20.962148
20
203.477139
11
21.867914
21
200.850702
0
LINE
8
Layer 1
10
21.867914
20
200.850702
11
23.437775
21
195.973549
0
LINE
8
Layer 1
10
23.437775
20
195.973549
11
23.966942
21
194.333132
0
LINE
8
Layer 1
10
23.966942
20
194.333132
11
23.208470
21
194.042091
0
LINE
8
Layer 1
10
23.208470
20
194.042091
11
19.393100
21
192.638466
0
LINE
8
Layer 1
10
19.393100
20
192.638466
11
15.829745
21
191.517565
0
LINE
8
Layer 1
10
15.829745
20
191.517565
11
12.531604
21
190.684378
0
LINE
8
Layer 1
10
12.531604
20
190.684378
11
9.511873
21
190.143896
0
LINE
8
Layer 1
10
9.511873
20
190.143896
11
6.071472
21
189.894193
0
LINE
8
Layer 1
10
6.071472
20
189.894193
11
2.962823
21
190.113719
0
LINE
8
Layer 1
10
2.962823
20
190.113719
11
0.217187
21
190.783385
0
LINE
8
Layer 1
10
0.217187
20
190.783385
11
-2.134175
21
191.884101
0
LINE
8
Layer 1
10
-2.134175
20
191.884101
11
-4.060003
21
193.396780
0
LINE
8
Layer 1
10
-4.060003
20
193.396780
11
-4.853572
21
194.301640
0
LINE
8
Layer 1
10
-4.853572
20
194.301640
11
-5.529035
21
195.302333
0
LINE
8
Layer 1
10
-5.529035
20
195.302333
11
-6.082484
21
196.396471
0
LINE
8
Layer 1
10
-6.082484
20
196.396471
11
-6.510011
21
197.581669
0
LINE
8
Layer 1
10
-6.510011
20
197.581669
11
-6.971669
21
200.215702
0
LINE
8
Layer 1
10
-6.971669
20
200.215702
11
-6.967283
21
201.995831
0
LINE
8
Layer 1
10
-6.967283
20
201.995831
11
-6.730071
21
203.784740
0
LINE
8
Layer 1
10
-6.730071
20
203.784740
11
-6.284152
21
205.529259
0
LINE
8
Layer 1
10
-6.284152
20
205.529259
11
-5.653649
21
207.176219
0
LINE
8
Layer 1
10
-5.653649
20
207.176219
11
-4.862681
21
208.672450
0
LINE
8
Layer 1
10
-4.862681
20
208.672450
11
-3.935369
21
209.964783
0
LINE
8
Layer 1
10
-3.935369
20
209.964783
11
-2.895834
21
211.000049
0
LINE
8
Layer 1
10
-2.895834
20
211.000049
11
-1.768197
21
211.725077
0
LINE
8
Layer 1
10
-1.768197
20
211.725077
11
-0.783179
21
212.060907
0
LINE
8
Layer 1
10
-0.783179
20
212.060907
11
0.519631
21
212.307712
0
LINE
8
Layer 1
10
0.519631
20
212.307712
11
3.788053
21
212.536466
0
LINE
8
Layer 1
10
3.788053
20
212.536466
11
3.788053
21
212.536466
0
LINE
8
Layer 1
10
205.047777
20
212.536466
11
206.211943
21
212.536466
0
LINE
8
Layer 1
10
206.211943
20
212.536466
11
209.480370
21
212.307712
0
LINE
8
Layer 1
10
209.480370
20
212.307712
11
210.783180
21
212.060907
0
LINE
8
Layer 1
10
210.783180
20
212.060907
11
211.768193
21
211.725077
0
LINE
8
Layer 1
10
211.768193
20
211.725077
11
212.895831
21
211.000049
0
LINE
8
Layer 1
10
212.895831
20
211.000049
11
213.935367
21
209.964783
0
LINE
8
Layer 1
10
213.935367
20
209.964783
11
214.862680
21
208.672450
0
LINE
8
Layer 1
10
214.862680
20
208.672450
11
215.653649
21
207.176219
0
LINE
8
Layer 1
10
215.653649
20
207.176219
11
216.284153
21
205.529259
0
LINE
8
Layer 1
10
216.284153
20
205.529259
11
216.730071
21
203.784740
0
LINE
8
Layer 1
10
216.730071
20
203.784740
11
216.967282
21
201.995831
0
LINE
8
Layer 1
10
216.967282
20
201.995831
11
216.971666
21
200.215702
0
LINE
8
Layer 1
10
216.971666
20
200.215702
11
216.510007
21
197.581669
0
LINE
8
Layer 1
10
216.510007
20
197.581669
11
216.082481
21
196.396471
0
LINE
8
Layer 1
10
216.082481
20
196.396471
11
215.529033
21
195.302333
0
LINE
8
Layer 1
10
215.529033
20
195.302333
11
214.853570
21
194.301640
0
LINE
8
Layer 1
10
214.853570
20
194.301640
11
214.060002
21
193.396780
0
LINE
8
Layer 1
10
214.060002
20
193.396780
11
212.134175
21
191.884101
0
LINE
8
Layer 1
10
212.134175
20
191.884101
11
209.782814
21
190.783385
0
LINE
8
Layer 1
10
209.782814
20
190.783385
11
207.037177
21
190.113719
0
LINE
8
Layer 1
10
207.037177
20
190.113719
11
203.928527
21
189.894193
0
LINE
8
Layer 1
10
203.928527
20
189.894193
11
200.488124
21
190.143896
0
LINE
8
Layer 1
10
200.488124
20
190.143896
11
197.468394
21
190.684378
0
LINE
8
Layer 1
10
197.468394
20
190.684378
11
194.170254
21
191.517565
0
LINE
8
Layer 1
10
194.170254
20
191.517565
11
190.606900
21
192.638466
0
LINE
8
Layer 1
10
190.606900
20
192.638466
11
186.791527
21
194.042091
0
LINE
8
Layer 1
10
186.791527
20
194.042091
11
186.033054
21
194.333132
0
LINE
8
Layer 1
10
186.033054
20
194.333132
11
186.562221
21
195.973549
0
LINE
8
Layer 1
10
186.562221
20
195.973549
11
188.132082
21
200.850702
0
LINE
8
Layer 1
10
188.132082
20
200.850702
11
189.037850
21
203.477139
0
LINE
8
Layer 1
10
189.037850
20
203.477139
11
189.875083
21
205.413857
0
LINE
8
Layer 1
10
189.875083
20
205.413857
11
190.769062
21
206.910057
0
LINE
8
Layer 1
10
190.769062
20
206.910057
11
191.845068
21
208.214938
0
LINE
8
Layer 1
10
191.845068
20
208.214938
11
193.018557
21
209.333013
0
LINE
8
Layer 1
10
193.018557
20
209.333013
11
194.262135
21
210.217829
0
LINE
8
Layer 1
10
194.262135
20
210.217829
11
195.686242
21
210.934637
0
LINE
8
Layer 1
10
195.686242
20
210.934637
11
197.401318
21
211.548688
0
LINE
8
Layer 1
10
197.401318
20
211.548688
11
199.045936
21
211.954460
0
LINE
8
Layer 1
10
199.045936
20
211.954460
11
200.937902
21
212.255266
0
LINE
8
Layer 1
10
200.937902
20
212.255266
11
205.047777
21
212.536466
0
LINE
8
Layer 1
10
205.047777
20
212.536466
11
205.047777
21
212.536466
0
LINE
8
Layer 1
10
-37.786807
20
210.675563
11
-37.156332
21
210.606001
0
LINE
8
Layer 1
10
-37.156332
20
210.606001
11
-36.446251
21
210.331604
0
LINE
8
Layer 1
10
-36.446251
20
210.331604
11
-35.892262
21
209.933552
0
LINE
8
Layer 1
10
-35.892262
20
209.933552
11
-35.451555
21
209.398549
0
LINE
8
Layer 1
10
-35.451555
20
209.398549
11
-34.942659
21
208.100290
0
LINE
8
Layer 1
10
-34.942659
20
208.100290
11
-34.890810
21
207.428335
0
LINE
8
Layer 1
10
-34.890810
20
207.428335
11
-34.984918
21
206.802029
0
LINE
8
Layer 1
10
-34.984918
20
206.802029
11
-35.233152
21
206.267022
0
LINE
8
Layer 1
10
-35.233152
20
206.267022
11
-35.643682
21
205.868966
0
LINE
8
Layer 1
10
-35.643682
20
205.868966
11
-36.389661
21
205.624427
0
LINE
8
Layer 1
10
-36.389661
20
205.624427
11
-37.173597
21
205.775411
0
LINE
8
Layer 1
10
-37.173597
20
205.775411
11
-37.940023
21
206.297287
0
LINE
8
Layer 1
10
-37.940023
20
206.297287
11
-38.633473
21
207.165424
0
LINE
8
Layer 1
10
-38.633473
20
207.165424
11
-39.176876
21
208.481588
0
LINE
8
Layer 1
10
-39.176876
20
208.481588
11
-39.159552
21
209.588421
0
LINE
8
Layer 1
10
-39.159552
20
209.588421
11
-38.667522
21
210.361290
0
LINE
8
Layer 1
10
-38.667522
20
210.361290
11
-38.270374
21
210.583541
0
LINE
8
Layer 1
10
-38.270374
20
210.583541
11
-37.786807
21
210.675563
0
LINE
8
Layer 1
10
-37.786807
20
210.675563
11
-37.786807
21
210.675563
0
LINE
8
Layer 1
10
247.786804
20
210.675563
11
248.270372
21
210.583541
0
LINE
8
Layer 1
10
248.270372
20
210.583541
11
248.667521
21
210.361290
0
LINE
8
Layer 1
10
248.667521
20
210.361290
11
249.159553
21
209.588421
0
LINE
8
Layer 1
10
249.159553
20
209.588421
11
249.176877
21
208.481588
0
LINE
8
Layer 1
10
249.176877
20
208.481588
11
248.633471
21
207.165424
0
LINE
8
Layer 1
10
248.633471
20
207.165424
11
247.940022
21
206.297287
0
LINE
8
Layer 1
10
247.940022
20
206.297287
11
247.173598
21
205.775411
0
LINE
8
Layer 1
10
247.173598
20
205.775411
11
246.389662
21
205.624427
0
LINE
8
Layer 1
10
246.389662
20
205.624427
11
245.643679
21
205.868966
0
LINE
8
Layer 1
10
245.643679
20
205.868966
11
245.233150
21
206.267022
0
LINE
8
Layer 1
10
245.233150
20
206.267022
11
244.984917
21
206.802029
0
LINE
8
Layer 1
10
244.984917
20
206.802029
11
244.890810
21
207.428335
0
LINE
8
Layer 1
10
244.890810
20
207.428335
11
244.942660
21
208.100290
0
LINE
8
Layer 1
10
244.942660
20
208.100290
11
245.451556
21
209.398549
0
LINE
8
Layer 1
10
245.451556
20
209.398549
11
245.892262
21
209.933552
0
LINE
8
Layer 1
10
245.892262
20
209.933552
11
246.446249
21
210.331604
0
LINE
8
Layer 1
10
246.446249
20
210.331604
11
247.156333
21
210.606001
0
LINE
8
Layer 1
10
247.156333
20
210.606001
11
247.786804
21
210.675563
0
LINE
8
Layer 1
10
247.786804
20
210.675563
11
247.786804
21
210.675563
0
LINE
8
Layer 1
10
-18.551600
20
208.082646
11
-17.502086
21
207.941535
0
LINE
8
Layer 1
10
-17.502086
20
207.941535
11
-16.512344
21
207.459760
0
LINE
8
Layer 1
10
-16.512344
20
207.459760
11
-15.597009
21
206.671070
0
LINE
8
Layer 1
10
-15.597009
20
206.671070
11
-14.789872
21
205.647502
0
LINE
8
Layer 1
10
-14.789872
20
205.647502
11
-14.124722
21
204.461093
0
LINE
8
Layer 1
10
-14.124722
20
204.461093
11
-13.635349
21
203.183879
0
LINE
8
Layer 1
10
-13.635349
20
203.183879
11
-13.355544
21
201.887899
0
LINE
8
Layer 1
10
-13.355544
20
201.887899
11
-13.319095
21
200.645188
0
LINE
8
Layer 1
10
-13.319095
20
200.645188
11
-13.559794
21
199.527785
0
LINE
8
Layer 1
10
-13.559794
20
199.527785
11
-13.932354
21
198.799603
0
LINE
8
Layer 1
10
-13.932354
20
198.799603
11
-14.463890
21
198.108788
0
LINE
8
Layer 1
10
-14.463890
20
198.108788
11
-15.103412
21
197.510110
0
LINE
8
Layer 1
10
-15.103412
20
197.510110
11
-15.799933
21
197.058341
0
LINE
8
Layer 1
10
-15.799933
20
197.058341
11
-16.809224
21
196.700205
0
LINE
8
Layer 1
10
-16.809224
20
196.700205
11
-17.931922
21
196.561674
0
LINE
8
Layer 1
10
-17.931922
20
196.561674
11
-19.106204
21
196.624739
0
LINE
8
Layer 1
10
-19.106204
20
196.624739
11
-20.270244
21
196.871393
0
LINE
8
Layer 1
10
-20.270244
20
196.871393
11
-21.362219
21
197.283630
0
LINE
8
Layer 1
10
-21.362219
20
197.283630
11
-22.320303
21
197.843441
0
LINE
8
Layer 1
10
-22.320303
20
197.843441
11
-23.082672
21
198.532819
0
LINE
8
Layer 1
10
-23.082672
20
198.532819
11
-23.587502
21
199.333757
0
LINE
8
Layer 1
10
-23.587502
20
199.333757
11
-23.946072
21
200.750385
0
LINE
8
Layer 1
10
-23.946072
20
200.750385
11
-23.917294
21
202.223466
0
LINE
8
Layer 1
10
-23.917294
20
202.223466
11
-23.553689
21
203.678627
0
LINE
8
Layer 1
10
-23.553689
20
203.678627
11
-22.907783
21
205.041497
0
LINE
8
Layer 1
10
-22.907783
20
205.041497
11
-22.032097
21
206.237706
0
LINE
8
Layer 1
10
-22.032097
20
206.237706
11
-20.979156
21
207.192881
0
LINE
8
Layer 1
10
-20.979156
20
207.192881
11
-19.801482
21
207.832652
0
LINE
8
Layer 1
10
-19.801482
20
207.832652
11
-18.551600
21
208.082646
0
LINE
8
Layer 1
10
-18.551600
20
208.082646
11
-18.551600
21
208.082646
0
LINE
8
Layer 1
10
228.287013
20
208.082646
11
228.551596
21
208.082646
0
LINE
8
Layer 1
10
228.551596
20
208.082646
11
229.801479
21
207.832652
0
LINE
8
Layer 1
10
229.801479
20
207.832652
11
230.979153
21
207.192881
0
LINE
8
Layer 1
10
230.979153
20
207.192881
11
232.032096
21
206.237706
0
LINE
8
Layer 1
10
232.032096
20
206.237706
11
232.907782
21
205.041497
0
LINE
8
Layer 1
10
232.907782
20
205.041497
11
233.553690
21
203.678627
0
LINE
8
Layer 1
10
233.553690
20
203.678627
11
233.917294
21
202.223466
0
LINE
8
Layer 1
10
233.917294
20
202.223466
11
233.946072
21
200.750385
0
LINE
8
Layer 1
10
233.946072
20
200.750385
11
233.587499
21
199.333757
0
LINE
8
Layer 1
10
233.587499
20
199.333757
11
233.082669
21
198.532819
0
LINE
8
Layer 1
10
233.082669
20
198.532819
11
232.320301
21
197.843441
0
LINE
8
Layer 1
10
232.320301
20
197.843441
11
231.362218
21
197.283630
0
LINE
8
Layer 1
10
231.362218
20
197.283630
11
230.270244
21
196.871393
0
LINE
8
Layer 1
10
230.270244
20
196.871393
11
229.106204
21
196.624739
0
LINE
8
Layer 1
10
229.106204
20
196.624739
11
227.931923
21
196.561674
0
LINE
8
Layer 1
10
227.931923
20
196.561674
11
226.809223
21
196.700205
0
LINE
8
Layer 1
10
226.809223
20
196.700205
11
225.799929
21
197.058341
0
LINE
8
Layer 1
10
225.799929
20
197.058341
11
225.103410
21
197.510110
0
LINE
8
Layer 1
10
225.103410
20
197.510110
11
224.463890
21
198.108788
0
LINE
8
Layer 1
10
224.463890
20
198.108788
11
223.932355
21
198.799603
0
LINE
8
Layer 1
10
223.932355
20
198.799603
11
223.559791
21
199.527785
0
LINE
8
Layer 1
10
223.559791
20
199.527785
11
223.319092
21
200.645188
0
LINE
8
Layer 1
10
223.319092
20
200.645188
11
223.355541
21
201.887899
0
LINE
8
Layer 1
10
223.355541
20
201.887899
11
223.635348
21
203.183879
0
LINE
8
Layer 1
10
223.635348
20
203.183879
11
224.124721
21
204.461093
0
LINE
8
Layer 1
10
224.124721
20
204.461093
11
224.789872
21
205.647502
0
LINE
8
Layer 1
10
224.789872
20
205.647502
11
225.597009
21
206.671070
0
LINE
8
Layer 1
10
225.597009
20
206.671070
11
226.512343
21
207.459760
0
LINE
8
Layer 1
10
226.512343
20
207.459760
11
227.502082
21
207.941535
0
LINE
8
Layer 1
10
227.502082
20
207.941535
11
228.287013
21
208.082646
0
LINE
8
Layer 1
10
228.287013
20
208.082646
11
228.287013
21
208.082646
0
LINE
8
Layer 1
10
-28.517571
20
204.801813
11
-27.898514
21
204.605355
0
LINE
8
Layer 1
10
-27.898514
20
204.605355
11
-27.185836
21
204.131535
0
LINE
8
Layer 1
10
-27.185836
20
204.131535
11
-26.584823
21
203.451988
0
LINE
8
Layer 1
10
-26.584823
20
203.451988
11
-26.576776
21
203.143781
0
LINE
8
Layer 1
10
-26.576776
20
203.143781
11
-26.727225
21
202.738063
0
LINE
8
Layer 1
10
-26.727225
20
202.738063
11
-27.164753
21
202.095339
0
LINE
8
Layer 1
10
-27.164753
20
202.095339
11
-27.750280
21
201.565077
0
LINE
8
Layer 1
10
-27.750280
20
201.565077
11
-28.431225
21
201.245669
0
LINE
8
Layer 1
10
-28.431225
20
201.245669
11
-29.266793
21
201.031247
0
LINE
8
Layer 1
10
-29.266793
20
201.031247
11
-30.106986
21
200.949244
0
LINE
8
Layer 1
10
-30.106986
20
200.949244
11
-30.801807
21
201.027091
0
LINE
8
Layer 1
10
-30.801807
20
201.027091
11
-31.155823
21
201.296014
0
LINE
8
Layer 1
10
-31.155823
20
201.296014
11
-31.408179
21
201.788289
0
LINE
8
Layer 1
10
-31.408179
20
201.788289
11
-31.516098
21
202.374009
0
LINE
8
Layer 1
10
-31.516098
20
202.374009
11
-31.436807
21
202.923271
0
LINE
8
Layer 1
10
-31.436807
20
202.923271
11
-30.982145
21
203.461739
0
LINE
8
Layer 1
10
-30.982145
20
203.461739
11
-30.148215
21
204.080271
0
LINE
8
Layer 1
10
-30.148215
20
204.080271
11
-29.228773
21
204.589938
0
LINE
8
Layer 1
10
-29.228773
20
204.589938
11
-28.517571
21
204.801813
0
LINE
8
Layer 1
10
-28.517571
20
204.801813
11
-28.517571
21
204.801813
0
LINE
8
Layer 1
10
238.517568
20
204.801813
11
239.228772
21
204.589938
0
LINE
8
Layer 1
10
239.228772
20
204.589938
11
240.148216
21
204.080271
0
LINE
8
Layer 1
10
240.148216
20
204.080271
11
240.982146
21
203.461739
0
LINE
8
Layer 1
10
240.982146
20
203.461739
11
241.436804
21
202.923271
0
LINE
8
Layer 1
10
241.436804
20
202.923271
11
241.516097
21
202.374009
0
LINE
8
Layer 1
10
241.516097
20
202.374009
11
241.408180
21
201.788289
0
LINE
8
Layer 1
10
241.408180
20
201.788289
11
241.155824
21
201.296014
0
LINE
8
Layer 1
10
241.155824
20
201.296014
11
240.801804
21
201.027091
0
LINE
8
Layer 1
10
240.801804
20
201.027091
11
240.106985
21
200.949244
0
LINE
8
Layer 1
10
240.106985
20
200.949244
11
239.266794
21
201.031247
0
LINE
8
Layer 1
10
239.266794
20
201.031247
11
238.431226
21
201.245669
0
LINE
8
Layer 1
10
238.431226
20
201.245669
11
237.750277
21
201.565077
0
LINE
8
Layer 1
10
237.750277
20
201.565077
11
237.164753
21
202.095339
0
LINE
8
Layer 1
10
237.164753
20
202.095339
11
236.727221
21
202.738063
0
LINE
8
Layer 1
10
236.727221
20
202.738063
11
236.576774
21
203.143781
0
LINE
8
Layer 1
10
236.576774
20
203.143781
11
236.584823
21
203.451988
0
LINE
8
Layer 1
10
236.584823
20
203.451988
11
237.185832
21
204.131535
0
LINE
8
Layer 1
10
237.185832
20
204.131535
11
237.898515
21
204.605355
0
LINE
8
Layer 1
10
237.898515
20
204.605355
11
238.517568
21
204.801813
0
LINE
8
Layer 1
10
238.517568
20
204.801813
11
238.517568
21
204.801813
0
LINE
8
Layer 1
10
-27.106461
20
190.646604
11
-26.311205
21
190.509894
0
LINE
8
Layer 1
10
-26.311205
20
190.509894
11
-25.768870
21
190.141375
0
LINE
8
Layer 1
10
-25.768870
20
190.141375
11
-25.540347
21
189.602137
0
LINE
8
Layer 1
10
-25.540347
20
189.602137
11
-25.686530
21
188.953271
0
LINE
8
Layer 1
10
-25.686530
20
188.953271
11
-26.462641
21
187.797924
0
LINE
8
Layer 1
10
-26.462641
20
187.797924
11
-27.004762
21
187.449115
0
LINE
8
Layer 1
10
-27.004762
20
187.449115
11
-27.706183
21
187.304035
0
LINE
8
Layer 1
10
-27.706183
20
187.304035
11
-28.176830
21
187.329593
0
LINE
8
Layer 1
10
-28.176830
20
187.329593
11
-28.410019
21
187.507422
0
LINE
8
Layer 1
10
-28.410019
20
187.507422
11
-28.438196
21
188.926813
0
LINE
8
Layer 1
10
-28.438196
20
188.926813
11
-28.358821
21
190.549591
0
LINE
8
Layer 1
10
-28.358821
20
190.549591
11
-27.353405
21
190.637785
0
LINE
8
Layer 1
10
-27.353405
20
190.637785
11
-27.106461
21
190.646604
0
LINE
8
Layer 1
10
-27.106461
20
190.646604
11
-27.106461
21
190.646604
0
LINE
8
Layer 1
10
-17.387433
20
190.646604
11
-15.935954
21
190.545826
0
LINE
8
Layer 1
10
-15.935954
20
190.545826
11
-14.529933
21
190.205632
0
LINE
8
Layer 1
10
-14.529933
20
190.205632
11
-13.379708
21
189.670573
0
LINE
8
Layer 1
10
-13.379708
20
189.670573
11
-13.205644
21
189.387450
0
LINE
8
Layer 1
10
-13.205644
20
189.387450
11
-13.198197
21
189.006188
0
LINE
8
Layer 1
10
-13.198197
20
189.006188
11
-13.409038
21
188.370459
0
LINE
8
Layer 1
10
-13.409038
20
188.370459
11
-13.863349
21
187.708503
0
LINE
8
Layer 1
10
-13.863349
20
187.708503
11
-14.494407
21
187.097872
0
LINE
8
Layer 1
10
-14.494407
20
187.097872
11
-15.235488
21
186.616118
0
LINE
8
Layer 1
10
-15.235488
20
186.616118
11
-16.043328
21
186.288856
0
LINE
8
Layer 1
10
-16.043328
20
186.288856
11
-16.824160
21
186.131084
0
LINE
8
Layer 1
10
-16.824160
20
186.131084
11
-17.566167
21
186.138355
0
LINE
8
Layer 1
10
-17.566167
20
186.138355
11
-18.257531
21
186.306220
0
LINE
8
Layer 1
10
-18.257531
20
186.306220
11
-18.886436
21
186.630232
0
LINE
8
Layer 1
10
-18.886436
20
186.630232
11
-19.441062
21
187.105941
0
LINE
8
Layer 1
10
-19.441062
20
187.105941
11
-19.909593
21
187.728900
0
LINE
8
Layer 1
10
-19.909593
20
187.728900
11
-20.280211
21
188.494660
0
LINE
8
Layer 1
10
-20.280211
20
188.494660
11
-20.411606
21
189.229182
0
LINE
8
Layer 1
10
-20.411606
20
189.229182
11
-20.059725
21
189.888132
0
LINE
8
Layer 1
10
-20.059725
20
189.888132
11
-19.646512
21
190.210290
0
LINE
8
Layer 1
10
-19.646512
20
190.210290
11
-19.030574
21
190.445564
0
LINE
8
Layer 1
10
-19.030574
20
190.445564
11
-17.387433
21
190.646604
0
LINE
8
Layer 1
10
-17.387433
20
190.646604
11
-17.387433
21
190.646604
0
LINE
8
Layer 1
10
227.387429
20
190.646604
11
229.030576
21
190.445564
0
LINE
8
Layer 1
10
229.030576
20
190.445564
11
229.646513
21
190.210290
0
LINE
8
Layer 1
10
229.646513
20
190.210290
11
230.059721
21
189.888132
0
LINE
8
Layer 1
10
230.059721
20
189.888132
11
230.411606
21
189.229182
0
LINE
8
Layer 1
10
230.411606
20
189.229182
11
230.280207
21
188.494660
0
LINE
8
Layer 1
10
230.280207
20
188.494660
11
229.909590
21
187.728900
0
LINE
8
Layer 1
10
229.909590
20
187.728900
11
229.441061
21
187.105941
0
LINE
8
Layer 1
10
229.441061
20
187.105941
11
228.886435
21
186.630232
0
LINE
8
Layer 1
10
228.886435
20
186.630232
11
228.257532
21
186.306220
0
LINE
8
Layer 1
10
228.257532
20
186.306220
11
227.566168
21
186.138355
0
LINE
8
Layer 1
10
227.566168
20
186.138355
11
226.824160
21
186.131084
0
LINE
8
Layer 1
10
226.824160
20
186.131084
11
226.043327
21
186.288856
0
LINE
8
Layer 1
10
226.043327
20
186.288856
11
225.235485
21
186.616118
0
LINE
8
Layer 1
10
225.235485
20
186.616118
11
224.494405
21
187.097872
0
LINE
8
Layer 1
10
224.494405
20
187.097872
11
223.863349
21
187.708503
0
LINE
8
Layer 1
10
223.863349
20
187.708503
11
223.409038
21
188.370459
0
LINE
8
Layer 1
10
223.409038
20
188.370459
11
223.198193
21
189.006188
0
LINE
8
Layer 1
10
223.198193
20
189.006188
11
223.205642
21
189.387450
0
LINE
8
Layer 1
10
223.205642
20
189.387450
11
223.379708
21
189.670573
0
LINE
8
Layer 1
10
223.379708
20
189.670573
11
224.529929
21
190.205632
0
LINE
8
Layer 1
10
224.529929
20
190.205632
11
225.935955
21
190.545826
0
LINE
8
Layer 1
10
225.935955
20
190.545826
11
227.387429
21
190.646604
0
LINE
8
Layer 1
10
227.387429
20
190.646604
11
227.387429
21
190.646604
0
LINE
8
Layer 1
10
237.106457
20
190.646604
11
237.353402
21
190.637785
0
LINE
8
Layer 1
10
237.353402
20
190.637785
11
238.358818
21
190.549591
0
LINE
8
Layer 1
10
238.358818
20
190.549591
11
238.438193
21
188.926813
0
LINE
8
Layer 1
10
238.438193
20
188.926813
11
238.410020
21
187.507422
0
LINE
8
Layer 1
10
238.410020
20
187.507422
11
238.176831
21
187.329593
0
LINE
8
Layer 1
10
238.176831
20
187.329593
11
237.706179
21
187.304035
0
LINE
8
Layer 1
10
237.706179
20
187.304035
11
237.004763
21
187.449115
0
LINE
8
Layer 1
10
237.004763
20
187.449115
11
236.462638
21
187.797924
0
LINE
8
Layer 1
10
236.462638
20
187.797924
11
235.686527
21
188.953271
0
LINE
8
Layer 1
10
235.686527
20
188.953271
11
235.540346
21
189.602137
0
LINE
8
Layer 1
10
235.540346
20
189.602137
11
235.768871
21
190.141375
0
LINE
8
Layer 1
10
235.768871
20
190.141375
11
236.311206
21
190.509894
0
LINE
8
Layer 1
10
236.311206
20
190.509894
11
237.106457
21
190.646604
0
LINE
8
Layer 1
10
237.106457
20
190.646604
11
237.106457
21
190.646604
0
LINE
8
Layer 1
10
24.698956
20
190.196813
11
27.586539
21
189.971770
0
LINE
8
Layer 1
10
27.586539
20
189.971770
11
28.966040
21
189.643293
0
LINE
8
Layer 1
10
28.966040
20
189.643293
11
30.333841
21
189.157866
0
LINE
8
Layer 1
10
30.333841
20
189.157866
11
33.127816
21
187.677221
0
LINE
8
Layer 1
10
33.127816
20
187.677221
11
36.155416
21
185.451952
0
LINE
8
Layer 1
10
36.155416
20
185.451952
11
38.059832
21
183.684591
0
LINE
8
Layer 1
10
38.059832
20
183.684591
11
40.091875
21
181.495991
0
LINE
8
Layer 1
10
40.091875
20
181.495991
11
41.782876
21
179.422264
0
LINE
8
Layer 1
10
41.782876
20
179.422264
11
42.664166
21
177.999521
0
LINE
8
Layer 1
10
42.664166
20
177.999521
11
42.852127
21
177.158298
0
LINE
8
Layer 1
10
42.852127
20
177.158298
11
42.818048
21
176.348961
0
LINE
8
Layer 1
10
42.818048
20
176.348961
11
42.561474
21
175.571324
0
LINE
8
Layer 1
10
42.561474
20
175.571324
11
42.081950
21
174.825203
0
LINE
8
Layer 1
10
42.081950
20
174.825203
11
41.379022
21
174.110414
0
LINE
8
Layer 1
10
41.379022
20
174.110414
11
40.452237
21
173.426771
0
LINE
8
Layer 1
10
40.452237
20
173.426771
11
37.925277
21
172.152190
0
LINE
8
Layer 1
10
37.925277
20
172.152190
11
34.497435
21
170.999984
0
LINE
8
Layer 1
10
34.497435
20
170.999984
11
30.165079
21
169.968677
0
LINE
8
Layer 1
10
30.165079
20
169.968677
11
24.924575
21
169.056792
0
LINE
8
Layer 1
10
24.924575
20
169.056792
11
18.772289
21
168.262854
0
LINE
8
Layer 1
10
18.772289
20
168.262854
11
11.434512
21
167.283896
0
LINE
8
Layer 1
10
11.434512
20
167.283896
11
6.583687
21
166.643055
0
LINE
8
Layer 1
10
6.583687
20
166.643055
11
5.064164
21
166.603053
0
LINE
8
Layer 1
10
5.064164
20
166.603053
11
3.726317
21
166.719452
0
LINE
8
Layer 1
10
3.726317
20
166.719452
11
2.580234
21
166.945911
0
LINE
8
Layer 1
10
2.580234
20
166.945911
11
1.547959
21
167.297931
0
LINE
8
Layer 1
10
1.547959
20
167.297931
11
0.618826
21
167.784796
0
LINE
8
Layer 1
10
0.618826
20
167.784796
11
-0.217830
21
168.415791
0
LINE
8
Layer 1
10
-0.217830
20
168.415791
11
-0.972674
21
169.200199
0
LINE
8
Layer 1
10
-0.972674
20
169.200199
11
-1.656371
21
170.147304
0
LINE
8
Layer 1
10
-1.656371
20
170.147304
11
-2.852988
21
172.566743
0
LINE
8
Layer 1
10
-2.852988
20
172.566743
11
-3.372210
21
174.736700
0
LINE
8
Layer 1
10
-3.372210
20
174.736700
11
-3.548931
21
177.417523
0
LINE
8
Layer 1
10
-3.548931
20
177.417523
11
-3.382090
21
180.093894
0
LINE
8
Layer 1
10
-3.382090
20
180.093894
11
-2.870627
21
182.250493
0
LINE
8
Layer 1
10
-2.870627
20
182.250493
11
-1.775340
21
184.336377
0
LINE
8
Layer 1
10
-1.775340
20
184.336377
11
-1.090606
21
185.156552
0
LINE
8
Layer 1
10
-1.090606
20
185.156552
11
-0.283747
21
185.850882
0
LINE
8
Layer 1
10
-0.283747
20
185.850882
11
0.668285
21
186.436365
0
LINE
8
Layer 1
10
0.668285
20
186.436365
11
1.788538
21
186.930001
0
LINE
8
Layer 1
10
1.788538
20
186.930001
11
4.625900
21
187.709729
0
LINE
8
Layer 1
10
4.625900
20
187.709729
11
9.421733
21
188.546000
0
LINE
8
Layer 1
10
9.421733
20
188.546000
11
15.151982
21
189.337025
0
LINE
8
Layer 1
10
15.151982
20
189.337025
11
20.637454
21
189.936173
0
LINE
8
Layer 1
10
20.637454
20
189.936173
11
24.698956
21
190.196813
0
LINE
8
Layer 1
10
24.698956
20
190.196813
11
24.698956
21
190.196813
0
LINE
8
Layer 1
10
185.301041
20
190.196813
11
189.362544
21
189.936173
0
LINE
8
Layer 1
10
189.362544
20
189.936173
11
194.848018
21
189.337025
0
LINE
8
Layer 1
10
194.848018
20
189.337025
11
200.578267
21
188.546000
0
LINE
8
Layer 1
10
200.578267
20
188.546000
11
205.374096
21
187.709729
0
LINE
8
Layer 1
10
205.374096
20
187.709729
11
208.211459
21
186.930001
0
LINE
8
Layer 1
10
208.211459
20
186.930001
11
209.331713
21
186.436365
0
LINE
8
Layer 1
10
209.331713
20
186.436365
11
210.283746
21
185.850882
0
LINE
8
Layer 1
10
210.283746
20
185.850882
11
211.090606
21
185.156552
0
LINE
8
Layer 1
10
211.090606
20
185.156552
11
211.775340
21
184.336377
0
LINE
8
Layer 1
10
211.775340
20
184.336377
11
212.870624
21
182.250493
0
LINE
8
Layer 1
10
212.870624
20
182.250493
11
213.382088
21
180.093894
0
LINE
8
Layer 1
10
213.382088
20
180.093894
11
213.548930
21
177.417523
0
LINE
8
Layer 1
10
213.548930
20
177.417523
11
213.372210
21
174.736700
0
LINE
8
Layer 1
10
213.372210
20
174.736700
11
212.852985
21
172.566743
0
LINE
8
Layer 1
10
212.852985
20
172.566743
11
211.656369
21
170.147304
0
LINE
8
Layer 1
10
211.656369
20
170.147304
11
210.972673
21
169.200199
0
LINE
8
Layer 1
10
210.972673
20
169.200199
11
210.217830
21
168.415791
0
LINE
8
Layer 1
10
210.217830
20
168.415791
11
209.381175
21
167.784796
0
LINE
8
Layer 1
10
209.381175
20
167.784796
11
208.452042
21
167.297931
0
LINE
8
Layer 1
10
208.452042
20
167.297931
11
207.419765
21
166.945911
0
LINE
8
Layer 1
10
207.419765
20
166.945911
11
206.273679
21
166.719452
0
LINE
8
Layer 1
10
206.273679
20
166.719452
11
204.935834
21
166.603053
0
LINE
8
Layer 1
10
204.935834
20
166.603053
11
203.416313
21
166.643055
0
LINE
8
Layer 1
10
203.416313
20
166.643055
11
198.565485
21
167.283896
0
LINE
8
Layer 1
10
198.565485
20
167.283896
11
191.227707
21
168.262854
0
LINE
8
Layer 1
10
191.227707
20
168.262854
11
185.075422
21
169.056792
0
LINE
8
Layer 1
10
185.075422
20
169.056792
11
179.834919
21
169.968677
0
LINE
8
Layer 1
10
179.834919
20
169.968677
11
175.502564
21
170.999984
0
LINE
8
Layer 1
10
175.502564
20
170.999984
11
172.074724
21
172.152190
0
LINE
8
Layer 1
10
172.074724
20
172.152190
11
169.547764
21
173.426771
0
LINE
8
Layer 1
10
169.547764
20
173.426771
11
168.620979
21
174.110414
0
LINE
8
Layer 1
10
168.620979
20
174.110414
11
167.918051
21
174.825203
0
LINE
8
Layer 1
10
167.918051
20
174.825203
11
167.438527
21
175.571324
0
LINE
8
Layer 1
10
167.438527
20
175.571324
11
167.181952
21
176.348961
0
LINE
8
Layer 1
10
167.181952
20
176.348961
11
167.147872
21
177.158298
0
LINE
8
Layer 1
10
167.147872
20
177.158298
11
167.335832
21
177.999521
0
LINE
8
Layer 1
10
167.335832
20
177.999521
11
168.217123
21
179.422264
0
LINE
8
Layer 1
10
168.217123
20
179.422264
11
169.908126
21
181.495991
0
LINE
8
Layer 1
10
169.908126
20
181.495991
11
171.940170
21
183.684591
0
LINE
8
Layer 1
10
171.940170
20
183.684591
11
173.844582
21
185.451952
0
LINE
8
Layer 1
10
173.844582
20
185.451952
11
176.872183
21
187.677221
0
LINE
8
Layer 1
10
176.872183
20
187.677221
11
179.666160
21
189.157866
0
LINE
8
Layer 1
10
179.666160
20
189.157866
11
181.033961
21
189.643293
0
LINE
8
Layer 1
10
181.033961
20
189.643293
11
182.413462
21
189.971770
0
LINE
8
Layer 1
10
182.413462
20
189.971770
11
185.301041
21
190.196813
0
LINE
8
Layer 1
10
185.301041
20
190.196813
11
185.301041
21
190.196813
0
LINE
8
Layer 1
10
-12.563197
20
180.248479
11
-11.672604
21
179.925124
0
LINE
8
Layer 1
10
-11.672604
20
179.925124
11
-10.420336
21
179.131169
0
LINE
8
Layer 1
10
-10.420336
20
179.131169
11
-9.174551
21
178.130783
0
LINE
8
Layer 1
10
-9.174551
20
178.130783
11
-8.303405
21
177.188132
0
LINE
8
Layer 1
10
-8.303405
20
177.188132
11
-7.810397
21
176.187912
0
LINE
8
Layer 1
10
-7.810397
20
176.187912
11
-7.619831
21
175.159005
0
LINE
8
Layer 1
10
-7.619831
20
175.159005
11
-7.735774
21
174.220825
0
LINE
8
Layer 1
10
-7.735774
20
174.220825
11
-8.162294
21
173.492785
0
LINE
8
Layer 1
10
-8.162294
20
173.492785
11
-8.864262
21
173.022890
0
LINE
8
Layer 1
10
-8.864262
20
173.022890
11
-9.785072
21
172.654938
0
LINE
8
Layer 1
10
-9.785072
20
172.654938
11
-11.566261
21
172.389524
0
LINE
8
Layer 1
10
-11.566261
20
172.389524
11
-13.559794
21
172.734313
0
LINE
8
Layer 1
10
-13.559794
20
172.734313
11
-14.628963
21
173.120080
0
LINE
8
Layer 1
10
-14.628963
20
173.120080
11
-15.619085
21
173.653123
0
LINE
8
Layer 1
10
-15.619085
20
173.653123
11
-16.421818
21
174.264746
0
LINE
8
Layer 1
10
-16.421818
20
174.264746
11
-16.928822
21
174.886257
0
LINE
8
Layer 1
10
-16.928822
20
174.886257
11
-17.128014
21
175.605949
0
LINE
8
Layer 1
10
-17.128014
20
175.605949
11
-17.211044
21
176.597229
0
LINE
8
Layer 1
10
-17.211044
20
176.597229
11
-17.028460
21
177.728018
0
LINE
8
Layer 1
10
-17.028460
20
177.728018
11
-16.258544
21
178.678618
0
LINE
8
Layer 1
10
-16.258544
20
178.678618
11
-15.457499
21
179.278732
0
LINE
8
Layer 1
10
-15.457499
20
179.278732
11
-14.483303
21
179.778947
0
LINE
8
Layer 1
10
-14.483303
20
179.778947
11
-13.472890
21
180.121463
0
LINE
8
Layer 1
10
-13.472890
20
180.121463
11
-12.563197
21
180.248479
0
LINE
8
Layer 1
10
-12.563197
20
180.248479
11
-12.563197
21
180.248479
0
LINE
8
Layer 1
10
222.563193
20
180.248479
11
223.472888
21
180.121463
0
LINE
8
Layer 1
10
223.472888
20
180.121463
11
224.483302
21
179.778947
0
LINE
8
Layer 1
10
224.483302
20
179.778947
11
225.457499
21
179.278732
0
LINE
8
Layer 1
10
225.457499
20
179.278732
11
226.258541
21
178.678618
0
LINE
8
Layer 1
10
226.258541
20
178.678618
11
227.028460
21
177.728018
0
LINE
8
Layer 1
10
227.028460
20
177.728018
11
227.211041
21
176.597229
0
LINE
8
Layer 1
10
227.211041
20
176.597229
11
227.128015
21
175.605949
0
LINE
8
Layer 1
10
227.128015
20
175.605949
11
226.928818
21
174.886257
0
LINE
8
Layer 1
10
226.928818
20
174.886257
11
226.421816
21
174.264746
0
LINE
8
Layer 1
10
226.421816
20
174.264746
11
225.619085
21
173.653123
0
LINE
8
Layer 1
10
225.619085
20
173.653123
11
224.628963
21
173.120080
0
LINE
8
Layer 1
10
224.628963
20
173.120080
11
223.559791
21
172.734313
0
LINE
8
Layer 1
10
223.559791
20
172.734313
11
221.566261
21
172.389524
0
LINE
8
Layer 1
10
221.566261
20
172.389524
11
219.785068
21
172.654938
0
LINE
8
Layer 1
10
219.785068
20
172.654938
11
218.864261
21
173.022890
0
LINE
8
Layer 1
10
218.864261
20
173.022890
11
218.162291
21
173.492785
0
LINE
8
Layer 1
10
218.162291
20
173.492785
11
217.735772
21
174.220825
0
LINE
8
Layer 1
10
217.735772
20
174.220825
11
217.619831
21
175.159005
0
LINE
8
Layer 1
10
217.619831
20
175.159005
11
217.810397
21
176.187912
0
LINE
8
Layer 1
10
217.810397
20
176.187912
11
218.303402
21
177.188132
0
LINE
8
Layer 1
10
218.303402
20
177.188132
11
219.174549
21
178.130783
0
LINE
8
Layer 1
10
219.174549
20
178.130783
11
220.420336
21
179.131169
0
LINE
8
Layer 1
10
220.420336
20
179.131169
11
221.672604
21
179.925124
0
LINE
8
Layer 1
10
221.672604
20
179.925124
11
222.563193
21
180.248479
0
LINE
8
Layer 1
10
222.563193
20
180.248479
11
222.563193
21
180.248479
0
LINE
8
Layer 1
10
-24.319516
20
178.387577
11
-23.810064
21
178.085959
0
LINE
8
Layer 1
10
-23.810064
20
178.085959
11
-22.626183
21
176.994104
0
LINE
8
Layer 1
10
-22.626183
20
176.994104
11
-21.526447
21
175.824370
0
LINE
8
Layer 1
10
-21.526447
20
175.824370
11
-20.805969
21
174.757764
0
LINE
8
Layer 1
10
-20.805969
20
174.757764
11
-20.470842
21
173.806117
0
LINE
8
Layer 1
10
-20.470842
20
173.806117
11
-20.527155
21
172.981257
0
LINE
8
Layer 1
10
-20.527155
20
172.981257
11
-20.646512
21
172.739590
0
LINE
8
Layer 1
10
-20.646512
20
172.739590
11
-20.849636
21
172.666219
0
LINE
8
Layer 1
10
-20.849636
20
172.666219
11
-21.885350
21
173.034174
0
LINE
8
Layer 1
10
-21.885350
20
173.034174
11
-22.993416
21
173.826998
0
LINE
8
Layer 1
10
-22.993416
20
173.826998
11
-23.868024
21
175.039002
0
LINE
8
Layer 1
10
-23.868024
20
175.039002
11
-24.403934
21
176.474495
0
LINE
8
Layer 1
10
-24.403934
20
176.474495
11
-24.495905
21
177.937785
0
LINE
8
Layer 1
10
-24.495905
20
177.937785
11
-24.319516
21
178.387577
0
LINE
8
Layer 1
10
-24.319516
20
178.387577
11
-24.319516
21
178.387577
0
LINE
8
Layer 1
10
234.319513
20
178.387577
11
234.495902
21
177.937785
0
LINE
8
Layer 1
10
234.495902
20
177.937785
11
234.403932
21
176.474495
0
LINE
8
Layer 1
10
234.403932
20
176.474495
11
233.868024
21
175.039002
0
LINE
8
Layer 1
10
233.868024
20
175.039002
11
232.993416
21
173.826998
0
LINE
8
Layer 1
10
232.993416
20
173.826998
11
231.885346
21
173.034174
0
LINE
8
Layer 1
10
231.885346
20
173.034174
11
230.849636
21
172.666219
0
LINE
8
Layer 1
10
230.849636
20
172.666219
11
230.646512
21
172.739590
0
LINE
8
Layer 1
10
230.646512
20
172.739590
11
230.527152
21
172.981257
0
LINE
8
Layer 1
10
230.527152
20
172.981257
11
230.470840
21
173.806117
0
LINE
8
Layer 1
10
230.470840
20
173.806117
11
230.805969
21
174.757764
0
LINE
8
Layer 1
10
230.805969
20
174.757764
11
231.526447
21
175.824370
0
LINE
8
Layer 1
10
231.526447
20
175.824370
11
232.626179
21
176.994104
0
LINE
8
Layer 1
10
232.626179
20
176.994104
11
233.810064
21
178.085959
0
LINE
8
Layer 1
10
233.810064
20
178.085959
11
234.319513
21
178.387577
0
LINE
8
Layer 1
10
234.319513
20
178.387577
11
234.319513
21
178.387577
0
LINE
8
Layer 1
10
46.165485
20
169.762160
11
48.707696
21
169.592916
0
LINE
8
Layer 1
10
48.707696
20
169.592916
11
51.722161
21
168.756318
0
LINE
8
Layer 1
10
51.722161
20
168.756318
11
56.434155
21
166.868213
0
LINE
8
Layer 1
10
56.434155
20
166.868213
11
64.068957
21
163.544452
0
LINE
8
Layer 1
10
64.068957
20
163.544452
11
67.075347
21
162.116991
0
LINE
8
Layer 1
10
67.075347
20
162.116991
11
69.927831
21
160.547117
0
LINE
8
Layer 1
10
69.927831
20
160.547117
11
72.554038
21
158.877386
0
LINE
8
Layer 1
10
72.554038
20
158.877386
11
74.881596
21
157.150354
0
LINE
8
Layer 1
10
74.881596
20
157.150354
11
78.678173
21
154.258677
0
LINE
8
Layer 1
10
78.678173
20
154.258677
11
82.088316
21
152.158781
0
LINE
8
Layer 1
10
82.088316
20
152.158781
11
85.784473
21
150.493126
0
LINE
8
Layer 1
10
85.784473
20
150.493126
11
90.439096
21
148.904174
0
LINE
8
Layer 1
10
90.439096
20
148.904174
11
95.983445
21
147.105246
0
LINE
8
Layer 1
10
95.983445
20
147.105246
11
96.683549
21
146.726433
0
LINE
8
Layer 1
10
96.683549
20
146.726433
11
96.744999
21
146.399452
0
LINE
8
Layer 1
10
96.744999
20
146.399452
11
96.211362
21
145.768078
0
LINE
8
Layer 1
10
96.211362
20
145.768078
11
95.007765
21
145.001782
0
LINE
8
Layer 1
10
95.007765
20
145.001782
11
93.435858
21
144.264044
0
LINE
8
Layer 1
10
93.435858
20
144.264044
11
91.797291
21
143.718341
0
LINE
8
Layer 1
10
91.797291
20
143.718341
11
89.100704
21
143.262557
0
LINE
8
Layer 1
10
89.100704
20
143.262557
11
85.338345
21
142.997148
0
LINE
8
Layer 1
10
85.338345
20
142.997148
11
80.413374
21
142.918151
0
LINE
8
Layer 1
10
80.413374
20
142.918151
11
74.228957
21
143.021604
0
LINE
8
Layer 1
10
74.228957
20
143.021604
11
67.631139
21
143.304111
0
LINE
8
Layer 1
10
67.631139
20
143.304111
11
62.163678
21
143.817204
0
LINE
8
Layer 1
10
62.163678
20
143.817204
11
56.791167
21
144.695379
0
LINE
8
Layer 1
10
56.791167
20
144.695379
11
50.478193
21
146.073132
0
LINE
8
Layer 1
10
50.478193
20
146.073132
11
47.346703
21
146.676404
0
LINE
8
Layer 1
10
47.346703
20
146.676404
11
44.176373
21
147.000301
0
LINE
8
Layer 1
10
44.176373
20
147.000301
11
40.857564
21
147.032024
0
LINE
8
Layer 1
10
40.857564
20
147.032024
11
37.280639
21
146.758777
0
LINE
8
Layer 1
10
37.280639
20
146.758777
11
33.335960
21
146.167763
0
LINE
8
Layer 1
10
33.335960
20
146.167763
11
28.913890
21
145.246184
0
LINE
8
Layer 1
10
28.913890
20
145.246184
11
23.904791
21
143.981245
0
LINE
8
Layer 1
10
23.904791
20
143.981245
11
18.199025
21
142.360146
0
LINE
8
Layer 1
10
18.199025
20
142.360146
11
15.806060
21
141.724392
0
LINE
8
Layer 1
10
15.806060
20
141.724392
11
13.698403
21
141.331765
0
LINE
8
Layer 1
10
13.698403
20
141.331765
11
11.832716
21
141.189007
0
LINE
8
Layer 1
10
11.832716
20
141.189007
11
10.165665
21
141.302858
0
LINE
8
Layer 1
10
10.165665
20
141.302858
11
8.653912
21
141.680059
0
LINE
8
Layer 1
10
8.653912
20
141.680059
11
7.254122
21
142.327352
0
LINE
8
Layer 1
10
7.254122
20
142.327352
11
5.922957
21
143.251476
0
LINE
8
Layer 1
10
5.922957
20
143.251476
11
4.617081
21
144.459174
0
LINE
8
Layer 1
10
4.617081
20
144.459174
11
3.284105
21
145.994623
0
LINE
8
Layer 1
10
3.284105
20
145.994623
11
2.199992
21
147.574257
0
LINE
8
Layer 1
10
2.199992
20
147.574257
11
1.360207
21
149.182222
0
LINE
8
Layer 1
10
1.360207
20
149.182222
11
0.760219
21
150.802661
0
LINE
8
Layer 1
10
0.760219
20
150.802661
11
0.395492
21
152.419719
0
LINE
8
Layer 1
10
0.395492
20
152.419719
11
0.261495
21
154.017540
0
LINE
8
Layer 1
10
0.261495
20
154.017540
11
0.353693
21
155.580268
0
LINE
8
Layer 1
10
0.353693
20
155.580268
11
0.667554
21
157.092048
0
LINE
8
Layer 1
10
0.667554
20
157.092048
11
1.198544
21
158.537023
0
LINE
8
Layer 1
10
1.198544
20
158.537023
11
1.942131
21
159.899339
0
LINE
8
Layer 1
10
1.942131
20
159.899339
11
2.893780
21
161.163138
0
LINE
8
Layer 1
10
2.893780
20
161.163138
11
4.048959
21
162.312567
0
LINE
8
Layer 1
10
4.048959
20
162.312567
11
5.403134
21
163.331768
0
LINE
8
Layer 1
10
5.403134
20
163.331768
11
6.951771
21
164.204886
0
LINE
8
Layer 1
10
6.951771
20
164.204886
11
8.690339
21
164.916066
0
LINE
8
Layer 1
10
8.690339
20
164.916066
11
10.614303
21
165.449452
0
LINE
8
Layer 1
10
10.614303
20
165.449452
11
13.933561
21
165.833624
0
LINE
8
Layer 1
10
13.933561
20
165.833624
11
19.195623
21
166.163827
0
LINE
8
Layer 1
10
19.195623
20
166.163827
11
23.759723
21
166.409651
0
LINE
8
Layer 1
10
23.759723
20
166.409651
11
27.252929
21
166.761537
0
LINE
8
Layer 1
10
27.252929
20
166.761537
11
30.809705
21
167.372398
0
LINE
8
Layer 1
10
30.809705
20
167.372398
11
35.564513
21
168.395146
0
LINE
8
Layer 1
10
35.564513
20
168.395146
11
40.466871
21
169.347733
0
LINE
8
Layer 1
10
40.466871
20
169.347733
11
44.454513
21
169.700424
0
LINE
8
Layer 1
10
44.454513
20
169.700424
11
46.165485
21
169.762160
0
LINE
8
Layer 1
10
46.165485
20
169.762160
11
46.165485
21
169.762160
0
LINE
8
Layer 1
10
163.173054
20
169.762160
11
163.834513
21
169.762160
0
LINE
8
Layer 1
10
163.834513
20
169.762160
11
165.545485
21
169.700424
0
LINE
8
Layer 1
10
165.545485
20
169.700424
11
169.533129
21
169.347733
0
LINE
8
Layer 1
10
169.533129
20
169.347733
11
174.435485
21
168.395146
0
LINE
8
Layer 1
10
174.435485
20
168.395146
11
179.190294
21
167.372398
0
LINE
8
Layer 1
10
179.190294
20
167.372398
11
182.747071
21
166.761537
0
LINE
8
Layer 1
10
182.747071
20
166.761537
11
186.240278
21
166.409651
0
LINE
8
Layer 1
10
186.240278
20
166.409651
11
190.804374
21
166.163827
0
LINE
8
Layer 1
10
190.804374
20
166.163827
11
196.066439
21
165.833624
0
LINE
8
Layer 1
10
196.066439
20
165.833624
11
199.385693
21
165.449452
0
LINE
8
Layer 1
10
199.385693
20
165.449452
11
201.309658
21
164.916066
0
LINE
8
Layer 1
10
201.309658
20
164.916066
11
203.048226
21
164.204886
0
LINE
8
Layer 1
10
203.048226
20
164.204886
11
204.596864
21
163.331768
0
LINE
8
Layer 1
10
204.596864
20
163.331768
11
205.951039
21
162.312567
0
LINE
8
Layer 1
10
205.951039
20
162.312567
11
207.106219
21
161.163138
0
LINE
8
Layer 1
10
207.106219
20
161.163138
11
208.057868
21
159.899339
0
LINE
8
Layer 1
10
208.057868
20
159.899339
11
208.801455
21
158.537023
0
LINE
8
Layer 1
10
208.801455
20
158.537023
11
209.332446
21
157.092048
0
LINE
8
Layer 1
10
209.332446
20
157.092048
11
209.646307
21
155.580268
0
LINE
8
Layer 1
10
209.646307
20
155.580268
11
209.738506
21
154.017540
0
LINE
8
Layer 1
10
209.738506
20
154.017540
11
209.604508
21
152.419719
0
LINE
8
Layer 1
10
209.604508
20
152.419719
11
209.239782
21
150.802661
0
LINE
8
Layer 1
10
209.239782
20
150.802661
11
208.639792
21
149.182222
0
LINE
8
Layer 1
10
208.639792
20
149.182222
11
207.800007
21
147.574257
0
LINE
8
Layer 1
10
207.800007
20
147.574257
11
206.715893
21
145.994623
0
LINE
8
Layer 1
10
206.715893
20
145.994623
11
205.382916
21
144.459174
0
LINE
8
Layer 1
10
205.382916
20
144.459174
11
204.077040
21
143.251476
0
LINE
8
Layer 1
10
204.077040
20
143.251476
11
202.745876
21
142.327352
0
LINE
8
Layer 1
10
202.745876
20
142.327352
11
201.346086
21
141.680059
0
LINE
8
Layer 1
10
201.346086
20
141.680059
11
199.834335
21
141.302858
0
LINE
8
Layer 1
10
199.834335
20
141.302858
11
198.167284
21
141.189007
0
LINE
8
Layer 1
10
198.167284
20
141.189007
11
196.301598
21
141.331765
0
LINE
8
Layer 1
10
196.301598
20
141.331765
11
194.193939
21
141.724392
0
LINE
8
Layer 1
10
194.193939
20
141.724392
11
191.800971
21
142.360146
0
LINE
8
Layer 1
10
191.800971
20
142.360146
11
186.095206
21
143.981245
0
LINE
8
Layer 1
10
186.095206
20
143.981245
11
181.086108
21
145.246184
0
LINE
8
Layer 1
10
181.086108
20
145.246184
11
176.664039
21
146.167763
0
LINE
8
Layer 1
10
176.664039
20
146.167763
11
172.719362
21
146.758777
0
LINE
8
Layer 1
10
172.719362
20
146.758777
11
169.142438
21
147.032024
0
LINE
8
Layer 1
10
169.142438
20
147.032024
11
165.823629
21
147.000301
0
LINE
8
Layer 1
10
165.823629
20
147.000301
11
162.653297
21
146.676404
0
LINE
8
Layer 1
10
162.653297
20
146.676404
11
159.521804
21
146.073132
0
LINE
8
Layer 1
10
159.521804
20
146.073132
11
153.208831
21
144.695379
0
LINE
8
Layer 1
10
153.208831
20
144.695379
11
147.836319
21
143.817204
0
LINE
8
Layer 1
10
147.836319
20
143.817204
11
142.368859
21
143.304111
0
LINE
8
Layer 1
10
142.368859
20
143.304111
11
135.771041
21
143.021604
0
LINE
8
Layer 1
10
135.771041
20
143.021604
11
129.586623
21
142.918151
0
LINE
8
Layer 1
10
129.586623
20
142.918151
11
124.661653
21
142.997148
0
LINE
8
Layer 1
10
124.661653
20
142.997148
11
120.899293
21
143.262557
0
LINE
8
Layer 1
10
120.899293
20
143.262557
11
118.202707
21
143.718341
0
LINE
8
Layer 1
10
118.202707
20
143.718341
11
116.564140
21
144.264044
0
LINE
8
Layer 1
10
116.564140
20
144.264044
11
114.992233
21
145.001782
0
LINE
8
Layer 1
10
114.992233
20
145.001782
11
113.788636
21
145.768078
0
LINE
8
Layer 1
10
113.788636
20
145.768078
11
113.254999
21
146.399452
0
LINE
8
Layer 1
10
113.254999
20
146.399452
11
113.316449
21
146.726433
0
LINE
8
Layer 1
10
113.316449
20
146.726433
11
114.016553
21
147.105246
0
LINE
8
Layer 1
10
114.016553
20
147.105246
11
119.560902
21
148.904174
0
LINE
8
Layer 1
10
119.560902
20
148.904174
11
124.215524
21
150.493126
0
LINE
8
Layer 1
10
124.215524
20
150.493126
11
127.911682
21
152.158781
0
LINE
8
Layer 1
10
127.911682
20
152.158781
11
131.321824
21
154.258677
0
LINE
8
Layer 1
10
131.321824
20
154.258677
11
135.118402
21
157.150354
0
LINE
8
Layer 1
10
135.118402
20
157.150354
11
137.445961
21
158.877386
0
LINE
8
Layer 1
10
137.445961
20
158.877386
11
140.072170
21
160.547117
0
LINE
8
Layer 1
10
140.072170
20
160.547117
11
142.924655
21
162.116991
0
LINE
8
Layer 1
10
142.924655
20
162.116991
11
145.931041
21
163.544452
0
LINE
8
Layer 1
10
145.931041
20
163.544452
11
153.186515
21
166.706643
0
LINE
8
Layer 1
10
153.186515
20
166.706643
11
157.805215
21
168.586065
0
LINE
8
Layer 1
10
157.805215
20
168.586065
11
160.797332
21
169.499107
0
LINE
8
Layer 1
10
160.797332
20
169.499107
11
163.173054
21
169.762160
0
LINE
8
Layer 1
10
163.173054
20
169.762160
11
163.173054
21
169.762160
0
LINE
8
Layer 1
10
-4.766808
20
168.095285
11
-4.202034
21
167.996037
0
LINE
8
Layer 1
10
-4.202034
20
167.996037
11
-3.867650
21
167.674900
0
LINE
8
Layer 1
10
-3.867650
20
167.674900
11
-3.707237
21
167.074477
0
LINE
8
Layer 1
10
-3.707237
20
167.074477
11
-3.664377
21
166.137368
0
LINE
8
Layer 1
10
-3.664377
20
166.137368
11
-3.799715
21
165.009577
0
LINE
8
Layer 1
10
-3.799715
20
165.009577
11
-4.199591
21
164.035318
0
LINE
8
Layer 1
10
-4.199591
20
164.035318
11
-4.845592
21
163.243368
0
LINE
8
Layer 1
10
-4.845592
20
163.243368
11
-5.719308
21
162.662507
0
LINE
8
Layer 1
10
-5.719308
20
162.662507
11
-6.630459
21
162.344215
0
LINE
8
Layer 1
10
-6.630459
20
162.344215
11
-7.576319
21
162.212066
0
LINE
8
Layer 1
10
-7.576319
20
162.212066
11
-8.508744
21
162.250587
0
LINE
8
Layer 1
10
-8.508744
20
162.250587
11
-9.379593
21
162.444304
0
LINE
8
Layer 1
10
-9.379593
20
162.444304
11
-10.140723
21
162.777745
0
LINE
8
Layer 1
10
-10.140723
20
162.777745
11
-10.743992
21
163.235436
0
LINE
8
Layer 1
10
-10.743992
20
163.235436
11
-11.141257
21
163.801903
0
LINE
8
Layer 1
10
-11.141257
20
163.801903
11
-11.284377
21
164.461674
0
LINE
8
Layer 1
10
-11.284377
20
164.461674
11
-11.153798
21
165.010395
0
LINE
8
Layer 1
10
-11.153798
20
165.010395
11
-10.785415
21
165.573488
0
LINE
8
Layer 1
10
-10.785415
20
165.573488
11
-9.475358
21
166.655623
0
LINE
8
Layer 1
10
-9.475358
20
166.655623
11
-7.634445
21
167.533753
0
LINE
8
Layer 1
10
-7.634445
20
167.533753
11
-5.542919
21
168.033549
0
LINE
8
Layer 1
10
-5.542919
20
168.033549
11
-4.766808
21
168.095285
0
LINE
8
Layer 1
10
-4.766808
20
168.095285
11
-4.766808
21
168.095285
0
LINE
8
Layer 1
10
214.766804
20
168.095285
11
215.542916
21
168.033549
0
LINE
8
Layer 1
10
215.542916
20
168.033549
11
217.634443
21
167.533753
0
LINE
8
Layer 1
10
217.634443
20
167.533753
11
219.475357
21
166.655623
0
LINE
8
Layer 1
10
219.475357
20
166.655623
11
220.785416
21
165.573488
0
LINE
8
Layer 1
10
220.785416
20
165.573488
11
221.153797
21
165.010395
0
LINE
8
Layer 1
10
221.153797
20
165.010395
11
221.284374
21
164.461674
0
LINE
8
Layer 1
10
221.284374
20
164.461674
11
221.141255
21
163.801903
0
LINE
8
Layer 1
10
221.141255
20
163.801903
11
220.743990
21
163.235436
0
LINE
8
Layer 1
10
220.743990
20
163.235436
11
220.140722
21
162.777745
0
LINE
8
Layer 1
10
220.140722
20
162.777745
11
219.379593
21
162.444304
0
LINE
8
Layer 1
10
219.379593
20
162.444304
11
218.508745
21
162.250587
0
LINE
8
Layer 1
10
218.508745
20
162.250587
11
217.576319
21
162.212066
0
LINE
8
Layer 1
10
217.576319
20
162.212066
11
216.630458
21
162.344215
0
LINE
8
Layer 1
10
216.630458
20
162.344215
11
215.719304
21
162.662507
0
LINE
8
Layer 1
10
215.719304
20
162.662507
11
214.845590
21
163.243368
0
LINE
8
Layer 1
10
214.845590
20
163.243368
11
214.199590
21
164.035318
0
LINE
8
Layer 1
10
214.199590
20
164.035318
11
213.799715
21
165.009577
0
LINE
8
Layer 1
10
213.799715
20
165.009577
11
213.664374
21
166.137368
0
LINE
8
Layer 1
10
213.664374
20
166.137368
11
213.707235
21
167.074477
0
LINE
8
Layer 1
10
213.707235
20
167.074477
11
213.867650
21
167.674900
0
LINE
8
Layer 1
10
213.867650
20
167.674900
11
214.202035
21
167.996037
0
LINE
8
Layer 1
10
214.202035
20
167.996037
11
214.766804
21
168.095285
0
LINE
8
Layer 1
10
214.766804
20
168.095285
11
214.766804
21
168.095285
0
LINE
8
Layer 1
10
-19.204238
20
165.281882
11
-18.572258
21
165.112214
0
LINE
8
Layer 1
10
-18.572258
20
165.112214
11
-17.749030
21
164.646882
0
LINE
8
Layer 1
10
-17.749030
20
164.646882
11
-17.113403
21
164.100362
0
LINE
8
Layer 1
10
-17.113403
20
164.100362
11
-16.761905
21
163.508260
0
LINE
8
Layer 1
10
-16.761905
20
163.508260
11
-16.696712
21
162.874722
0
LINE
8
Layer 1
10
-16.696712
20
162.874722
11
-16.920002
21
162.203896
0
LINE
8
Layer 1
10
-16.920002
20
162.203896
11
-17.145535
21
161.836847
0
LINE
8
Layer 1
10
-17.145535
20
161.836847
11
-17.377474
21
161.682022
0
LINE
8
Layer 1
10
-17.377474
20
161.682022
11
-18.278197
21
161.921674
0
LINE
8
Layer 1
10
-18.278197
20
161.921674
11
-18.790626
21
162.330246
0
LINE
8
Layer 1
10
-18.790626
20
162.330246
11
-19.265551
21
163.042769
0
LINE
8
Layer 1
10
-19.265551
20
163.042769
11
-19.615010
21
163.893685
0
LINE
8
Layer 1
10
-19.615010
20
163.893685
11
-19.751044
21
164.717438
0
LINE
8
Layer 1
10
-19.751044
20
164.717438
11
-19.608844
21
165.148756
0
LINE
8
Layer 1
10
-19.608844
20
165.148756
11
-19.204238
21
165.281882
0
LINE
8
Layer 1
10
-19.204238
20
165.281882
11
-19.204238
21
165.281882
0
LINE
8
Layer 1
10
229.204235
20
165.281882
11
229.608845
21
165.148756
0
LINE
8
Layer 1
10
229.608845
20
165.148756
11
229.751041
21
164.717438
0
LINE
8
Layer 1
10
229.751041
20
164.717438
11
229.615008
21
163.893685
0
LINE
8
Layer 1
10
229.615008
20
163.893685
11
229.265551
21
163.042769
0
LINE
8
Layer 1
10
229.265551
20
163.042769
11
228.790626
21
162.330246
0
LINE
8
Layer 1
10
228.790626
20
162.330246
11
228.278193
21
161.921674
0
LINE
8
Layer 1
10
228.278193
20
161.921674
11
227.377475
21
161.682022
0
LINE
8
Layer 1
10
227.377475
20
161.682022
11
227.145536
21
161.836847
0
LINE
8
Layer 1
10
227.145536
20
161.836847
11
226.919999
21
162.203896
0
LINE
8
Layer 1
10
226.919999
20
162.203896
11
226.696710
21
162.874722
0
LINE
8
Layer 1
10
226.696710
20
162.874722
11
226.761905
21
163.508260
0
LINE
8
Layer 1
10
226.761905
20
163.508260
11
227.113404
21
164.100362
0
LINE
8
Layer 1
10
227.113404
20
164.100362
11
227.749027
21
164.646882
0
LINE
8
Layer 1
10
227.749027
20
164.646882
11
228.572259
21
165.112214
0
LINE
8
Layer 1
10
228.572259
20
165.112214
11
229.204235
21
165.281882
0
LINE
8
Layer 1
10
229.204235
20
165.281882
11
229.204235
21
165.281882
0
LINE
8
Layer 1
10
101.472221
20
165.431813
11
101.912836
21
165.257656
0
LINE
8
Layer 1
10
101.912836
20
165.257656
11
102.027846
21
164.593966
0
LINE
8
Layer 1
10
102.027846
20
164.593966
11
101.888793
21
164.001265
0
LINE
8
Layer 1
10
101.888793
20
164.001265
11
101.560758
21
163.655238
0
LINE
8
Layer 1
10
101.560758
20
163.655238
11
101.177430
21
163.626439
0
LINE
8
Layer 1
10
101.177430
20
163.626439
11
100.872499
21
163.985424
0
LINE
8
Layer 1
10
100.872499
20
163.985424
11
100.763906
21
164.523545
0
LINE
8
Layer 1
10
100.763906
20
164.523545
11
100.845831
21
164.986060
0
LINE
8
Layer 1
10
100.845831
20
164.986060
11
101.091021
21
165.309855
0
LINE
8
Layer 1
10
101.091021
20
165.309855
11
101.472221
21
165.431813
0
LINE
8
Layer 1
10
101.472221
20
165.431813
11
101.472221
21
165.431813
0
LINE
8
Layer 1
10
108.527777
20
165.431813
11
108.908977
21
165.309855
0
LINE
8
Layer 1
10
108.908977
20
165.309855
11
109.154166
21
164.986060
0
LINE
8
Layer 1
10
109.154166
20
164.986060
11
109.236092
21
164.523545
0
LINE
8
Layer 1
10
109.236092
20
164.523545
11
109.127499
21
163.985424
0
LINE
8
Layer 1
10
109.127499
20
163.985424
11
108.822567
21
163.626439
0
LINE
8
Layer 1
10
108.822567
20
163.626439
11
108.439240
21
163.655238
0
LINE
8
Layer 1
10
108.439240
20
163.655238
11
108.111205
21
164.001265
0
LINE
8
Layer 1
10
108.111205
20
164.001265
11
107.972152
21
164.593966
0
LINE
8
Layer 1
10
107.972152
20
164.593966
11
108.087162
21
165.257656
0
LINE
8
Layer 1
10
108.087162
20
165.257656
11
108.527777
21
165.431813
0
LINE
8
Layer 1
10
108.527777
20
165.431813
11
108.527777
21
165.431813
0
LINE
8
Layer 1
10
-11.910558
20
153.366813
11
-11.478405
21
153.269799
0
LINE
8
Layer 1
10
-11.478405
20
153.269799
11
-10.339040
21
152.658848
0
LINE
8
Layer 1
10
-10.339040
20
152.658848
11
-8.772854
21
151.605187
0
LINE
8
Layer 1
10
-8.772854
20
151.605187
11
-7.386457
21
150.543779
0
LINE
8
Layer 1
10
-7.386457
20
150.543779
11
-6.786461
21
149.909591
0
LINE
8
Layer 1
10
-6.786461
20
149.909591
11
-6.978360
21
149.134459
0
LINE
8
Layer 1
10
-6.978360
20
149.134459
11
-7.475880
21
148.178146
0
LINE
8
Layer 1
10
-7.475880
20
148.178146
11
-8.131399
21
147.278371
0
LINE
8
Layer 1
10
-8.131399
20
147.278371
11
-8.797294
21
146.672854
0
LINE
8
Layer 1
10
-8.797294
20
146.672854
11
-9.542182
21
146.324798
0
LINE
8
Layer 1
10
-9.542182
20
146.324798
11
-10.328200
21
146.146635
0
LINE
8
Layer 1
10
-10.328200
20
146.146635
11
-11.126330
21
146.130229
0
LINE
8
Layer 1
10
-11.126330
20
146.130229
11
-11.907552
21
146.267445
0
LINE
8
Layer 1
10
-11.907552
20
146.267445
11
-12.642848
21
146.550145
0
LINE
8
Layer 1
10
-12.642848
20
146.550145
11
-13.303198
21
146.970195
0
LINE
8
Layer 1
10
-13.303198
20
146.970195
11
-13.859585
21
147.519458
0
LINE
8
Layer 1
10
-13.859585
20
147.519458
11
-14.282988
21
148.189799
0
LINE
8
Layer 1
10
-14.282988
20
148.189799
11
-14.586482
21
149.223116
0
LINE
8
Layer 1
10
-14.586482
20
149.223116
11
-14.520623
21
150.269725
0
LINE
8
Layer 1
10
-14.520623
20
150.269725
11
-14.086797
21
151.323680
0
LINE
8
Layer 1
10
-14.086797
20
151.323680
11
-13.286391
21
152.379035
0
LINE
8
Layer 1
10
-13.286391
20
152.379035
11
-12.479160
21
153.160108
0
LINE
8
Layer 1
10
-12.479160
20
153.160108
11
-11.910558
21
153.366813
0
LINE
8
Layer 1
10
-11.910558
20
153.366813
11
-11.910558
21
153.366813
0
LINE
8
Layer 1
10
221.910554
20
153.366813
11
222.479161
21
153.160108
0
LINE
8
Layer 1
10
222.479161
20
153.160108
11
223.286388
21
152.379035
0
LINE
8
Layer 1
10
223.286388
20
152.379035
11
224.086795
21
151.323680
0
LINE
8
Layer 1
10
224.086795
20
151.323680
11
224.520623
21
150.269725
0
LINE
8
Layer 1
10
224.520623
20
150.269725
11
224.586482
21
149.223116
0
LINE
8
Layer 1
10
224.586482
20
149.223116
11
224.282985
21
148.189799
0
LINE
8
Layer 1
10
224.282985
20
148.189799
11
223.859582
21
147.519458
0
LINE
8
Layer 1
10
223.859582
20
147.519458
11
223.303196
21
146.970195
0
LINE
8
Layer 1
10
223.303196
20
146.970195
11
222.642847
21
146.550145
0
LINE
8
Layer 1
10
222.642847
20
146.550145
11
221.907552
21
146.267445
0
LINE
8
Layer 1
10
221.907552
20
146.267445
11
221.126330
21
146.130229
0
LINE
8
Layer 1
10
221.126330
20
146.130229
11
220.328201
21
146.146635
0
LINE
8
Layer 1
10
220.328201
20
146.146635
11
219.542181
21
146.324798
0
LINE
8
Layer 1
10
219.542181
20
146.324798
11
218.797291
21
146.672854
0
LINE
8
Layer 1
10
218.797291
20
146.672854
11
218.131396
21
147.278371
0
LINE
8
Layer 1
10
218.131396
20
147.278371
11
217.475880
21
148.178146
0
LINE
8
Layer 1
10
217.475880
20
148.178146
11
216.978360
21
149.134459
0
LINE
8
Layer 1
10
216.978360
20
149.134459
11
216.786457
21
149.909591
0
LINE
8
Layer 1
10
216.786457
20
149.909591
11
217.386455
21
150.543779
0
LINE
8
Layer 1
10
217.386455
20
150.543779
11
218.772853
21
151.605187
0
LINE
8
Layer 1
10
218.772853
20
151.605187
11
220.339040
21
152.658848
0
LINE
8
Layer 1
10
220.339040
20
152.658848
11
221.478402
21
153.269799
0
LINE
8
Layer 1
10
221.478402
20
153.269799
11
221.910554
21
153.366813
0
LINE
8
Layer 1
10
221.910554
20
153.366813
11
221.910554
21
153.366813
0
LINE
8
Layer 1
10
104.779513
20
150.562229
11
104.788332
21
150.562229
0
LINE
8
Layer 1
10
104.788332
20
150.562229
11
105.211666
21
150.562229
0
LINE
8
Layer 1
10
105.211666
20
150.562229
11
105.582082
21
149.909591
0
LINE
8
Layer 1
10
105.582082
20
149.909591
11
105.827386
21
148.436993
0
LINE
8
Layer 1
10
105.827386
20
148.436993
11
105.786478
21
146.342692
0
LINE
8
Layer 1
10
105.786478
20
146.342692
11
105.497852
21
144.034236
0
LINE
8
Layer 1
10
105.497852
20
144.034236
11
104.999999
21
141.919174
0
LINE
8
Layer 1
10
104.999999
20
141.919174
11
104.502146
21
144.034236
0
LINE
8
Layer 1
10
104.502146
20
144.034236
11
104.213520
21
146.342692
0
LINE
8
Layer 1
10
104.213520
20
146.342692
11
104.172612
21
148.436993
0
LINE
8
Layer 1
10
104.172612
20
148.436993
11
104.417916
21
149.909591
0
LINE
8
Layer 1
10
104.417916
20
149.909591
11
104.779513
21
150.562229
0
LINE
8
Layer 1
10
104.779513
20
150.562229
11
104.779513
21
150.562229
0
LINE
8
Layer 1
10
88.163679
20
138.162091
11
88.275292
21
138.148373
0
LINE
8
Layer 1
10
88.275292
20
138.148373
11
88.227721
21
138.047786
0
LINE
8
Layer 1
10
88.227721
20
138.047786
11
87.634513
21
137.500632
0
LINE
8
Layer 1
10
87.634513
20
137.500632
11
85.568586
21
136.130642
0
LINE
8
Layer 1
10
85.568586
20
136.130642
11
82.702033
21
134.838491
0
LINE
8
Layer 1
10
82.702033
20
134.838491
11
79.351615
21
133.746317
0
LINE
8
Layer 1
10
79.351615
20
133.746317
11
75.834096
21
132.976257
0
LINE
8
Layer 1
10
75.834096
20
132.976257
11
72.748286
21
132.640268
0
LINE
8
Layer 1
10
72.748286
20
132.640268
11
68.876412
21
132.448857
0
LINE
8
Layer 1
10
68.876412
20
132.448857
11
64.871817
21
132.419723
0
LINE
8
Layer 1
10
64.871817
20
132.419723
11
61.387846
21
132.570563
0
LINE
8
Layer 1
10
61.387846
20
132.570563
11
56.189585
21
133.157735
0
LINE
8
Layer 1
10
56.189585
20
133.157735
11
50.467243
21
134.014292
0
LINE
8
Layer 1
10
50.467243
20
134.014292
11
45.918952
21
134.858950
0
LINE
8
Layer 1
10
45.918952
20
134.858950
11
44.615743
21
135.188915
0
LINE
8
Layer 1
10
44.615743
20
135.188915
11
44.242846
21
135.410424
0
LINE
8
Layer 1
10
44.242846
20
135.410424
11
48.828343
21
135.592551
0
LINE
8
Layer 1
10
48.828343
20
135.592551
11
59.553402
21
135.745563
0
LINE
8
Layer 1
10
59.553402
20
135.745563
11
69.961877
21
135.898924
0
LINE
8
Layer 1
10
69.961877
20
135.898924
11
76.862657
21
136.235087
0
LINE
8
Layer 1
10
76.862657
20
136.235087
11
82.164365
21
136.910776
0
LINE
8
Layer 1
10
82.164365
20
136.910776
11
87.775624
21
138.082716
0
LINE
8
Layer 1
10
87.775624
20
138.082716
11
88.163679
21
138.162091
0
LINE
8
Layer 1
10
88.163679
20
138.162091
11
88.163679
21
138.162091
0
LINE
8
Layer 1
10
121.756943
20
138.162091
11
121.836318
21
138.162091
0
LINE
8
Layer 1
10
121.836318
20
138.162091
11
122.224374
21
138.082716
0
LINE
8
Layer 1
10
122.224374
20
138.082716
11
127.835634
21
136.910776
0
LINE
8
Layer 1
10
127.835634
20
136.910776
11
133.137343
21
136.235087
0
LINE
8
Layer 1
10
133.137343
20
136.235087
11
140.038124
21
135.898924
0
LINE
8
Layer 1
10
140.038124
20
135.898924
11
150.446596
21
135.745563
0
LINE
8
Layer 1
10
150.446596
20
135.745563
11
161.171658
21
135.592551
0
LINE
8
Layer 1
10
161.171658
20
135.592551
11
165.757152
21
135.410424
0
LINE
8
Layer 1
10
165.757152
20
135.410424
11
165.384255
21
135.188915
0
LINE
8
Layer 1
10
165.384255
20
135.188915
11
164.081047
21
134.858950
0
LINE
8
Layer 1
10
164.081047
20
134.858950
11
159.532758
21
134.014292
0
LINE
8
Layer 1
10
159.532758
20
134.014292
11
153.810416
21
133.157735
0
LINE
8
Layer 1
10
153.810416
20
133.157735
11
148.612152
21
132.570563
0
LINE
8
Layer 1
10
148.612152
20
132.570563
11
145.128180
21
132.419723
0
LINE
8
Layer 1
10
145.128180
20
132.419723
11
141.123586
21
132.448857
0
LINE
8
Layer 1
10
141.123586
20
132.448857
11
137.251712
21
132.640268
0
LINE
8
Layer 1
10
137.251712
20
132.640268
11
134.165902
21
132.976257
0
LINE
8
Layer 1
10
134.165902
20
132.976257
11
130.648382
21
133.746317
0
LINE
8
Layer 1
10
130.648382
20
133.746317
11
127.297965
21
134.838491
0
LINE
8
Layer 1
10
127.297965
20
134.838491
11
124.431412
21
136.130642
0
LINE
8
Layer 1
10
124.431412
20
136.130642
11
122.365485
21
137.500632
0
LINE
8
Layer 1
10
122.365485
20
137.500632
11
121.807647
21
138.005233
0
LINE
8
Layer 1
10
121.807647
20
138.005233
11
121.756943
21
138.162091
0
LINE
8
Layer 1
10
121.756943
20
138.162091
11
121.756943
21
138.162091
0
LINE
8
Layer 1
10
90.959443
20
136.098341
11
91.550346
21
135.948410
0
LINE
8
Layer 1
10
91.550346
20
135.948410
11
91.784018
21
135.233955
0
LINE
8
Layer 1
10
91.784018
20
135.233955
11
91.786886
21
134.017455
0
LINE
8
Layer 1
10
91.786886
20
134.017455
11
91.583289
21
132.617700
0
LINE
8
Layer 1
10
91.583289
20
132.617700
11
91.197568
21
131.353479
0
LINE
8
Layer 1
10
91.197568
20
131.353479
11
89.772262
21
128.785356
0
LINE
8
Layer 1
10
89.772262
20
128.785356
11
87.649651
21
126.056784
0
LINE
8
Layer 1
10
87.649651
20
126.056784
11
84.862287
21
123.194048
0
LINE
8
Layer 1
10
84.862287
20
123.194048
11
81.442719
21
120.223434
0
LINE
8
Layer 1
10
81.442719
20
120.223434
11
77.423497
21
117.171229
0
LINE
8
Layer 1
10
77.423497
20
117.171229
11
72.837170
21
114.063718
0
LINE
8
Layer 1
10
72.837170
20
114.063718
11
67.716289
21
110.927188
0
LINE
8
Layer 1
10
67.716289
20
110.927188
11
62.093402
21
107.787924
0
LINE
8
Layer 1
10
62.093402
20
107.787924
11
56.668769
21
105.135511
0
LINE
8
Layer 1
10
56.668769
20
105.135511
11
50.769079
21
102.654489
0
LINE
8
Layer 1
10
50.769079
20
102.654489
11
45.078929
21
100.612494
0
LINE
8
Layer 1
10
45.078929
20
100.612494
11
40.282916
21
99.277160
0
LINE
8
Layer 1
10
40.282916
20
99.277160
11
37.970896
21
98.901603
0
LINE
8
Layer 1
10
37.970896
20
98.901603
11
35.611739
21
98.724964
0
LINE
8
Layer 1
10
35.611739
20
98.724964
11
33.544264
21
98.758278
0
LINE
8
Layer 1
10
33.544264
20
98.758278
11
32.107291
21
99.012577
0
LINE
8
Layer 1
10
32.107291
20
99.012577
11
31.331179
21
99.303618
0
LINE
8
Layer 1
10
31.331179
20
99.303618
11
32.707013
21
100.899938
0
LINE
8
Layer 1
10
32.707013
20
100.899938
11
34.579954
21
103.297841
0
LINE
8
Layer 1
10
34.579954
20
103.297841
11
36.238136
21
106.007735
0
LINE
8
Layer 1
10
36.238136
20
106.007735
11
38.007093
21
109.631977
0
LINE
8
Layer 1
10
38.007093
20
109.631977
11
40.212360
21
114.772924
0
LINE
8
Layer 1
10
40.212360
20
114.772924
11
42.029497
21
118.956932
0
LINE
8
Layer 1
10
42.029497
20
118.956932
11
43.660512
21
122.261795
0
LINE
8
Layer 1
10
43.660512
20
122.261795
11
45.216688
21
124.891390
0
LINE
8
Layer 1
10
45.216688
20
124.891390
11
46.809304
21
127.049591
0
LINE
8
Layer 1
10
46.809304
20
127.049591
11
48.212432
21
128.613339
0
LINE
8
Layer 1
10
48.212432
20
128.613339
11
49.586472
21
129.823980
0
LINE
8
Layer 1
10
49.586472
20
129.823980
11
51.018925
21
130.703339
0
LINE
8
Layer 1
10
51.018925
20
130.703339
11
52.597291
21
131.273245
0
LINE
8
Layer 1
10
52.597291
20
131.273245
11
54.409067
21
131.555524
0
LINE
8
Layer 1
10
54.409067
20
131.555524
11
56.541755
21
131.572003
0
LINE
8
Layer 1
10
56.541755
20
131.572003
11
59.082853
21
131.344508
0
LINE
8
Layer 1
10
59.082853
20
131.344508
11
62.119860
21
130.894868
0
LINE
8
Layer 1
10
62.119860
20
130.894868
11
66.329709
21
130.273144
0
LINE
8
Layer 1
10
66.329709
20
130.273144
11
69.078402
21
130.012924
0
LINE
8
Layer 1
10
69.078402
20
130.012924
11
71.685235
21
130.194664
0
LINE
8
Layer 1
10
71.685235
20
130.194664
11
74.757826
21
130.848871
0
LINE
8
Layer 1
10
74.757826
20
130.848871
11
78.908744
21
132.139029
0
LINE
8
Layer 1
10
78.908744
20
132.139029
11
84.750554
21
134.228618
0
LINE
8
Layer 1
10
84.750554
20
134.228618
11
88.812596
21
135.630166
0
LINE
8
Layer 1
10
88.812596
20
135.630166
11
90.959443
21
136.098341
0
LINE
8
Layer 1
10
90.959443
20
136.098341
11
90.959443
21
136.098341
0
LINE
8
Layer 1
10
119.040554
20
136.098341
11
121.187402
21
135.630166
0
LINE
8
Layer 1
10
121.187402
20
135.630166
11
125.249443
21
134.228618
0
LINE
8
Layer 1
10
125.249443
20
134.228618
11
131.091254
21
132.139029
0
LINE
8
Layer 1
10
131.091254
20
132.139029
11
135.242171
21
130.848871
0
LINE
8
Layer 1
10
135.242171
20
130.848871
11
138.314763
21
130.194664
0
LINE
8
Layer 1
10
138.314763
20
130.194664
11
140.921596
21
130.012924
0
LINE
8
Layer 1
10
140.921596
20
130.012924
11
143.670292
21
130.273144
0
LINE
8
Layer 1
10
143.670292
20
130.273144
11
147.880138
21
130.894868
0
LINE
8
Layer 1
10
147.880138
20
130.894868
11
150.917145
21
131.344508
0
LINE
8
Layer 1
10
150.917145
20
131.344508
11
153.458244
21
131.572003
0
LINE
8
Layer 1
10
153.458244
20
131.572003
11
155.590933
21
131.555524
0
LINE
8
Layer 1
10
155.590933
20
131.555524
11
157.402710
21
131.273245
0
LINE
8
Layer 1
10
157.402710
20
131.273245
11
158.981076
21
130.703339
0
LINE
8
Layer 1
10
158.981076
20
130.703339
11
160.413529
21
129.823980
0
LINE
8
Layer 1
10
160.413529
20
129.823980
11
161.787569
21
128.613339
0
LINE
8
Layer 1
10
161.787569
20
128.613339
11
163.190693
21
127.049591
0
LINE
8
Layer 1
10
163.190693
20
127.049591
11
164.783311
21
124.891390
0
LINE
8
Layer 1
10
164.783311
20
124.891390
11
166.339489
21
122.261795
0
LINE
8
Layer 1
10
166.339489
20
122.261795
11
167.970505
21
118.956932
0
LINE
8
Layer 1
10
167.970505
20
118.956932
11
169.787638
21
114.772924
0
LINE
8
Layer 1
10
169.787638
20
114.772924
11
171.992906
21
109.631977
0
LINE
8
Layer 1
10
171.992906
20
109.631977
11
173.761865
21
106.007735
0
LINE
8
Layer 1
10
173.761865
20
106.007735
11
175.420047
21
103.297841
0
LINE
8
Layer 1
10
175.420047
20
103.297841
11
177.292985
21
100.899938
0
LINE
8
Layer 1
10
177.292985
20
100.899938
11
178.668818
21
99.303618
0
LINE
8
Layer 1
10
178.668818
20
99.303618
11
177.892707
21
99.012577
0
LINE
8
Layer 1
10
177.892707
20
99.012577
11
176.455735
21
98.758278
0
LINE
8
Layer 1
10
176.455735
20
98.758278
11
174.388262
21
98.724964
0
LINE
8
Layer 1
10
174.388262
20
98.724964
11
172.029105
21
98.901603
0
LINE
8
Layer 1
10
172.029105
20
98.901603
11
169.717082
21
99.277160
0
LINE
8
Layer 1
10
169.717082
20
99.277160
11
164.921070
21
100.612494
0
LINE
8
Layer 1
10
164.921070
20
100.612494
11
159.230922
21
102.654489
0
LINE
8
Layer 1
10
159.230922
20
102.654489
11
153.331233
21
105.135511
0
LINE
8
Layer 1
10
153.331233
20
105.135511
11
147.906596
21
107.787924
0
LINE
8
Layer 1
10
147.906596
20
107.787924
11
142.283709
21
110.927188
0
LINE
8
Layer 1
10
142.283709
20
110.927188
11
137.162827
21
114.063718
0
LINE
8
Layer 1
10
137.162827
20
114.063718
11
132.576500
21
117.171229
0
LINE
8
Layer 1
10
132.576500
20
117.171229
11
128.557278
21
120.223434
0
LINE
8
Layer 1
10
128.557278
20
120.223434
11
125.137710
21
123.194048
0
LINE
8
Layer 1
10
125.137710
20
123.194048
11
122.350346
21
126.056784
0
LINE
8
Layer 1
10
122.350346
20
126.056784
11
120.227736
21
128.785356
0
LINE
8
Layer 1
10
120.227736
20
128.785356
11
118.802429
21
131.353479
0
LINE
8
Layer 1
10
118.802429
20
131.353479
11
118.416708
21
132.617700
0
LINE
8
Layer 1
10
118.416708
20
132.617700
11
118.213112
21
134.017455
0
LINE
8
Layer 1
10
118.213112
20
134.017455
11
118.215980
21
135.233955
0
LINE
8
Layer 1
10
118.215980
20
135.233955
11
118.449652
21
135.948410
0
LINE
8
Layer 1
10
118.449652
20
135.948410
11
119.040554
21
136.098341
0
LINE
8
Layer 1
10
119.040554
20
136.098341
11
119.040554
21
136.098341
0
LINE
8
Layer 1
10
33.165624
20
134.651952
11
38.399024
21
134.548638
0
LINE
8
Layer 1
10
38.399024
20
134.548638
11
42.692402
21
134.215060
0
LINE
8
Layer 1
10
42.692402
20
134.215060
11
46.151453
21
133.639112
0
LINE
8
Layer 1
10
46.151453
20
133.639112
11
48.881874
21
132.808688
0
LINE
8
Layer 1
10
48.881874
20
132.808688
11
49.631527
21
132.508827
0
LINE
8
Layer 1
10
49.631527
20
132.508827
11
47.673610
21
130.656743
0
LINE
8
Layer 1
10
47.673610
20
130.656743
11
45.713411
21
128.484851
0
LINE
8
Layer 1
10
45.713411
20
128.484851
11
43.748957
21
125.638479
0
LINE
8
Layer 1
10
43.748957
20
125.638479
11
42.429691
21
123.645801
0
LINE
8
Layer 1
10
42.429691
20
123.645801
11
41.278861
21
122.232353
0
LINE
8
Layer 1
10
41.278861
20
122.232353
11
40.185684
21
121.280631
0
LINE
8
Layer 1
10
40.185684
20
121.280631
11
39.039374
21
120.673132
0
LINE
8
Layer 1
10
39.039374
20
120.673132
11
36.534873
21
120.203389
0
LINE
8
Layer 1
10
36.534873
20
120.203389
11
31.514433
21
119.475307
0
LINE
8
Layer 1
10
31.514433
20
119.475307
11
20.888956
21
118.194868
0
LINE
8
Layer 1
10
20.888956
20
118.194868
11
14.286701
21
117.817823
0
LINE
8
Layer 1
10
14.286701
20
117.817823
11
11.735672
21
117.878346
0
LINE
8
Layer 1
10
11.735672
20
117.878346
11
9.647255
21
118.111425
0
LINE
8
Layer 1
10
9.647255
20
118.111425
11
7.993360
21
118.521953
0
LINE
8
Layer 1
10
7.993360
20
118.521953
11
6.745899
21
119.114822
0
LINE
8
Layer 1
10
6.745899
20
119.114822
11
5.876780
21
119.894927
0
LINE
8
Layer 1
10
5.876780
20
119.894927
11
5.357914
21
120.867160
0
LINE
8
Layer 1
10
5.357914
20
120.867160
11
5.154967
21
121.964468
0
LINE
8
Layer 1
10
5.154967
20
121.964468
11
5.216210
21
123.160720
0
LINE
8
Layer 1
10
5.216210
20
123.160720
11
5.522169
21
124.416940
0
LINE
8
Layer 1
10
5.522169
20
124.416940
11
6.053366
21
125.694153
0
LINE
8
Layer 1
10
6.053366
20
125.694153
11
6.790328
21
126.953382
0
LINE
8
Layer 1
10
6.790328
20
126.953382
11
7.713578
21
128.155652
0
LINE
8
Layer 1
10
7.713578
20
128.155652
11
8.803640
21
129.261987
0
LINE
8
Layer 1
10
8.803640
20
129.261987
11
10.041039
21
130.233410
0
LINE
8
Layer 1
10
10.041039
20
130.233410
11
11.344186
21
130.942419
0
LINE
8
Layer 1
10
11.344186
20
130.942419
11
13.200503
21
131.720585
0
LINE
8
Layer 1
10
13.200503
20
131.720585
11
17.502289
21
133.073271
0
LINE
8
Layer 1
10
17.502289
20
133.073271
11
21.005607
21
133.809522
0
LINE
8
Layer 1
10
21.005607
20
133.809522
11
24.560706
21
134.295475
0
LINE
8
Layer 1
10
24.560706
20
134.295475
11
28.502430
21
134.564996
0
LINE
8
Layer 1
10
28.502430
20
134.564996
11
33.165624
21
134.651952
0
LINE
8
Layer 1
10
33.165624
20
134.651952
11
33.165624
21
134.651952
0
LINE
8
Layer 1
10
176.834374
20
134.651952
11
181.497569
21
134.564996
0
LINE
8
Layer 1
10
181.497569
20
134.564996
11
185.439295
21
134.295475
0
LINE
8
Layer 1
10
185.439295
20
134.295475
11
188.994394
21
133.809522
0
LINE
8
Layer 1
10
188.994394
20
133.809522
11
192.497707
21
133.073271
0
LINE
8
Layer 1
10
192.497707
20
133.073271
11
196.799498
21
131.720585
0
LINE
8
Layer 1
10
196.799498
20
131.720585
11
198.655814
21
130.942419
0
LINE
8
Layer 1
10
198.655814
20
130.942419
11
199.958957
21
130.233410
0
LINE
8
Layer 1
10
199.958957
20
130.233410
11
201.196357
21
129.261987
0
LINE
8
Layer 1
10
201.196357
20
129.261987
11
202.286420
21
128.155652
0
LINE
8
Layer 1
10
202.286420
20
128.155652
11
203.209671
21
126.953382
0
LINE
8
Layer 1
10
203.209671
20
126.953382
11
203.946633
21
125.694153
0
LINE
8
Layer 1
10
203.946633
20
125.694153
11
204.477832
21
124.416940
0
LINE
8
Layer 1
10
204.477832
20
124.416940
11
204.783790
21
123.160720
0
LINE
8
Layer 1
10
204.783790
20
123.160720
11
204.845032
21
121.964468
0
LINE
8
Layer 1
10
204.845032
20
121.964468
11
204.642082
21
120.867160
0
LINE
8
Layer 1
10
204.642082
20
120.867160
11
204.123217
21
119.894927
0
LINE
8
Layer 1
10
204.123217
20
119.894927
11
203.254099
21
119.114822
0
LINE
8
Layer 1
10
203.254099
20
119.114822
11
202.006638
21
118.521953
0
LINE
8
Layer 1
10
202.006638
20
118.521953
11
200.352745
21
118.111425
0
LINE
8
Layer 1
10
200.352745
20
118.111425
11
198.264329
21
117.878346
0
LINE
8
Layer 1
10
198.264329
20
117.878346
11
195.713299
21
117.817823
0
LINE
8
Layer 1
10
195.713299
20
117.817823
11
189.111041
21
118.194868
0
LINE
8
Layer 1
10
189.111041
20
118.194868
11
178.485568
21
119.475307
0
LINE
8
Layer 1
10
178.485568
20
119.475307
11
173.465128
21
120.203389
0
LINE
8
Layer 1
10
173.465128
20
120.203389
11
170.960624
21
120.673132
0
LINE
8
Layer 1
10
170.960624
20
120.673132
11
169.814315
21
121.280631
0
LINE
8
Layer 1
10
169.814315
20
121.280631
11
168.721140
21
122.232353
0
LINE
8
Layer 1
10
168.721140
20
122.232353
11
167.570310
21
123.645801
0
LINE
8
Layer 1
10
167.570310
20
123.645801
11
166.251041
21
125.638479
0
LINE
8
Layer 1
10
166.251041
20
125.638479
11
164.286590
21
128.484851
0
LINE
8
Layer 1
10
164.286590
20
128.484851
11
162.326388
21
130.656743
0
LINE
8
Layer 1
10
162.326388
20
130.656743
11
160.368471
21
132.508827
0
LINE
8
Layer 1
10
160.368471
20
132.508827
11
161.118124
21
132.808688
0
LINE
8
Layer 1
10
161.118124
20
132.808688
11
163.848546
21
133.639112
0
LINE
8
Layer 1
10
163.848546
20
133.639112
11
167.307599
21
134.215060
0
LINE
8
Layer 1
10
167.307599
20
134.215060
11
171.600977
21
134.548638
0
LINE
8
Layer 1
10
171.600977
20
134.548638
11
176.834374
21
134.651952
0
LINE
8
Layer 1
10
176.834374
20
134.651952
11
176.834374
21
134.651952
0
LINE
8
Layer 1
10
95.704304
20
130.859591
11
95.987829
21
130.401939
0
LINE
8
Layer 1
10
95.987829
20
130.401939
11
96.141454
21
129.232022
0
LINE
8
Layer 1
10
96.141454
20
129.232022
11
96.147059
21
127.654396
0
LINE
8
Layer 1
10
96.147059
20
127.654396
11
95.986527
21
125.973618
0
LINE
8
Layer 1
10
95.986527
20
125.973618
11
95.528057
21
123.718408
0
LINE
8
Layer 1
10
95.528057
20
123.718408
11
94.811344
21
121.252318
0
LINE
8
Layer 1
10
94.811344
20
121.252318
11
93.837448
21
118.577424
0
LINE
8
Layer 1
10
93.837448
20
118.577424
11
92.607434
21
115.695800
0
LINE
8
Layer 1
10
92.607434
20
115.695800
11
89.383297
21
109.320656
0
LINE
8
Layer 1
10
89.383297
20
109.320656
11
85.147429
21
102.143479
0
LINE
8
Layer 1
10
85.147429
20
102.143479
11
71.821245
21
81.108156
0
LINE
8
Layer 1
10
71.821245
20
81.108156
11
66.932075
21
73.669216
0
LINE
8
Layer 1
10
66.932075
20
73.669216
11
63.003505
21
67.971751
0
LINE
8
Layer 1
10
63.003505
20
67.971751
11
59.869023
21
63.782511
0
LINE
8
Layer 1
10
59.869023
20
63.782511
11
57.362119
21
60.868242
0
LINE
8
Layer 1
10
57.362119
20
60.868242
11
55.316282
21
58.995691
0
LINE
8
Layer 1
10
55.316282
20
58.995691
11
53.564999
21
57.931604
0
LINE
8
Layer 1
10
53.564999
20
57.931604
11
51.770649
21
57.307136
0
LINE
8
Layer 1
10
51.770649
20
57.307136
11
50.150946
21
57.104339
0
LINE
8
Layer 1
10
50.150946
20
57.104339
11
48.714710
21
57.323994
0
LINE
8
Layer 1
10
48.714710
20
57.323994
11
47.470763
21
57.966882
0
LINE
8
Layer 1
10
47.470763
20
57.966882
11
46.364781
21
59.084006
0
LINE
8
Layer 1
10
46.364781
20
59.084006
11
45.653259
21
60.497524
0
LINE
8
Layer 1
10
45.653259
20
60.497524
11
45.337597
21
62.218566
0
LINE
8
Layer 1
10
45.337597
20
62.218566
11
45.419194
21
64.258264
0
LINE
8
Layer 1
10
45.419194
20
64.258264
11
45.899451
21
66.627751
0
LINE
8
Layer 1
10
45.899451
20
66.627751
11
46.779768
21
69.338158
0
LINE
8
Layer 1
10
46.779768
20
69.338158
11
48.061544
21
72.400616
0
LINE
8
Layer 1
10
48.061544
20
72.400616
11
49.746179
21
75.826257
0
LINE
8
Layer 1
10
49.746179
20
75.826257
11
54.080301
21
84.265838
0
LINE
8
Layer 1
10
54.080301
20
84.265838
11
57.002657
21
90.389406
0
LINE
8
Layer 1
10
57.002657
20
90.389406
11
58.966861
21
95.213188
0
LINE
8
Layer 1
10
58.966861
20
95.213188
11
60.426527
21
99.753410
0
LINE
8
Layer 1
10
60.426527
20
99.753410
11
61.212626
21
102.060460
0
LINE
8
Layer 1
10
61.212626
20
102.060460
11
61.711018
21
102.946501
0
LINE
8
Layer 1
10
61.711018
20
102.946501
11
62.391458
21
103.769140
0
LINE
8
Layer 1
10
62.391458
20
103.769140
11
64.633935
21
105.568983
0
LINE
8
Layer 1
10
64.633935
20
105.568983
11
68.610971
21
108.149521
0
LINE
8
Layer 1
10
68.610971
20
108.149521
11
76.853986
21
113.632282
0
LINE
8
Layer 1
10
76.853986
20
113.632282
11
83.542291
21
118.679938
0
LINE
8
Layer 1
10
83.542291
20
118.679938
11
86.355408
21
121.129483
0
LINE
8
Layer 1
10
86.355408
20
121.129483
11
89.354700
21
123.979946
0
LINE
8
Layer 1
10
89.354700
20
123.979946
11
92.087005
21
126.784345
0
LINE
8
Layer 1
10
92.087005
20
126.784345
11
94.099166
21
129.095702
0
LINE
8
Layer 1
10
94.099166
20
129.095702
11
95.704304
21
130.859591
0
LINE
8
Layer 1
10
95.704304
20
130.859591
11
95.704304
21
130.859591
0
LINE
8
Layer 1
10
114.295693
20
130.859591
11
115.900832
21
129.095702
0
LINE
8
Layer 1
10
115.900832
20
129.095702
11
117.912992
21
126.784345
0
LINE
8
Layer 1
10
117.912992
20
126.784345
11
120.645298
21
123.979946
0
LINE
8
Layer 1
10
120.645298
20
123.979946
11
123.644590
21
121.129483
0
LINE
8
Layer 1
10
123.644590
20
121.129483
11
126.457707
21
118.679938
0
LINE
8
Layer 1
10
126.457707
20
118.679938
11
133.146012
21
113.632282
0
LINE
8
Layer 1
10
133.146012
20
113.632282
11
141.389027
21
108.149521
0
LINE
8
Layer 1
10
141.389027
20
108.149521
11
145.366064
21
105.568983
0
LINE
8
Layer 1
10
145.366064
20
105.568983
11
147.608543
21
103.769140
0
LINE
8
Layer 1
10
147.608543
20
103.769140
11
148.288983
21
102.946501
0
LINE
8
Layer 1
10
148.288983
20
102.946501
11
148.787375
21
102.060460
0
LINE
8
Layer 1
10
148.787375
20
102.060460
11
149.573471
21
99.753410
0
LINE
8
Layer 1
10
149.573471
20
99.753410
11
151.033138
21
95.213188
0
LINE
8
Layer 1
10
151.033138
20
95.213188
11
152.997344
21
90.389406
0
LINE
8
Layer 1
10
152.997344
20
90.389406
11
155.919700
21
84.265838
0
LINE
8
Layer 1
10
155.919700
20
84.265838
11
160.253818
21
75.826257
0
LINE
8
Layer 1
10
160.253818
20
75.826257
11
161.938454
21
72.400616
0
LINE
8
Layer 1
10
161.938454
20
72.400616
11
163.220231
21
69.338158
0
LINE
8
Layer 1
10
163.220231
20
69.338158
11
164.100549
21
66.627751
0
LINE
8
Layer 1
10
164.100549
20
66.627751
11
164.580807
21
64.258264
0
LINE
8
Layer 1
10
164.580807
20
64.258264
11
164.662405
21
62.218566
0
LINE
8
Layer 1
10
164.662405
20
62.218566
11
164.346742
21
60.497524
0
LINE
8
Layer 1
10
164.346742
20
60.497524
11
163.635219
21
59.084006
0
LINE
8
Layer 1
10
163.635219
20
59.084006
11
162.529235
21
57.966882
0
LINE
8
Layer 1
10
162.529235
20
57.966882
11
161.285289
21
57.323994
0
LINE
8
Layer 1
10
161.285289
20
57.323994
11
159.849055
21
57.104339
0
LINE
8
Layer 1
10
159.849055
20
57.104339
11
158.229352
21
57.307136
0
LINE
8
Layer 1
10
158.229352
20
57.307136
11
156.434999
21
57.931604
0
LINE
8
Layer 1
10
156.434999
20
57.931604
11
154.683716
21
58.995691
0
LINE
8
Layer 1
10
154.683716
20
58.995691
11
152.637878
21
60.868242
0
LINE
8
Layer 1
10
152.637878
20
60.868242
11
150.130974
21
63.782511
0
LINE
8
Layer 1
10
150.130974
20
63.782511
11
146.996493
21
67.971751
0
LINE
8
Layer 1
10
146.996493
20
67.971751
11
143.067923
21
73.669216
0
LINE
8
Layer 1
10
143.067923
20
73.669216
11
138.178753
21
81.108156
0
LINE
8
Layer 1
10
138.178753
20
81.108156
11
124.852568
21
102.143479
0
LINE
8
Layer 1
10
124.852568
20
102.143479
11
120.616701
21
109.320656
0
LINE
8
Layer 1
10
120.616701
20
109.320656
11
117.392564
21
115.695800
0
LINE
8
Layer 1
10
117.392564
20
115.695800
11
116.162549
21
118.577424
0
LINE
8
Layer 1
10
116.162549
20
118.577424
11
115.188654
21
121.252318
0
LINE
8
Layer 1
10
115.188654
20
121.252318
11
114.471941
21
123.718408
0
LINE
8
Layer 1
10
114.471941
20
123.718408
11
114.013471
21
125.973618
0
LINE
8
Layer 1
10
114.013471
20
125.973618
11
113.852938
21
127.654396
0
LINE
8
Layer 1
10
113.852938
20
127.654396
11
113.858544
21
129.232022
0
LINE
8
Layer 1
10
113.858544
20
129.232022
11
114.012169
21
130.401939
0
LINE
8
Layer 1
10
114.012169
20
130.401939
11
114.295693
21
130.859591
0
LINE
8
Layer 1
10
114.295693
20
130.859591
11
114.295693
21
130.859591
0
LINE
8
Layer 1
10
99.673054
20
126.908479
11
99.850444
21
126.762938
0
LINE
8
Layer 1
10
99.850444
20
126.762938
11
100.021465
21
126.351055
0
LINE
8
Layer 1
10
100.021465
20
126.351055
11
100.322549
21
124.880461
0
LINE
8
Layer 1
10
100.322549
20
124.880461
11
100.532601
21
122.801099
0
LINE
8
Layer 1
10
100.532601
20
122.801099
11
100.607916
21
120.417368
0
LINE
8
Layer 1
10
100.607916
20
120.417368
11
100.314225
21
116.239291
0
LINE
8
Layer 1
10
100.314225
20
116.239291
11
99.416993
21
111.782162
0
LINE
8
Layer 1
10
99.416993
20
111.782162
11
97.858452
21
106.822809
0
LINE
8
Layer 1
10
97.858452
20
106.822809
11
95.580832
21
101.138063
0
LINE
8
Layer 1
10
95.580832
20
101.138063
11
93.029262
21
95.803734
0
LINE
8
Layer 1
10
93.029262
20
95.803734
11
89.157053
21
88.122482
0
LINE
8
Layer 1
10
89.157053
20
88.122482
11
85.654668
21
81.397180
0
LINE
8
Layer 1
10
85.654668
20
81.397180
11
84.570429
21
79.425159
0
LINE
8
Layer 1
10
84.570429
20
79.425159
11
84.287494
21
78.967431
0
LINE
8
Layer 1
10
84.287494
20
78.967431
11
84.212568
21
78.930702
0
LINE
8
Layer 1
10
84.212568
20
78.930702
11
84.799386
21
83.114725
0
LINE
8
Layer 1
10
84.799386
20
83.114725
11
85.367916
21
89.672785
0
LINE
8
Layer 1
10
85.367916
20
89.672785
11
85.973735
21
96.337231
0
LINE
8
Layer 1
10
85.973735
20
96.337231
11
86.369495
21
98.808129
0
LINE
8
Layer 1
10
86.369495
20
98.808129
11
86.904998
21
100.962627
0
LINE
8
Layer 1
10
86.904998
20
100.962627
11
87.638625
21
102.994084
0
LINE
8
Layer 1
10
87.638625
20
102.994084
11
88.628761
21
105.095862
0
LINE
8
Layer 1
10
88.628761
20
105.095862
11
91.612082
21
110.283827
0
LINE
8
Layer 1
10
91.612082
20
110.283827
11
93.872916
21
114.184298
0
LINE
8
Layer 1
10
93.872916
20
114.184298
11
95.833474
21
117.896552
0
LINE
8
Layer 1
10
95.833474
20
117.896552
11
97.418562
21
121.270690
0
LINE
8
Layer 1
10
97.418562
20
121.270690
11
98.552985
21
124.156813
0
LINE
8
Layer 1
10
98.552985
20
124.156813
11
99.673054
21
126.908479
0
LINE
8
Layer 1
10
99.673054
20
126.908479
11
99.673054
21
126.908479
0
LINE
8
Layer 1
10
110.326943
20
126.908479
11
111.447013
21
124.156813
0
LINE
8
Layer 1
10
111.447013
20
124.156813
11
112.581436
21
121.270690
0
LINE
8
Layer 1
10
112.581436
20
121.270690
11
114.166524
21
117.896552
0
LINE
8
Layer 1
10
114.166524
20
117.896552
11
116.127082
21
114.184298
0
LINE
8
Layer 1
10
116.127082
20
114.184298
11
118.387916
21
110.283827
0
LINE
8
Layer 1
10
118.387916
20
110.283827
11
121.371237
21
105.095862
0
LINE
8
Layer 1
10
121.371237
20
105.095862
11
122.361372
21
102.994084
0
LINE
8
Layer 1
10
122.361372
20
102.994084
11
123.095000
21
100.962627
0
LINE
8
Layer 1
10
123.095000
20
100.962627
11
123.630503
21
98.808129
0
LINE
8
Layer 1
10
123.630503
20
98.808129
11
124.026263
21
96.337231
0
LINE
8
Layer 1
10
124.026263
20
96.337231
11
124.632082
21
89.672785
0
LINE
8
Layer 1
10
124.632082
20
89.672785
11
125.200612
21
83.114725
0
LINE
8
Layer 1
10
125.200612
20
83.114725
11
125.787429
21
78.930702
0
LINE
8
Layer 1
10
125.787429
20
78.930702
11
125.712503
21
78.967431
0
LINE
8
Layer 1
10
125.712503
20
78.967431
11
125.429569
21
79.425159
0
LINE
8
Layer 1
10
125.429569
20
79.425159
11
124.345330
21
81.397180
0
LINE
8
Layer 1
10
124.345330
20
81.397180
11
120.842944
21
88.122482
0
LINE
8
Layer 1
10
120.842944
20
88.122482
11
116.970736
21
95.803734
0
LINE
8
Layer 1
10
116.970736
20
95.803734
11
114.419166
21
101.138063
0
LINE
8
Layer 1
10
114.419166
20
101.138063
11
112.141546
21
106.822809
0
LINE
8
Layer 1
10
112.141546
20
106.822809
11
110.583005
21
111.782162
0
LINE
8
Layer 1
10
110.583005
20
111.782162
11
109.685773
21
116.239291
0
LINE
8
Layer 1
10
109.685773
20
116.239291
11
109.392082
21
120.417368
0
LINE
8
Layer 1
10
109.392082
20
120.417368
11
109.467397
21
122.801099
0
LINE
8
Layer 1
10
109.467397
20
122.801099
11
109.677449
21
124.880461
0
LINE
8
Layer 1
10
109.677449
20
124.880461
11
109.978533
21
126.351055
0
LINE
8
Layer 1
10
109.978533
20
126.351055
11
110.149554
21
126.762938
0
LINE
8
Layer 1
10
110.149554
20
126.762938
11
110.326943
21
126.908479
0
LINE
8
Layer 1
10
110.326943
20
126.908479
11
110.326943
21
126.908479
0
LINE
8
Layer 1
10
-4.378752
20
126.141188
11
-3.505627
21
125.938341
0
LINE
8
Layer 1
10
-3.505627
20
125.938341
11
-2.688316
21
125.507353
0
LINE
8
Layer 1
10
-2.688316
20
125.507353
11
-2.123059
21
125.000367
0
LINE
8
Layer 1
10
-2.123059
20
125.000367
11
-1.794886
21
124.400128
0
LINE
8
Layer 1
10
-1.794886
20
124.400128
11
-1.688822
21
123.689382
0
LINE
8
Layer 1
10
-1.688822
20
123.689382
11
-1.799144
21
122.990577
0
LINE
8
Layer 1
10
-1.799144
20
122.990577
11
-2.114553
21
122.227443
0
LINE
8
Layer 1
10
-2.114553
20
122.227443
11
-3.267284
21
120.612197
0
LINE
8
Layer 1
10
-3.267284
20
120.612197
11
-4.960314
21
119.051672
0
LINE
8
Layer 1
10
-4.960314
20
119.051672
11
-7.006947
21
117.753896
0
LINE
8
Layer 1
10
-7.006947
20
117.753896
11
-9.124492
21
116.867812
0
LINE
8
Layer 1
10
-9.124492
20
116.867812
11
-9.899252
21
116.665095
0
LINE
8
Layer 1
10
-9.899252
20
116.665095
11
-10.261322
21
116.695563
0
LINE
8
Layer 1
10
-10.261322
20
116.695563
11
-10.285099
21
117.400358
0
LINE
8
Layer 1
10
-10.285099
20
117.400358
11
-10.080015
21
118.690460
0
LINE
8
Layer 1
10
-10.080015
20
118.690460
11
-9.317641
21
121.378688
0
LINE
8
Layer 1
10
-9.317641
20
121.378688
11
-8.607061
21
122.629696
0
LINE
8
Layer 1
10
-8.607061
20
122.629696
11
-7.596555
21
123.906194
0
LINE
8
Layer 1
10
-7.596555
20
123.906194
11
-6.456609
21
125.019164
0
LINE
8
Layer 1
10
-6.456609
20
125.019164
11
-5.357711
21
125.779591
0
LINE
8
Layer 1
10
-5.357711
20
125.779591
11
-4.378752
21
126.141188
0
LINE
8
Layer 1
10
-4.378752
20
126.141188
11
-4.378752
21
126.141188
0
LINE
8
Layer 1
10
214.175902
20
126.141188
11
214.378749
21
126.141188
0
LINE
8
Layer 1
10
214.378749
20
126.141188
11
215.357707
21
125.779591
0
LINE
8
Layer 1
10
215.357707
20
125.779591
11
216.456607
21
125.019164
0
LINE
8
Layer 1
10
216.456607
20
125.019164
11
217.596555
21
123.906194
0
LINE
8
Layer 1
10
217.596555
20
123.906194
11
218.607061
21
122.629696
0
LINE
8
Layer 1
10
218.607061
20
122.629696
11
219.317638
21
121.378688
0
LINE
8
Layer 1
10
219.317638
20
121.378688
11
220.080015
21
118.690460
0
LINE
8
Layer 1
10
220.080015
20
118.690460
11
220.285100
21
117.400358
0
LINE
8
Layer 1
10
220.285100
20
117.400358
11
220.261318
21
116.695563
0
LINE
8
Layer 1
10
220.261318
20
116.695563
11
219.899250
21
116.665095
0
LINE
8
Layer 1
10
219.899250
20
116.665095
11
219.124492
21
116.867812
0
LINE
8
Layer 1
10
219.124492
20
116.867812
11
217.006943
21
117.753896
0
LINE
8
Layer 1
10
217.006943
20
117.753896
11
214.960312
21
119.051672
0
LINE
8
Layer 1
10
214.960312
20
119.051672
11
213.267283
21
120.612197
0
LINE
8
Layer 1
10
213.267283
20
120.612197
11
212.114554
21
122.227443
0
LINE
8
Layer 1
10
212.114554
20
122.227443
11
211.799143
21
122.990577
0
LINE
8
Layer 1
10
211.799143
20
122.990577
11
211.688818
21
123.689382
0
LINE
8
Layer 1
10
211.688818
20
123.689382
11
211.794883
21
124.400128
0
LINE
8
Layer 1
10
211.794883
20
124.400128
11
212.123059
21
125.000367
0
LINE
8
Layer 1
10
212.123059
20
125.000367
11
212.688316
21
125.507353
0
LINE
8
Layer 1
10
212.688316
20
125.507353
11
213.505624
21
125.938341
0
LINE
8
Layer 1
10
213.505624
20
125.938341
11
214.175902
21
126.141188
0
LINE
8
Layer 1
10
214.175902
20
126.141188
11
214.175902
21
126.141188
0
LINE
8
Layer 1
10
37.284304
20
118.662299
11
37.939573
21
118.507032
0
LINE
8
Layer 1
10
37.939573
20
118.507032
11
38.569332
21
118.067747
0
LINE
8
Layer 1
10
38.569332
20
118.067747
11
39.041647
21
117.460512
0
LINE
8
Layer 1
10
39.041647
20
117.460512
11
39.224582
21
116.801396
0
LINE
8
Layer 1
10
39.224582
20
116.801396
11
38.989707
21
115.699886
0
LINE
8
Layer 1
10
38.989707
20
115.699886
11
38.360747
21
114.107129
0
LINE
8
Layer 1
10
38.360747
20
114.107129
11
36.289221
21
110.092183
0
LINE
8
Layer 1
10
36.289221
20
110.092183
11
33.747302
21
106.045177
0
LINE
8
Layer 1
10
33.747302
20
106.045177
11
32.530352
21
104.412345
0
LINE
8
Layer 1
10
32.530352
20
104.412345
11
31.472291
21
103.254729
0
LINE
8
Layer 1
10
31.472291
20
103.254729
11
29.562623
21
101.681838
0
LINE
8
Layer 1
10
29.562623
20
101.681838
11
27.347433
21
100.154553
0
LINE
8
Layer 1
10
27.347433
20
100.154553
11
24.895103
21
98.705310
0
LINE
8
Layer 1
10
24.895103
20
98.705310
11
22.274018
21
97.366546
0
LINE
8
Layer 1
10
22.274018
20
97.366546
11
19.552560
21
96.170697
0
LINE
8
Layer 1
10
19.552560
20
96.170697
11
16.799114
21
95.150199
0
LINE
8
Layer 1
10
16.799114
20
95.150199
11
14.082063
21
94.337491
0
LINE
8
Layer 1
10
14.082063
20
94.337491
11
11.469789
21
93.765007
0
LINE
8
Layer 1
10
11.469789
20
93.765007
11
9.425030
21
93.466890
0
LINE
8
Layer 1
10
9.425030
20
93.466890
11
7.752298
21
93.370201
0
LINE
8
Layer 1
10
7.752298
20
93.370201
11
6.271437
21
93.475324
0
LINE
8
Layer 1
10
6.271437
20
93.475324
11
4.802289
21
93.782646
0
LINE
8
Layer 1
10
4.802289
20
93.782646
11
3.354784
21
94.293305
0
LINE
8
Layer 1
10
3.354784
20
94.293305
11
2.167667
21
94.992278
0
LINE
8
Layer 1
10
2.167667
20
94.992278
11
1.197637
21
95.911053
0
LINE
8
Layer 1
10
1.197637
20
95.911053
11
0.401387
21
97.081118
0
LINE
8
Layer 1
10
0.401387
20
97.081118
11
-0.269787
21
98.668303
0
LINE
8
Layer 1
10
-0.269787
20
98.668303
11
-0.418822
21
100.679452
0
LINE
8
Layer 1
10
-0.418822
20
100.679452
11
-0.239889
21
102.823023
0
LINE
8
Layer 1
10
-0.239889
20
102.823023
11
0.665970
21
105.009799
0
LINE
8
Layer 1
10
0.665970
20
105.009799
11
1.502320
21
106.470188
0
LINE
8
Layer 1
10
1.502320
20
106.470188
11
2.544092
21
107.911748
0
LINE
8
Layer 1
10
2.544092
20
107.911748
11
3.752415
21
109.299685
0
LINE
8
Layer 1
10
3.752415
20
109.299685
11
5.088417
21
110.599208
0
LINE
8
Layer 1
10
5.088417
20
110.599208
11
6.513228
21
111.775523
0
LINE
8
Layer 1
10
6.513228
20
111.775523
11
7.987976
21
112.793838
0
LINE
8
Layer 1
10
7.987976
20
112.793838
11
9.473792
21
113.619361
0
LINE
8
Layer 1
10
9.473792
20
113.619361
11
10.931803
21
114.217299
0
LINE
8
Layer 1
10
10.931803
20
114.217299
11
13.943041
21
114.812822
0
LINE
8
Layer 1
10
13.943041
20
114.812822
11
18.913400
21
115.487299
0
LINE
8
Layer 1
10
18.913400
20
115.487299
11
28.114484
21
116.704894
0
LINE
8
Layer 1
10
28.114484
20
116.704894
11
34.294513
21
117.921466
0
LINE
8
Layer 1
10
34.294513
20
117.921466
11
37.125554
21
118.635841
0
LINE
8
Layer 1
10
37.125554
20
118.635841
11
37.284304
21
118.662299
0
LINE
8
Layer 1
10
37.284304
20
118.662299
11
37.284304
21
118.662299
0
LINE
8
Layer 1
10
172.715693
20
118.662299
11
172.874443
21
118.635841
0
LINE
8
Layer 1
10
172.874443
20
118.635841
11
175.705485
21
117.921466
0
LINE
8
Layer 1
10
175.705485
20
117.921466
11
181.885516
21
116.704894
0
LINE
8
Layer 1
10
181.885516
20
116.704894
11
191.086596
21
115.487299
0
LINE
8
Layer 1
10
191.086596
20
115.487299
11
196.056959
21
114.812822
0
LINE
8
Layer 1
10
196.056959
20
114.812822
11
199.068193
21
114.217299
0
LINE
8
Layer 1
10
199.068193
20
114.217299
11
200.526205
21
113.619361
0
LINE
8
Layer 1
10
200.526205
20
113.619361
11
202.012021
21
112.793838
0
LINE
8
Layer 1
10
202.012021
20
112.793838
11
203.486771
21
111.775523
0
LINE
8
Layer 1
10
203.486771
20
111.775523
11
204.911583
21
110.599208
0
LINE
8
Layer 1
10
204.911583
20
110.599208
11
206.247586
21
109.299685
0
LINE
8
Layer 1
10
206.247586
20
109.299685
11
207.455908
21
107.911748
0
LINE
8
Layer 1
10
207.455908
20
107.911748
11
208.497679
21
106.470188
0
LINE
8
Layer 1
10
208.497679
20
106.470188
11
209.334027
21
105.009799
0
LINE
8
Layer 1
10
209.334027
20
105.009799
11
210.239889
21
102.823023
0
LINE
8
Layer 1
10
210.239889
20
102.823023
11
210.418818
21
100.679452
0
LINE
8
Layer 1
10
210.418818
20
100.679452
11
210.269787
21
98.668303
0
LINE
8
Layer 1
10
210.269787
20
98.668303
11
209.598610
21
97.081118
0
LINE
8
Layer 1
10
209.598610
20
97.081118
11
208.802361
21
95.911053
0
LINE
8
Layer 1
10
208.802361
20
95.911053
11
207.832332
21
94.992278
0
LINE
8
Layer 1
10
207.832332
20
94.992278
11
206.645217
21
94.293305
0
LINE
8
Layer 1
10
206.645217
20
94.293305
11
205.197707
21
93.782646
0
LINE
8
Layer 1
10
205.197707
20
93.782646
11
203.728560
21
93.475324
0
LINE
8
Layer 1
10
203.728560
20
93.475324
11
202.247701
21
93.370201
0
LINE
8
Layer 1
10
202.247701
20
93.370201
11
200.574970
21
93.466890
0
LINE
8
Layer 1
10
200.574970
20
93.466890
11
198.530207
21
93.765007
0
LINE
8
Layer 1
10
198.530207
20
93.765007
11
195.917934
21
94.337491
0
LINE
8
Layer 1
10
195.917934
20
94.337491
11
193.200884
21
95.150199
0
LINE
8
Layer 1
10
193.200884
20
95.150199
11
190.447438
21
96.170697
0
LINE
8
Layer 1
10
190.447438
20
96.170697
11
187.725982
21
97.366546
0
LINE
8
Layer 1
10
187.725982
20
97.366546
11
185.104897
21
98.705310
0
LINE
8
Layer 1
10
185.104897
20
98.705310
11
182.652568
21
100.154553
0
LINE
8
Layer 1
10
182.652568
20
100.154553
11
180.437377
21
101.681838
0
LINE
8
Layer 1
10
180.437377
20
101.681838
11
178.527707
21
103.254729
0
LINE
8
Layer 1
10
178.527707
20
103.254729
11
177.469646
21
104.412345
0
LINE
8
Layer 1
10
177.469646
20
104.412345
11
176.252697
21
106.045177
0
LINE
8
Layer 1
10
176.252697
20
106.045177
11
173.710780
21
110.092183
0
LINE
8
Layer 1
10
173.710780
20
110.092183
11
171.639255
21
114.107129
0
LINE
8
Layer 1
10
171.639255
20
114.107129
11
171.010293
21
115.699886
0
LINE
8
Layer 1
10
171.010293
20
115.699886
11
170.775416
21
116.801396
0
LINE
8
Layer 1
10
170.775416
20
116.801396
11
170.958351
21
117.460512
0
LINE
8
Layer 1
10
170.958351
20
117.460512
11
171.430668
21
118.067747
0
LINE
8
Layer 1
10
171.430668
20
118.067747
11
172.060428
21
118.507032
0
LINE
8
Layer 1
10
172.060428
20
118.507032
11
172.715693
21
118.662299
0
LINE
8
Layer 1
10
172.715693
20
118.662299
11
172.715693
21
118.662299
0
LINE
8
Layer 1
10
-4.572780
20
113.705771
11
-4.301319
21
113.659347
0
LINE
8
Layer 1
10
-4.301319
20
113.659347
11
-4.045187
21
113.412372
0
LINE
8
Layer 1
10
-4.045187
20
113.412372
11
-3.514447
21
112.312299
0
LINE
8
Layer 1
10
-3.514447
20
112.312299
11
-3.051581
21
110.861857
0
LINE
8
Layer 1
10
-3.051581
20
110.861857
11
-2.874211
21
109.665535
0
LINE
8
Layer 1
10
-2.874211
20
109.665535
11
-2.981682
21
108.696779
0
LINE
8
Layer 1
10
-2.981682
20
108.696779
11
-3.373336
21
107.929035
0
LINE
8
Layer 1
10
-3.373336
20
107.929035
11
-4.018115
21
107.377155
0
LINE
8
Layer 1
10
-4.018115
20
107.377155
11
-4.764261
21
107.160694
0
LINE
8
Layer 1
10
-4.764261
20
107.160694
11
-5.529319
21
107.284307
0
LINE
8
Layer 1
10
-5.529319
20
107.284307
11
-6.230836
21
107.752646
0
LINE
8
Layer 1
10
-6.230836
20
107.752646
11
-6.691299
21
108.642742
0
LINE
8
Layer 1
10
-6.691299
20
108.642742
11
-6.741467
21
109.858024
0
LINE
8
Layer 1
10
-6.741467
20
109.858024
11
-6.399618
21
111.231085
0
LINE
8
Layer 1
10
-6.399618
20
111.231085
11
-5.684030
21
112.594521
0
LINE
8
Layer 1
10
-5.684030
20
112.594521
11
-5.062682
21
113.385680
0
LINE
8
Layer 1
10
-5.062682
20
113.385680
11
-4.572780
21
113.705771
0
LINE
8
Layer 1
10
-4.572780
20
113.705771
11
-4.572780
21
113.705771
0
LINE
8
Layer 1
10
214.431666
20
113.705771
11
214.572777
21
113.705771
0
LINE
8
Layer 1
10
214.572777
20
113.705771
11
215.062683
21
113.385680
0
LINE
8
Layer 1
10
215.062683
20
113.385680
11
215.684027
21
112.594521
0
LINE
8
Layer 1
10
215.684027
20
112.594521
11
216.399616
21
111.231085
0
LINE
8
Layer 1
10
216.399616
20
111.231085
11
216.741467
21
109.858024
0
LINE
8
Layer 1
10
216.741467
20
109.858024
11
216.691299
21
108.642742
0
LINE
8
Layer 1
10
216.691299
20
108.642742
11
216.230832
21
107.752646
0
LINE
8
Layer 1
10
216.230832
20
107.752646
11
215.529317
21
107.284307
0
LINE
8
Layer 1
10
215.529317
20
107.284307
11
214.764261
21
107.160694
0
LINE
8
Layer 1
10
214.764261
20
107.160694
11
214.018115
21
107.377155
0
LINE
8
Layer 1
10
214.018115
20
107.377155
11
213.373332
21
107.929035
0
LINE
8
Layer 1
10
213.373332
20
107.929035
11
212.981679
21
108.696779
0
LINE
8
Layer 1
10
212.981679
20
108.696779
11
212.874211
21
109.665535
0
LINE
8
Layer 1
10
212.874211
20
109.665535
11
213.051581
21
110.861857
0
LINE
8
Layer 1
10
213.051581
20
110.861857
11
213.514443
21
112.312299
0
LINE
8
Layer 1
10
213.514443
20
112.312299
11
213.980431
21
113.318267
0
LINE
8
Layer 1
10
213.980431
20
113.318267
11
214.431666
21
113.705771
0
LINE
8
Layer 1
10
214.431666
20
113.705771
11
214.431666
21
113.705771
0
LINE
8
Layer 1
10
-12.069308
20
112.144729
11
-11.897049
21
112.089296
0
LINE
8
Layer 1
10
-11.897049
20
112.089296
11
-11.681252
21
111.827229
0
LINE
8
Layer 1
10
-11.681252
20
111.827229
11
-11.314215
21
111.009606
0
LINE
8
Layer 1
10
-11.314215
20
111.009606
11
-10.958058
21
109.763479
0
LINE
8
Layer 1
10
-10.958058
20
109.763479
11
-10.753648
21
108.370526
0
LINE
8
Layer 1
10
-10.753648
20
108.370526
11
-11.019794
21
107.496882
0
LINE
8
Layer 1
10
-11.019794
20
107.496882
11
-11.412448
21
106.932463
0
LINE
8
Layer 1
10
-11.412448
20
106.932463
11
-11.795154
21
106.695377
0
LINE
8
Layer 1
10
-11.795154
20
106.695377
11
-12.211308
21
106.777464
0
LINE
8
Layer 1
10
-12.211308
20
106.777464
11
-12.704308
21
107.170563
0
LINE
8
Layer 1
10
-12.704308
20
107.170563
11
-13.184191
21
107.946957
0
LINE
8
Layer 1
10
-13.184191
20
107.946957
11
-13.198197
21
109.278410
0
LINE
8
Layer 1
10
-13.198197
20
109.278410
11
-12.960633
21
110.563276
0
LINE
8
Layer 1
10
-12.960633
20
110.563276
11
-12.563197
21
111.553827
0
LINE
8
Layer 1
10
-12.563197
20
111.553827
11
-12.069308
21
112.144729
0
LINE
8
Layer 1
10
-12.069308
20
112.144729
11
-12.069308
21
112.144729
0
LINE
8
Layer 1
10
221.981110
20
112.144729
11
222.069304
21
112.144729
0
LINE
8
Layer 1
10
222.069304
20
112.144729
11
222.563193
21
111.553827
0
LINE
8
Layer 1
10
222.563193
20
111.553827
11
222.960633
21
110.563276
0
LINE
8
Layer 1
10
222.960633
20
110.563276
11
223.198193
21
109.278410
0
LINE
8
Layer 1
10
223.198193
20
109.278410
11
223.184191
21
107.946957
0
LINE
8
Layer 1
10
223.184191
20
107.946957
11
222.704304
21
107.170563
0
LINE
8
Layer 1
10
222.704304
20
107.170563
11
222.211306
21
106.777464
0
LINE
8
Layer 1
10
222.211306
20
106.777464
11
221.795153
21
106.695377
0
LINE
8
Layer 1
10
221.795153
20
106.695377
11
221.412448
21
106.932463
0
LINE
8
Layer 1
10
221.412448
20
106.932463
11
221.019791
21
107.496882
0
LINE
8
Layer 1
10
221.019791
20
107.496882
11
220.753648
21
108.370526
0
LINE
8
Layer 1
10
220.753648
20
108.370526
11
220.958054
21
109.763479
0
LINE
8
Layer 1
10
220.958054
20
109.763479
11
221.314215
21
111.009606
0
LINE
8
Layer 1
10
221.314215
20
111.009606
11
221.681249
21
111.827229
0
LINE
8
Layer 1
10
221.681249
20
111.827229
11
221.981110
21
112.144729
0
LINE
8
Layer 1
10
221.981110
20
112.144729
11
221.981110
21
112.144729
0
LINE
8
Layer 1
10
-4.396391
20
104.551188
11
-4.334655
21
104.533549
0
LINE
8
Layer 1
10
-4.334655
20
104.533549
11
-4.110363
21
103.798198
0
LINE
8
Layer 1
10
-4.110363
20
103.798198
11
-3.910567
21
102.412244
0
LINE
8
Layer 1
10
-3.910567
20
102.412244
11
-3.799342
21
100.960258
0
LINE
8
Layer 1
10
-3.799342
20
100.960258
11
-3.840766
21
100.026813
0
LINE
8
Layer 1
10
-3.840766
20
100.026813
11
-4.089443
21
99.652024
0
LINE
8
Layer 1
10
-4.089443
20
99.652024
11
-4.520174
21
99.568620
0
LINE
8
Layer 1
10
-4.520174
20
99.568620
11
-5.113909
21
99.773844
0
LINE
8
Layer 1
10
-5.113909
20
99.773844
11
-5.851600
21
100.264938
0
LINE
8
Layer 1
10
-5.851600
20
100.264938
11
-6.540011
21
100.984748
0
LINE
8
Layer 1
10
-6.540011
20
100.984748
11
-6.739439
21
101.724968
0
LINE
8
Layer 1
10
-6.739439
20
101.724968
11
-6.446440
21
102.559792
0
LINE
8
Layer 1
10
-6.446440
20
102.559792
11
-5.657572
21
103.563410
0
LINE
8
Layer 1
10
-5.657572
20
103.563410
11
-4.903551
21
104.267285
0
LINE
8
Layer 1
10
-4.903551
20
104.267285
11
-4.396391
21
104.551188
0
LINE
8
Layer 1
10
-4.396391
20
104.551188
11
-4.396391
21
104.551188
0
LINE
8
Layer 1
10
214.361110
20
104.551188
11
214.396388
21
104.551188
0
LINE
8
Layer 1
10
214.396388
20
104.551188
11
214.903551
21
104.267285
0
LINE
8
Layer 1
10
214.903551
20
104.267285
11
215.657568
21
103.563410
0
LINE
8
Layer 1
10
215.657568
20
103.563410
11
216.446437
21
102.559792
0
LINE
8
Layer 1
10
216.446437
20
102.559792
11
216.739439
21
101.724968
0
LINE
8
Layer 1
10
216.739439
20
101.724968
11
216.540012
21
100.984748
0
LINE
8
Layer 1
10
216.540012
20
100.984748
11
215.851596
21
100.264938
0
LINE
8
Layer 1
10
215.851596
20
100.264938
11
215.113907
21
99.773844
0
LINE
8
Layer 1
10
215.113907
20
99.773844
11
214.520174
21
99.568620
0
LINE
8
Layer 1
10
214.520174
20
99.568620
11
214.089443
21
99.652024
0
LINE
8
Layer 1
10
214.089443
20
99.652024
11
213.840763
21
100.026813
0
LINE
8
Layer 1
10
213.840763
20
100.026813
11
213.799340
21
100.960258
0
LINE
8
Layer 1
10
213.799340
20
100.960258
11
213.910567
21
102.412244
0
LINE
8
Layer 1
10
213.910567
20
102.412244
11
214.110363
21
103.798198
0
LINE
8
Layer 1
10
214.110363
20
103.798198
11
214.334652
21
104.533549
0
LINE
8
Layer 1
10
214.334652
20
104.533549
11
214.361110
21
104.551188
0
LINE
8
Layer 1
10
214.361110
20
104.551188
11
214.361110
21
104.551188
0
LINE
8
Layer 1
10
-12.483822
20
103.484035
11
-11.993602
21
103.253286
0
LINE
8
Layer 1
10
-11.993602
20
103.253286
11
-11.545200
21
102.696725
0
LINE
8
Layer 1
10
-11.545200
20
102.696725
11
-11.259633
21
102.017882
0
LINE
8
Layer 1
10
-11.259633
20
102.017882
11
-11.257919
21
101.420285
0
LINE
8
Layer 1
10
-11.257919
20
101.420285
11
-11.532839
21
100.966493
0
LINE
8
Layer 1
10
-11.532839
20
100.966493
11
-11.875280
21
100.741188
0
LINE
8
Layer 1
10
-11.875280
20
100.741188
11
-12.490433
21
100.815266
0
LINE
8
Layer 1
10
-12.490433
20
100.815266
11
-13.227837
21
101.109134
0
LINE
8
Layer 1
10
-13.227837
20
101.109134
11
-13.846793
21
101.501250
0
LINE
8
Layer 1
10
-13.846793
20
101.501250
11
-14.106600
21
101.870077
0
LINE
8
Layer 1
10
-14.106600
20
101.870077
11
-13.917175
21
102.314025
0
LINE
8
Layer 1
10
-13.917175
20
102.314025
11
-13.466237
21
102.847517
0
LINE
8
Layer 1
10
-13.466237
20
102.847517
11
-12.929786
21
103.295779
0
LINE
8
Layer 1
10
-12.929786
20
103.295779
11
-12.483822
21
103.484035
0
LINE
8
Layer 1
10
-12.483822
20
103.484035
11
-12.483822
21
103.484035
0
LINE
8
Layer 1
10
222.483818
20
103.484035
11
222.929784
21
103.295779
0
LINE
8
Layer 1
10
222.929784
20
103.295779
11
223.466237
21
102.847517
0
LINE
8
Layer 1
10
223.466237
20
102.847517
11
223.917176
21
102.314025
0
LINE
8
Layer 1
10
223.917176
20
102.314025
11
224.106596
21
101.870077
0
LINE
8
Layer 1
10
224.106596
20
101.870077
11
223.846791
21
101.501250
0
LINE
8
Layer 1
10
223.846791
20
101.501250
11
223.227838
21
101.109134
0
LINE
8
Layer 1
10
223.227838
20
101.109134
11
222.490434
21
100.815266
0
LINE
8
Layer 1
10
222.490434
20
100.815266
11
221.875277
21
100.741188
0
LINE
8
Layer 1
10
221.875277
20
100.741188
11
221.532839
21
100.966493
0
LINE
8
Layer 1
10
221.532839
20
100.966493
11
221.257916
21
101.420285
0
LINE
8
Layer 1
10
221.257916
20
101.420285
11
221.259631
21
102.017882
0
LINE
8
Layer 1
10
221.259631
20
102.017882
11
221.545200
21
102.696725
0
LINE
8
Layer 1
10
221.545200
20
102.696725
11
221.993602
21
103.253286
0
LINE
8
Layer 1
10
221.993602
20
103.253286
11
222.483818
21
103.484035
0
LINE
8
Layer 1
10
222.483818
20
103.484035
11
222.483818
21
103.484035
0
LINE
8
Layer 1
10
59.006596
20
102.187577
11
59.041874
21
102.187577
0
LINE
8
Layer 1
10
59.041874
20
102.187577
11
59.256635
21
101.614209
0
LINE
8
Layer 1
10
59.256635
20
101.614209
11
59.228662
21
100.456982
0
LINE
8
Layer 1
10
59.228662
20
100.456982
11
58.979412
21
98.923716
0
LINE
8
Layer 1
10
58.979412
20
98.923716
11
58.530346
21
97.222229
0
LINE
8
Layer 1
10
58.530346
20
97.222229
11
56.873638
21
92.791545
0
LINE
8
Layer 1
10
56.873638
20
92.791545
11
54.439581
21
87.422993
0
LINE
8
Layer 1
10
54.439581
20
87.422993
11
51.378615
21
81.428678
0
LINE
8
Layer 1
10
51.378615
20
81.428678
11
47.841179
21
75.120702
0
LINE
8
Layer 1
10
47.841179
20
75.120702
11
44.730767
21
70.046027
0
LINE
8
Layer 1
10
44.730767
20
70.046027
11
43.485989
21
68.294076
0
LINE
8
Layer 1
10
43.485989
20
68.294076
11
42.344251
21
66.958048
0
LINE
8
Layer 1
10
42.344251
20
66.958048
11
41.227620
21
65.957191
0
LINE
8
Layer 1
10
41.227620
20
65.957191
11
40.058162
21
65.210753
0
LINE
8
Layer 1
10
40.058162
20
65.210753
11
38.757942
21
64.637984
0
LINE
8
Layer 1
10
38.757942
20
64.637984
11
37.249027
21
64.158132
0
LINE
8
Layer 1
10
37.249027
20
64.158132
11
34.330579
21
63.618753
0
LINE
8
Layer 1
10
34.330579
20
63.618753
11
31.400468
21
63.613818
0
LINE
8
Layer 1
10
31.400468
20
63.613818
11
28.548161
21
64.134600
0
LINE
8
Layer 1
10
28.548161
20
64.134600
11
25.863123
21
65.172368
0
LINE
8
Layer 1
10
25.863123
20
65.172368
11
24.591821
21
65.991950
0
LINE
8
Layer 1
10
24.591821
20
65.991950
11
23.279159
21
67.124815
0
LINE
8
Layer 1
10
23.279159
20
67.124815
11
22.147229
21
68.357429
0
LINE
8
Layer 1
10
22.147229
20
68.357429
11
21.418123
21
69.476257
0
LINE
8
Layer 1
10
21.418123
20
69.476257
11
21.079468
21
70.437511
0
LINE
8
Layer 1
10
21.079468
20
70.437511
11
20.905751
21
71.472935
0
LINE
8
Layer 1
10
20.905751
20
71.472935
11
20.895168
21
72.573173
0
LINE
8
Layer 1
10
20.895168
20
72.573173
11
21.045914
21
73.728866
0
LINE
8
Layer 1
10
21.045914
20
73.728866
11
21.824177
21
76.169187
0
LINE
8
Layer 1
10
21.824177
20
76.169187
11
23.226109
21
78.719035
0
LINE
8
Layer 1
10
23.226109
20
78.719035
11
24.785194
21
80.689542
0
LINE
8
Layer 1
10
24.785194
20
80.689542
11
27.089308
21
83.171813
0
LINE
8
Layer 1
10
27.089308
20
83.171813
11
29.666685
21
85.683268
0
LINE
8
Layer 1
10
29.666685
20
85.683268
11
32.045554
21
87.741327
0
LINE
8
Layer 1
10
32.045554
20
87.741327
11
36.472175
21
90.996677
0
LINE
8
Layer 1
10
36.472175
20
90.996677
11
41.050892
21
93.961195
0
LINE
8
Layer 1
10
41.050892
20
93.961195
11
45.393346
21
96.399877
0
LINE
8
Layer 1
10
45.393346
20
96.399877
11
49.111179
21
98.077716
0
LINE
8
Layer 1
10
49.111179
20
98.077716
11
55.443541
21
100.750007
0
LINE
8
Layer 1
10
55.443541
20
100.750007
11
57.768458
21
101.769241
0
LINE
8
Layer 1
10
57.768458
20
101.769241
11
59.006596
21
102.187577
0
LINE
8
Layer 1
10
59.006596
20
102.187577
11
59.006596
21
102.187577
0
LINE
8
Layer 1
10
150.958124
20
102.187577
11
150.993402
21
102.187577
0
LINE
8
Layer 1
10
150.993402
20
102.187577
11
152.231543
21
101.769241
0
LINE
8
Layer 1
10
152.231543
20
101.769241
11
154.556457
21
100.750007
0
LINE
8
Layer 1
10
154.556457
20
100.750007
11
160.888818
21
98.077716
0
LINE
8
Layer 1
10
160.888818
20
98.077716
11
164.606653
21
96.399877
0
LINE
8
Layer 1
10
164.606653
20
96.399877
11
168.949109
21
93.961195
0
LINE
8
Layer 1
10
168.949109
20
93.961195
11
173.527826
21
90.996677
0
LINE
8
Layer 1
10
173.527826
20
90.996677
11
177.954443
21
87.741327
0
LINE
8
Layer 1
10
177.954443
20
87.741327
11
180.333314
21
85.683268
0
LINE
8
Layer 1
10
180.333314
20
85.683268
11
182.910692
21
83.171813
0
LINE
8
Layer 1
10
182.910692
20
83.171813
11
185.214807
21
80.689542
0
LINE
8
Layer 1
10
185.214807
20
80.689542
11
186.773888
21
78.719035
0
LINE
8
Layer 1
10
186.773888
20
78.719035
11
188.175820
21
76.169187
0
LINE
8
Layer 1
10
188.175820
20
76.169187
11
188.954086
21
73.728866
0
LINE
8
Layer 1
10
188.954086
20
73.728866
11
189.104832
21
72.573173
0
LINE
8
Layer 1
10
189.104832
20
72.573173
11
189.094249
21
71.472935
0
LINE
8
Layer 1
10
189.094249
20
71.472935
11
188.920531
21
70.437511
0
LINE
8
Layer 1
10
188.920531
20
70.437511
11
188.581874
21
69.476257
0
LINE
8
Layer 1
10
188.581874
20
69.476257
11
187.852768
21
68.357429
0
LINE
8
Layer 1
10
187.852768
20
68.357429
11
186.720840
21
67.124815
0
LINE
8
Layer 1
10
186.720840
20
67.124815
11
185.408179
21
65.991950
0
LINE
8
Layer 1
10
185.408179
20
65.991950
11
184.136874
21
65.172368
0
LINE
8
Layer 1
10
184.136874
20
65.172368
11
181.451838
21
64.134600
0
LINE
8
Layer 1
10
181.451838
20
64.134600
11
178.599532
21
63.613818
0
LINE
8
Layer 1
10
178.599532
20
63.613818
11
175.669422
21
63.618753
0
LINE
8
Layer 1
10
175.669422
20
63.618753
11
172.750971
21
64.158132
0
LINE
8
Layer 1
10
172.750971
20
64.158132
11
171.242056
21
64.637984
0
LINE
8
Layer 1
10
171.242056
20
64.637984
11
169.941837
21
65.210753
0
LINE
8
Layer 1
10
169.941837
20
65.210753
11
168.772380
21
65.957191
0
LINE
8
Layer 1
10
168.772380
20
65.957191
11
167.655749
21
66.958048
0
LINE
8
Layer 1
10
167.655749
20
66.958048
11
166.514012
21
68.294076
0
LINE
8
Layer 1
10
166.514012
20
68.294076
11
165.269234
21
70.046027
0
LINE
8
Layer 1
10
165.269234
20
70.046027
11
162.158818
21
75.120702
0
LINE
8
Layer 1
10
162.158818
20
75.120702
11
158.621384
21
81.428678
0
LINE
8
Layer 1
10
158.621384
20
81.428678
11
155.560420
21
87.422993
0
LINE
8
Layer 1
10
155.560420
20
87.422993
11
153.126364
21
92.791545
0
LINE
8
Layer 1
10
153.126364
20
92.791545
11
151.469652
21
97.222229
0
LINE
8
Layer 1
10
151.469652
20
97.222229
11
151.020586
21
98.923716
0
LINE
8
Layer 1
10
151.020586
20
98.923716
11
150.771339
21
100.456982
0
LINE
8
Layer 1
10
150.771339
20
100.456982
11
150.743366
21
101.614209
0
LINE
8
Layer 1
10
150.743366
20
101.614209
11
150.958124
21
102.187577
0
LINE
8
Layer 1
10
150.958124
20
102.187577
11
150.958124
21
102.187577
0
LINE
8
Layer 1
10
84.353679
20
97.742577
11
84.514854
21
97.574127
0
LINE
8
Layer 1
10
84.514854
20
97.574127
11
84.611597
21
97.087014
0
LINE
8
Layer 1
10
84.611597
20
97.087014
11
84.671179
21
95.105563
0
LINE
8
Layer 1
10
84.671179
20
95.105563
11
84.560958
21
92.744271
0
LINE
8
Layer 1
10
84.560958
20
92.744271
11
84.242409
21
89.996863
0
LINE
8
Layer 1
10
84.242409
20
89.996863
11
83.053012
21
83.664811
0
LINE
8
Layer 1
10
83.053012
20
83.664811
11
81.248359
21
76.751642
0
LINE
8
Layer 1
10
81.248359
20
76.751642
11
78.973818
21
69.899591
0
LINE
8
Layer 1
10
78.973818
20
69.899591
11
77.549777
21
66.305045
0
LINE
8
Layer 1
10
77.549777
20
66.305045
11
76.074853
21
63.018700
0
LINE
8
Layer 1
10
76.074853
20
63.018700
11
74.566097
21
60.067341
0
LINE
8
Layer 1
10
74.566097
20
60.067341
11
73.040561
21
57.477758
0
LINE
8
Layer 1
10
73.040561
20
57.477758
11
71.515297
21
55.276737
0
LINE
8
Layer 1
10
71.515297
20
55.276737
11
70.007359
21
53.491066
0
LINE
8
Layer 1
10
70.007359
20
53.491066
11
68.533798
21
52.147532
0
LINE
8
Layer 1
10
68.533798
20
52.147532
11
67.111666
21
51.272924
0
LINE
8
Layer 1
10
67.111666
20
51.272924
11
65.763570
21
50.822628
0
LINE
8
Layer 1
10
65.763570
20
50.822628
11
64.506312
21
50.710046
0
LINE
8
Layer 1
10
64.506312
20
50.710046
11
63.374294
21
50.910812
0
LINE
8
Layer 1
10
63.374294
20
50.910812
11
62.401920
21
51.400558
0
LINE
8
Layer 1
10
62.401920
20
51.400558
11
61.623594
21
52.154919
0
LINE
8
Layer 1
10
61.623594
20
52.154919
11
61.073720
21
53.149528
0
LINE
8
Layer 1
10
61.073720
20
53.149528
11
60.786702
21
54.360017
0
LINE
8
Layer 1
10
60.786702
20
54.360017
11
60.796943
21
55.762021
0
LINE
8
Layer 1
10
60.796943
20
55.762021
11
61.215190
21
57.857446
0
LINE
8
Layer 1
10
61.215190
20
57.857446
11
62.020240
21
60.394132
0
LINE
8
Layer 1
10
62.020240
20
60.394132
11
63.166141
21
63.245161
0
LINE
8
Layer 1
10
63.166141
20
63.245161
11
64.606943
21
66.283618
0
LINE
8
Layer 1
10
64.606943
20
66.283618
11
66.761519
21
70.335767
0
LINE
8
Layer 1
10
66.761519
20
70.335767
11
69.419223
21
74.831254
0
LINE
8
Layer 1
10
69.419223
20
74.831254
11
79.458888
21
90.360702
0
LINE
8
Layer 1
10
79.458888
20
90.360702
11
83.286527
21
96.366743
0
LINE
8
Layer 1
10
83.286527
20
96.366743
11
83.941946
21
97.399315
0
LINE
8
Layer 1
10
83.941946
20
97.399315
11
84.353679
21
97.742577
0
LINE
8
Layer 1
10
84.353679
20
97.742577
11
84.353679
21
97.742577
0
LINE
8
Layer 1
10
125.646318
20
97.742577
11
126.058052
21
97.399315
0
LINE
8
Layer 1
10
126.058052
20
97.399315
11
126.713471
21
96.366743
0
LINE
8
Layer 1
10
126.713471
20
96.366743
11
130.541110
21
90.360702
0
LINE
8
Layer 1
10
130.541110
20
90.360702
11
140.580778
21
74.831254
0
LINE
8
Layer 1
10
140.580778
20
74.831254
11
143.238483
21
70.335767
0
LINE
8
Layer 1
10
143.238483
20
70.335767
11
145.393054
21
66.283618
0
LINE
8
Layer 1
10
145.393054
20
66.283618
11
146.833857
21
63.245161
0
LINE
8
Layer 1
10
146.833857
20
63.245161
11
147.979761
21
60.394132
0
LINE
8
Layer 1
10
147.979761
20
60.394132
11
148.784811
21
57.857446
0
LINE
8
Layer 1
10
148.784811
20
57.857446
11
149.203054
21
55.762021
0
LINE
8
Layer 1
10
149.203054
20
55.762021
11
149.213296
21
54.360017
0
LINE
8
Layer 1
10
149.213296
20
54.360017
11
148.926277
21
53.149528
0
LINE
8
Layer 1
10
148.926277
20
53.149528
11
148.376403
21
52.154919
0
LINE
8
Layer 1
10
148.376403
20
52.154919
11
147.598078
21
51.400558
0
LINE
8
Layer 1
10
147.598078
20
51.400558
11
146.625704
21
50.910812
0
LINE
8
Layer 1
10
146.625704
20
50.910812
11
145.493686
21
50.710046
0
LINE
8
Layer 1
10
145.493686
20
50.710046
11
144.236427
21
50.822628
0
LINE
8
Layer 1
10
144.236427
20
50.822628
11
142.888332
21
51.272924
0
LINE
8
Layer 1
10
142.888332
20
51.272924
11
141.466200
21
52.147532
0
LINE
8
Layer 1
10
141.466200
20
52.147532
11
139.992639
21
53.491066
0
LINE
8
Layer 1
10
139.992639
20
53.491066
11
138.484700
21
55.276737
0
LINE
8
Layer 1
10
138.484700
20
55.276737
11
136.959437
21
57.477758
0
LINE
8
Layer 1
10
136.959437
20
57.477758
11
135.433901
21
60.067341
0
LINE
8
Layer 1
10
135.433901
20
60.067341
11
133.925145
21
63.018700
0
LINE
8
Layer 1
10
133.925145
20
63.018700
11
132.450220
21
66.305045
0
LINE
8
Layer 1
10
132.450220
20
66.305045
11
131.026179
21
69.899591
0
LINE
8
Layer 1
10
131.026179
20
69.899591
11
128.751639
21
76.751642
0
LINE
8
Layer 1
10
128.751639
20
76.751642
11
126.946985
21
83.664811
0
LINE
8
Layer 1
10
126.946985
20
83.664811
11
125.757588
21
89.996863
0
LINE
8
Layer 1
10
125.757588
20
89.996863
11
125.439039
21
92.744271
0
LINE
8
Layer 1
10
125.439039
20
92.744271
11
125.328818
21
95.105563
0
LINE
8
Layer 1
10
125.328818
20
95.105563
11
125.388400
21
97.087014
0
LINE
8
Layer 1
10
125.388400
20
97.087014
11
125.485144
21
97.574127
0
LINE
8
Layer 1
10
125.485144
20
97.574127
11
125.646318
21
97.742577
0
LINE
8
Layer 1
10
125.646318
20
97.742577
11
125.646318
21
97.742577
0
LINE
8
Layer 1
10
39.497985
20
97.583827
11
40.521041
21
97.583827
0
LINE
8
Layer 1
10
40.521041
20
97.583827
11
42.554884
21
97.516455
0
LINE
8
Layer 1
10
42.554884
20
97.516455
11
43.713679
21
97.345702
0
LINE
8
Layer 1
10
43.713679
20
97.345702
11
44.044182
21
97.196729
0
LINE
8
Layer 1
10
44.044182
20
97.196729
11
44.071657
21
97.057093
0
LINE
8
Layer 1
10
44.071657
20
97.057093
11
43.008124
21
96.587229
0
LINE
8
Layer 1
10
43.008124
20
96.587229
11
40.881597
21
95.677931
0
LINE
8
Layer 1
10
40.881597
20
95.677931
11
38.532114
21
94.445535
0
LINE
8
Layer 1
10
38.532114
20
94.445535
11
33.315967
21
91.117651
0
LINE
8
Layer 1
10
33.315967
20
91.117651
11
27.663051
21
86.815980
0
LINE
8
Layer 1
10
27.663051
20
86.815980
11
21.876734
21
81.752924
0
LINE
8
Layer 1
10
21.876734
20
81.752924
11
19.496353
21
79.612623
0
LINE
8
Layer 1
10
19.496353
20
79.612623
11
17.586543
21
78.102713
0
LINE
8
Layer 1
10
17.586543
20
78.102713
11
15.985180
21
77.108221
0
LINE
8
Layer 1
10
15.985180
20
77.108221
11
14.530137
21
76.514174
0
LINE
8
Layer 1
10
14.530137
20
76.514174
11
12.730970
21
76.134938
0
LINE
8
Layer 1
10
12.730970
20
76.134938
11
11.312420
21
76.510578
0
LINE
8
Layer 1
10
11.312420
20
76.510578
11
9.859461
21
77.427038
0
LINE
8
Layer 1
10
9.859461
20
77.427038
11
8.523750
21
78.762396
0
LINE
8
Layer 1
10
8.523750
20
78.762396
11
7.456942
21
80.394729
0
LINE
8
Layer 1
10
7.456942
20
80.394729
11
6.793623
21
82.100442
0
LINE
8
Layer 1
10
6.793623
20
82.100442
11
6.562947
21
83.745486
0
LINE
8
Layer 1
10
6.562947
20
83.745486
11
6.764777
21
85.329606
0
LINE
8
Layer 1
10
6.764777
20
85.329606
11
7.398977
21
86.852548
0
LINE
8
Layer 1
10
7.398977
20
86.852548
11
8.465410
21
88.314057
0
LINE
8
Layer 1
10
8.465410
20
88.314057
11
9.963938
21
89.713878
0
LINE
8
Layer 1
10
9.963938
20
89.713878
11
11.894425
21
91.051757
0
LINE
8
Layer 1
10
11.894425
20
91.051757
11
14.256734
21
92.327438
0
LINE
8
Layer 1
10
14.256734
20
92.327438
11
17.962983
21
93.860831
0
LINE
8
Layer 1
10
17.962983
20
93.860831
11
22.282583
21
95.205208
0
LINE
8
Layer 1
10
22.282583
20
95.205208
11
27.034259
21
96.312350
0
LINE
8
Layer 1
10
27.034259
20
96.312350
11
32.036735
21
97.134035
0
LINE
8
Layer 1
10
32.036735
20
97.134035
11
35.597930
21
97.448706
0
LINE
8
Layer 1
10
35.597930
20
97.448706
11
39.497985
21
97.583827
0
LINE
8
Layer 1
10
39.497985
20
97.583827
11
39.497985
21
97.583827
0
LINE
8
Layer 1
10
169.478957
20
97.583827
11
173.838234
21
97.478530
0
LINE
8
Layer 1
10
173.838234
20
97.478530
11
177.963263
21
97.134035
0
LINE
8
Layer 1
10
177.963263
20
97.134035
11
182.965740
21
96.312350
0
LINE
8
Layer 1
10
182.965740
20
96.312350
11
187.717417
21
95.205208
0
LINE
8
Layer 1
10
187.717417
20
95.205208
11
192.037018
21
93.860831
0
LINE
8
Layer 1
10
192.037018
20
93.860831
11
195.743263
21
92.327438
0
LINE
8
Layer 1
10
195.743263
20
92.327438
11
198.105573
21
91.051757
0
LINE
8
Layer 1
10
198.105573
20
91.051757
11
200.036061
21
89.713878
0
LINE
8
Layer 1
10
200.036061
20
89.713878
11
201.534590
21
88.314057
0
LINE
8
Layer 1
10
201.534590
20
88.314057
11
202.601024
21
86.852548
0
LINE
8
Layer 1
10
202.601024
20
86.852548
11
203.235224
21
85.329606
0
LINE
8
Layer 1
10
203.235224
20
85.329606
11
203.437054
21
83.745486
0
LINE
8
Layer 1
10
203.437054
20
83.745486
11
203.206376
21
82.100442
0
LINE
8
Layer 1
10
203.206376
20
82.100442
11
202.543054
21
80.394729
0
LINE
8
Layer 1
10
202.543054
20
80.394729
11
201.476248
21
78.762396
0
LINE
8
Layer 1
10
201.476248
20
78.762396
11
200.140539
21
77.427038
0
LINE
8
Layer 1
10
200.140539
20
77.427038
11
198.687580
21
76.510578
0
LINE
8
Layer 1
10
198.687580
20
76.510578
11
197.269027
21
76.134938
0
LINE
8
Layer 1
10
197.269027
20
76.134938
11
195.469860
21
76.514174
0
LINE
8
Layer 1
10
195.469860
20
76.514174
11
194.014818
21
77.108221
0
LINE
8
Layer 1
10
194.014818
20
77.108221
11
192.413456
21
78.102713
0
LINE
8
Layer 1
10
192.413456
20
78.102713
11
190.503648
21
79.612623
0
LINE
8
Layer 1
10
190.503648
20
79.612623
11
188.123263
21
81.752924
0
LINE
8
Layer 1
10
188.123263
20
81.752924
11
182.336948
21
86.815980
0
LINE
8
Layer 1
10
182.336948
20
86.815980
11
176.684034
21
91.117651
0
LINE
8
Layer 1
10
176.684034
20
91.117651
11
171.467887
21
94.445535
0
LINE
8
Layer 1
10
171.467887
20
94.445535
11
169.118403
21
95.677931
0
LINE
8
Layer 1
10
169.118403
20
95.677931
11
166.991874
21
96.587229
0
LINE
8
Layer 1
10
166.991874
20
96.587229
11
165.928344
21
97.057093
0
LINE
8
Layer 1
10
165.928344
20
97.057093
11
165.955819
21
97.196729
0
LINE
8
Layer 1
10
165.955819
20
97.196729
11
166.286318
21
97.345702
0
LINE
8
Layer 1
10
166.286318
20
97.345702
11
167.445116
21
97.516455
0
LINE
8
Layer 1
10
167.445116
20
97.516455
11
169.478957
21
97.583827
0
LINE
8
Layer 1
10
169.478957
20
97.583827
11
169.478957
21
97.583827
0
LINE
8
Layer 1
10
-3.840766
20
96.393202
11
-3.064655
21
96.313827
0
LINE
8
Layer 1
10
-3.064655
20
96.313827
11
-1.914671
21
96.071513
0
LINE
8
Layer 1
10
-1.914671
20
96.071513
11
-1.234193
21
95.743573
0
LINE
8
Layer 1
10
-1.234193
20
95.743573
11
-0.926550
21
95.248763
0
LINE
8
Layer 1
10
-0.926550
20
95.248763
11
-0.895072
21
94.505841
0
LINE
8
Layer 1
10
-0.895072
20
94.505841
11
-1.095435
21
93.646225
0
LINE
8
Layer 1
10
-1.095435
20
93.646225
11
-1.323133
21
93.478759
0
LINE
8
Layer 1
10
-1.323133
20
93.478759
11
-1.688822
21
93.412229
0
LINE
8
Layer 1
10
-1.688822
20
93.412229
11
-2.354794
21
93.418358
0
LINE
8
Layer 1
10
-2.354794
20
93.418358
11
-2.843897
21
93.600929
0
LINE
8
Layer 1
10
-2.843897
20
93.600929
11
-3.251557
21
94.024288
0
LINE
8
Layer 1
10
-3.251557
20
94.024288
11
-3.673197
21
94.752785
0
LINE
8
Layer 1
10
-3.673197
20
94.752785
11
-4.193817
21
96.010194
0
LINE
8
Layer 1
10
-4.193817
20
96.010194
11
-4.133800
21
96.291142
0
LINE
8
Layer 1
10
-4.133800
20
96.291142
11
-3.840766
21
96.393202
0
LINE
8
Layer 1
10
-3.840766
20
96.393202
11
-3.840766
21
96.393202
0
LINE
8
Layer 1
10
213.690832
20
96.393202
11
213.840763
21
96.393202
0
LINE
8
Layer 1
10
213.840763
20
96.393202
11
214.133798
21
96.291142
0
LINE
8
Layer 1
10
214.133798
20
96.291142
11
214.193818
21
96.010194
0
LINE
8
Layer 1
10
214.193818
20
96.010194
11
213.673193
21
94.752785
0
LINE
8
Layer 1
10
213.673193
20
94.752785
11
213.251554
21
94.024288
0
LINE
8
Layer 1
10
213.251554
20
94.024288
11
212.843897
21
93.600929
0
LINE
8
Layer 1
10
212.843897
20
93.600929
11
212.354794
21
93.418358
0
LINE
8
Layer 1
10
212.354794
20
93.418358
11
211.688818
21
93.412229
0
LINE
8
Layer 1
10
211.688818
20
93.412229
11
211.323131
21
93.478759
0
LINE
8
Layer 1
10
211.323131
20
93.478759
11
211.095435
21
93.646225
0
LINE
8
Layer 1
10
211.095435
20
93.646225
11
210.895068
21
94.505841
0
LINE
8
Layer 1
10
210.895068
20
94.505841
11
210.926548
21
95.248763
0
LINE
8
Layer 1
10
210.926548
20
95.248763
11
211.234193
21
95.743573
0
LINE
8
Layer 1
10
211.234193
20
95.743573
11
211.914672
21
96.071513
0
LINE
8
Layer 1
10
211.914672
20
96.071513
11
213.064652
21
96.313827
0
LINE
8
Layer 1
10
213.064652
20
96.313827
11
213.690832
21
96.393202
0
LINE
8
Layer 1
10
213.690832
20
96.393202
11
213.690832
21
96.393202
0
LINE
8
Layer 1
10
-11.143266
20
95.167299
11
-10.006561
21
94.685836
0
LINE
8
Layer 1
10
-10.006561
20
94.685836
11
-8.814933
21
93.667993
0
LINE
8
Layer 1
10
-8.814933
20
93.667993
11
-8.284201
21
92.762240
0
LINE
8
Layer 1
10
-8.284201
20
92.762240
11
-8.180638
21
91.898123
0
LINE
8
Layer 1
10
-8.180638
20
91.898123
11
-8.495647
21
91.138421
0
LINE
8
Layer 1
10
-8.495647
20
91.138421
11
-9.220627
21
90.545910
0
LINE
8
Layer 1
10
-9.220627
20
90.545910
11
-9.714917
21
90.308400
0
LINE
8
Layer 1
10
-9.714917
20
90.308400
11
-10.056559
21
90.269556
0
LINE
8
Layer 1
10
-10.056559
20
90.269556
11
-10.869863
21
90.916327
0
LINE
8
Layer 1
10
-10.869863
20
90.916327
11
-11.223914
21
91.334254
0
LINE
8
Layer 1
10
-11.223914
20
91.334254
11
-11.436174
21
91.793337
0
LINE
8
Layer 1
10
-11.436174
20
91.793337
11
-11.566600
21
93.297577
0
LINE
8
Layer 1
10
-11.566600
20
93.297577
11
-11.495374
21
94.533698
0
LINE
8
Layer 1
10
-11.495374
20
94.533698
11
-11.328475
21
95.132021
0
LINE
8
Layer 1
10
-11.328475
20
95.132021
11
-11.143266
21
95.167299
0
LINE
8
Layer 1
10
-11.143266
20
95.167299
11
-11.143266
21
95.167299
0
LINE
8
Layer 1
10
221.143263
20
95.167299
11
221.328471
21
95.132021
0
LINE
8
Layer 1
10
221.328471
20
95.132021
11
221.495373
21
94.533698
0
LINE
8
Layer 1
10
221.495373
20
94.533698
11
221.566596
21
93.297577
0
LINE
8
Layer 1
10
221.566596
20
93.297577
11
221.436175
21
91.793337
0
LINE
8
Layer 1
10
221.436175
20
91.793337
11
221.223914
21
91.334254
0
LINE
8
Layer 1
10
221.223914
20
91.334254
11
220.869860
21
90.916327
0
LINE
8
Layer 1
10
220.869860
20
90.916327
11
220.056559
21
90.269556
0
LINE
8
Layer 1
10
220.056559
20
90.269556
11
219.714918
21
90.308400
0
LINE
8
Layer 1
10
219.714918
20
90.308400
11
219.220624
21
90.545910
0
LINE
8
Layer 1
10
219.220624
20
90.545910
11
218.495645
21
91.138421
0
LINE
8
Layer 1
10
218.495645
20
91.138421
11
218.180638
21
91.898123
0
LINE
8
Layer 1
10
218.180638
20
91.898123
11
218.284201
21
92.762240
0
LINE
8
Layer 1
10
218.284201
20
92.762240
11
218.814929
21
93.667993
0
LINE
8
Layer 1
10
218.814929
20
93.667993
11
220.006562
21
94.685836
0
LINE
8
Layer 1
10
220.006562
20
94.685836
11
221.143263
21
95.167299
0
LINE
8
Layer 1
10
221.143263
20
95.167299
11
221.143263
21
95.167299
0
LINE
8
Layer 1
10
104.999999
20
88.199938
11
106.602016
21
88.058356
0
LINE
8
Layer 1
10
106.602016
20
88.058356
11
107.778124
21
87.670771
0
LINE
8
Layer 1
10
107.778124
20
87.670771
11
107.898244
21
87.536464
0
LINE
8
Layer 1
10
107.898244
20
87.536464
11
107.709975
21
87.468663
0
LINE
8
Layer 1
10
107.709975
20
87.468663
11
106.278818
21
87.520841
0
LINE
8
Layer 1
10
106.278818
20
87.520841
11
104.988659
21
87.557323
0
LINE
8
Layer 1
10
104.988659
20
87.557323
11
103.721179
21
87.520841
0
LINE
8
Layer 1
10
103.721179
20
87.520841
11
102.290022
21
87.468663
0
LINE
8
Layer 1
10
102.290022
20
87.468663
11
102.101754
21
87.536464
0
LINE
8
Layer 1
10
102.101754
20
87.536464
11
102.221874
21
87.670771
0
LINE
8
Layer 1
10
102.221874
20
87.670771
11
103.397981
21
88.058356
0
LINE
8
Layer 1
10
103.397981
20
88.058356
11
104.999999
21
88.199938
0
LINE
8
Layer 1
10
104.999999
20
88.199938
11
104.999999
21
88.199938
0
LINE
8
Layer 1
10
-1.591808
20
87.071049
11
-1.477155
21
87.062229
0
LINE
8
Layer 1
10
-1.477155
20
87.062229
11
-0.940889
21
86.760458
0
LINE
8
Layer 1
10
-0.940889
20
86.760458
11
-0.458400
21
86.144959
0
LINE
8
Layer 1
10
-0.458400
20
86.144959
11
-0.097232
21
85.331046
0
LINE
8
Layer 1
10
-0.097232
20
85.331046
11
0.075067
21
84.434035
0
LINE
8
Layer 1
10
0.075067
20
84.434035
11
0.021223
21
83.475196
0
LINE
8
Layer 1
10
0.021223
20
83.475196
11
-0.184259
21
83.302909
0
LINE
8
Layer 1
10
-0.184259
20
83.302909
11
-0.568752
21
83.225771
0
LINE
8
Layer 1
10
-0.568752
20
83.225771
11
-1.353679
21
83.312502
0
LINE
8
Layer 1
10
-1.353679
20
83.312502
11
-1.882733
21
83.769334
0
LINE
8
Layer 1
10
-1.882733
20
83.769334
11
-2.140647
21
84.573950
0
LINE
8
Layer 1
10
-2.140647
20
84.573950
11
-2.112155
21
85.704035
0
LINE
8
Layer 1
10
-2.112155
20
85.704035
11
-1.897317
21
86.730505
0
LINE
8
Layer 1
10
-1.897317
20
86.730505
11
-1.591808
21
87.071049
0
LINE
8
Layer 1
10
-1.591808
20
87.071049
11
-1.591808
21
87.071049
0
LINE
8
Layer 1
10
211.591804
20
87.071049
11
211.897318
21
86.730505
0
LINE
8
Layer 1
10
211.897318
20
86.730505
11
212.112152
21
85.704035
0
LINE
8
Layer 1
10
212.112152
20
85.704035
11
212.140645
21
84.573950
0
LINE
8
Layer 1
10
212.140645
20
84.573950
11
211.882733
21
83.769334
0
LINE
8
Layer 1
10
211.882733
20
83.769334
11
211.353679
21
83.312502
0
LINE
8
Layer 1
10
211.353679
20
83.312502
11
210.568749
21
83.225771
0
LINE
8
Layer 1
10
210.568749
20
83.225771
11
210.184257
21
83.302909
0
LINE
8
Layer 1
10
210.184257
20
83.302909
11
209.978777
21
83.475196
0
LINE
8
Layer 1
10
209.978777
20
83.475196
11
209.924929
21
84.434035
0
LINE
8
Layer 1
10
209.924929
20
84.434035
11
210.097230
21
85.331046
0
LINE
8
Layer 1
10
210.097230
20
85.331046
11
210.458400
21
86.144959
0
LINE
8
Layer 1
10
210.458400
20
86.144959
11
210.940889
21
86.760458
0
LINE
8
Layer 1
10
210.940889
20
86.760458
11
211.477152
21
87.062229
0
LINE
8
Layer 1
10
211.477152
20
87.062229
11
211.591804
21
87.071049
0
LINE
8
Layer 1
10
211.591804
20
87.071049
11
211.591804
21
87.071049
0
LINE
8
Layer 1
10
104.999999
20
85.704035
11
105.211666
21
85.695216
0
LINE
8
Layer 1
10
105.211666
20
85.695216
11
105.211666
21
85.704035
0
LINE
8
Layer 1
10
105.211666
20
85.704035
11
106.159532
21
85.608339
0
LINE
8
Layer 1
10
106.159532
20
85.608339
11
106.975554
21
85.342438
0
LINE
8
Layer 1
10
106.975554
20
85.342438
11
107.512652
21
84.923603
0
LINE
8
Layer 1
10
107.512652
20
84.923603
11
107.802698
21
84.451047
0
LINE
8
Layer 1
10
107.802698
20
84.451047
11
107.776186
21
84.133145
0
LINE
8
Layer 1
10
107.776186
20
84.133145
11
107.363610
21
84.178271
0
LINE
8
Layer 1
10
107.363610
20
84.178271
11
106.193224
21
84.392611
0
LINE
8
Layer 1
10
106.193224
20
84.392611
11
104.999999
21
84.416396
0
LINE
8
Layer 1
10
104.999999
20
84.416396
11
103.808295
21
84.385649
0
LINE
8
Layer 1
10
103.808295
20
84.385649
11
102.636388
21
84.178271
0
LINE
8
Layer 1
10
102.636388
20
84.178271
11
102.223811
21
84.133145
0
LINE
8
Layer 1
10
102.223811
20
84.133145
11
102.197299
21
84.451047
0
LINE
8
Layer 1
10
102.197299
20
84.451047
11
102.487345
21
84.923603
0
LINE
8
Layer 1
10
102.487345
20
84.923603
11
103.024443
21
85.342438
0
LINE
8
Layer 1
10
103.024443
20
85.342438
11
103.995535
21
85.637924
0
LINE
8
Layer 1
10
103.995535
20
85.637924
11
104.999999
21
85.704035
0
LINE
8
Layer 1
10
104.999999
20
85.704035
11
104.999999
21
85.704035
0
LINE
8
Layer 1
10
-8.735558
20
85.562924
11
-8.192259
21
85.538249
0
LINE
8
Layer 1
10
-8.192259
20
85.538249
11
-7.885988
21
85.414811
0
LINE
8
Layer 1
10
-7.885988
20
85.414811
11
-7.735508
21
85.118484
0
LINE
8
Layer 1
10
-7.735508
20
85.118484
11
-7.659586
21
84.575146
0
LINE
8
Layer 1
10
-7.659586
20
84.575146
11
-7.685109
21
83.566645
0
LINE
8
Layer 1
10
-7.685109
20
83.566645
11
-7.880072
21
82.529035
0
LINE
8
Layer 1
10
-7.880072
20
82.529035
11
-8.190068
21
81.848901
0
LINE
8
Layer 1
10
-8.190068
20
81.848901
11
-8.635496
21
81.516200
0
LINE
8
Layer 1
10
-8.635496
20
81.516200
11
-9.261042
21
81.515733
0
LINE
8
Layer 1
10
-9.261042
20
81.515733
11
-10.111391
21
81.832299
0
LINE
8
Layer 1
10
-10.111391
20
81.832299
11
-10.621219
21
82.264663
0
LINE
8
Layer 1
10
-10.621219
20
82.264663
11
-10.622919
21
83.075841
0
LINE
8
Layer 1
10
-10.622919
20
83.075841
11
-10.355455
21
84.230684
0
LINE
8
Layer 1
10
-10.355455
20
84.230684
11
-9.973445
21
85.000483
0
LINE
8
Layer 1
10
-9.973445
20
85.000483
11
-9.444331
21
85.429732
0
LINE
8
Layer 1
10
-9.444331
20
85.429732
11
-8.735558
21
85.562924
0
LINE
8
Layer 1
10
-8.735558
20
85.562924
11
-8.735558
21
85.562924
0
LINE
8
Layer 1
10
218.735554
20
85.562924
11
219.444329
21
85.429732
0
LINE
8
Layer 1
10
219.444329
20
85.429732
11
219.973444
21
85.000483
0
LINE
8
Layer 1
10
219.973444
20
85.000483
11
220.355455
21
84.230684
0
LINE
8
Layer 1
10
220.355455
20
84.230684
11
220.622916
21
83.075841
0
LINE
8
Layer 1
10
220.622916
20
83.075841
11
220.621218
21
82.264663
0
LINE
8
Layer 1
10
220.621218
20
82.264663
11
220.111388
21
81.832299
0
LINE
8
Layer 1
10
220.111388
20
81.832299
11
219.261041
21
81.515733
0
LINE
8
Layer 1
10
219.261041
20
81.515733
11
218.635497
21
81.516200
0
LINE
8
Layer 1
10
218.635497
20
81.516200
11
218.190068
21
81.848901
0
LINE
8
Layer 1
10
218.190068
20
81.848901
11
217.880068
21
82.529035
0
LINE
8
Layer 1
10
217.880068
20
82.529035
11
217.685109
21
83.566645
0
LINE
8
Layer 1
10
217.685109
20
83.566645
11
217.659582
21
84.575146
0
LINE
8
Layer 1
10
217.659582
20
84.575146
11
217.735506
21
85.118484
0
LINE
8
Layer 1
10
217.735506
20
85.118484
11
217.885988
21
85.414811
0
LINE
8
Layer 1
10
217.885988
20
85.414811
11
218.192259
21
85.538249
0
LINE
8
Layer 1
10
218.192259
20
85.538249
11
218.735554
21
85.562924
0
LINE
8
Layer 1
10
218.735554
20
85.562924
11
218.735554
21
85.562924
0
LINE
8
Layer 1
10
104.973541
20
81.752924
11
105.026457
21
81.752924
0
LINE
8
Layer 1
10
105.026457
20
81.752924
11
106.124403
21
81.684949
0
LINE
8
Layer 1
10
106.124403
20
81.684949
11
106.877123
21
81.513064
0
LINE
8
Layer 1
10
106.877123
20
81.513064
11
107.229267
21
81.258261
0
LINE
8
Layer 1
10
107.229267
20
81.258261
11
107.125485
21
80.941535
0
LINE
8
Layer 1
10
107.125485
20
80.941535
11
106.305924
21
80.615146
0
LINE
8
Layer 1
10
106.305924
20
80.615146
11
104.999999
21
80.438827
0
LINE
8
Layer 1
10
104.999999
20
80.438827
11
103.693862
21
80.614993
0
LINE
8
Layer 1
10
103.693862
20
80.614993
11
102.874513
21
80.941535
0
LINE
8
Layer 1
10
102.874513
20
80.941535
11
102.770731
21
81.258261
0
LINE
8
Layer 1
10
102.770731
20
81.258261
11
103.122875
21
81.513064
0
LINE
8
Layer 1
10
103.122875
20
81.513064
11
103.875594
21
81.684949
0
LINE
8
Layer 1
10
103.875594
20
81.684949
11
104.973541
21
81.752924
0
LINE
8
Layer 1
10
104.973541
20
81.752924
11
104.973541
21
81.752924
0
LINE
8
Layer 1
10
104.999999
20
78.657299
11
106.093882
21
78.642418
0
LINE
8
Layer 1
10
106.093882
20
78.642418
11
106.508929
21
78.459194
0
LINE
8
Layer 1
10
106.508929
20
78.459194
11
106.702152
21
77.969382
0
LINE
8
Layer 1
10
106.702152
20
77.969382
11
106.636640
21
77.503157
0
LINE
8
Layer 1
10
106.636640
20
77.503157
11
106.385607
21
77.212774
0
LINE
8
Layer 1
10
106.385607
20
77.212774
11
105.867307
21
77.055957
0
LINE
8
Layer 1
10
105.867307
20
77.055957
11
104.999999
21
76.990424
0
LINE
8
Layer 1
10
104.999999
20
76.990424
11
104.132690
21
77.055957
0
LINE
8
Layer 1
10
104.132690
20
77.055957
11
103.614391
21
77.212774
0
LINE
8
Layer 1
10
103.614391
20
77.212774
11
103.363357
21
77.503157
0
LINE
8
Layer 1
10
103.363357
20
77.503157
11
103.297846
21
77.969382
0
LINE
8
Layer 1
10
103.297846
20
77.969382
11
103.465703
21
78.458891
0
LINE
8
Layer 1
10
103.465703
20
78.458891
11
103.897249
21
78.648216
0
LINE
8
Layer 1
10
103.897249
20
78.648216
11
104.999999
21
78.657299
0
LINE
8
Layer 1
10
104.999999
20
78.657299
11
104.999999
21
78.657299
0
LINE
8
Layer 1
10
0.701248
20
76.575910
11
1.311236
21
76.260767
0
LINE
8
Layer 1
10
1.311236
20
76.260767
11
2.114703
21
75.518380
0
LINE
8
Layer 1
10
2.114703
20
75.518380
11
2.850853
21
74.616841
0
LINE
8
Layer 1
10
2.850853
20
74.616841
11
3.258887
21
73.824243
0
LINE
8
Layer 1
10
3.258887
20
73.824243
11
3.275598
21
73.155868
0
LINE
8
Layer 1
10
3.275598
20
73.155868
11
2.967845
21
72.624799
0
LINE
8
Layer 1
10
2.967845
20
72.624799
11
2.297567
21
72.157368
0
LINE
8
Layer 1
10
2.297567
20
72.157368
11
1.844884
21
72.321811
0
LINE
8
Layer 1
10
1.844884
20
72.321811
11
1.397762
21
72.760386
0
LINE
8
Layer 1
10
1.397762
20
72.760386
11
0.646800
21
74.131421
0
LINE
8
Layer 1
10
0.646800
20
74.131421
11
0.297889
21
75.613452
0
LINE
8
Layer 1
10
0.297889
20
75.613452
11
0.353329
21
76.190769
0
LINE
8
Layer 1
10
0.353329
20
76.190769
11
0.604234
21
76.549452
0
LINE
8
Layer 1
10
0.604234
20
76.549452
11
0.701248
21
76.575910
0
LINE
8
Layer 1
10
0.701248
20
76.575910
11
0.701248
21
76.575910
0
LINE
8
Layer 1
10
209.298749
20
76.575910
11
209.395763
21
76.549452
0
LINE
8
Layer 1
10
209.395763
20
76.549452
11
209.646668
21
76.190769
0
LINE
8
Layer 1
10
209.646668
20
76.190769
11
209.702109
21
75.613452
0
LINE
8
Layer 1
10
209.702109
20
75.613452
11
209.353200
21
74.131421
0
LINE
8
Layer 1
10
209.353200
20
74.131421
11
208.602239
21
72.760386
0
LINE
8
Layer 1
10
208.602239
20
72.760386
11
208.155115
21
72.321811
0
LINE
8
Layer 1
10
208.155115
20
72.321811
11
207.702429
21
72.157368
0
LINE
8
Layer 1
10
207.702429
20
72.157368
11
207.032152
21
72.624799
0
LINE
8
Layer 1
10
207.032152
20
72.624799
11
206.724402
21
73.155868
0
LINE
8
Layer 1
10
206.724402
20
73.155868
11
206.741110
21
73.824243
0
LINE
8
Layer 1
10
206.741110
20
73.824243
11
207.149146
21
74.616841
0
LINE
8
Layer 1
10
207.149146
20
74.616841
11
207.885298
21
75.518380
0
LINE
8
Layer 1
10
207.885298
20
75.518380
11
208.688766
21
76.260767
0
LINE
8
Layer 1
10
208.688766
20
76.260767
11
209.298749
21
76.575910
0
LINE
8
Layer 1
10
209.298749
20
76.575910
11
209.298749
21
76.575910
0
LINE
8
Layer 1
10
106.137707
20
75.605771
11
105.974969
21
75.241107
0
LINE
8
Layer 1
10
105.974969
20
75.241107
11
105.709248
21
74.990164
0
LINE
8
Layer 1
10
105.709248
20
74.990164
11
105.008818
21
74.697368
0
LINE
8
Layer 1
10
105.008818
20
74.697368
11
104.311732
21
74.989955
0
LINE
8
Layer 1
10
104.311732
20
74.989955
11
103.862291
21
75.605771
0
LINE
8
Layer 1
10
103.862291
20
75.605771
11
104.390850
21
75.796053
0
LINE
8
Layer 1
10
104.390850
20
75.796053
11
104.975987
21
75.823525
0
LINE
8
Layer 1
10
104.975987
20
75.823525
11
105.580154
21
75.779898
0
LINE
8
Layer 1
10
105.580154
20
75.779898
11
106.137707
21
75.605771
0
LINE
8
Layer 1
10
106.137707
20
75.605771
11
106.137707
21
75.605771
0
LINE
8
Layer 1
10
-4.775627
20
74.838479
11
-4.400798
21
74.781409
0
LINE
8
Layer 1
10
-4.400798
20
74.781409
11
-4.128241
21
74.545179
0
LINE
8
Layer 1
10
-4.128241
20
74.545179
11
-3.620280
21
73.145146
0
LINE
8
Layer 1
10
-3.620280
20
73.145146
11
-3.296691
21
71.681959
0
LINE
8
Layer 1
10
-3.296691
20
71.681959
11
-3.143706
21
70.278852
0
LINE
8
Layer 1
10
-3.143706
20
70.278852
11
-3.167271
21
69.043301
0
LINE
8
Layer 1
10
-3.167271
20
69.043301
11
-3.373336
21
68.082785
0
LINE
8
Layer 1
10
-3.373336
20
68.082785
11
-3.734420
21
67.548688
0
LINE
8
Layer 1
10
-3.734420
20
67.548688
11
-4.222775
21
67.377439
0
LINE
8
Layer 1
10
-4.222775
20
67.377439
11
-4.762660
21
67.567683
0
LINE
8
Layer 1
10
-4.762660
20
67.567683
11
-5.278336
21
68.118063
0
LINE
8
Layer 1
10
-5.278336
20
68.118063
11
-5.647620
21
69.173529
0
LINE
8
Layer 1
10
-5.647620
20
69.173529
11
-5.864571
21
70.746043
0
LINE
8
Layer 1
10
-5.864571
20
70.746043
11
-5.898647
21
72.437727
0
LINE
8
Layer 1
10
-5.898647
20
72.437727
11
-5.719308
21
73.850702
0
LINE
8
Layer 1
10
-5.719308
20
73.850702
11
-5.375970
21
74.639981
0
LINE
8
Layer 1
10
-5.375970
20
74.639981
11
-4.775627
21
74.838479
0
LINE
8
Layer 1
10
-4.775627
20
74.838479
11
-4.775627
21
74.838479
0
LINE
8
Layer 1
10
214.775624
20
74.838479
11
215.375970
21
74.639981
0
LINE
8
Layer 1
10
215.375970
20
74.639981
11
215.719304
21
73.850702
0
LINE
8
Layer 1
10
215.719304
20
73.850702
11
215.898645
21
72.437727
0
LINE
8
Layer 1
10
215.898645
20
72.437727
11
215.864571
21
70.746043
0
LINE
8
Layer 1
10
215.864571
20
70.746043
11
215.647620
21
69.173529
0
LINE
8
Layer 1
10
215.647620
20
69.173529
11
215.278332
21
68.118063
0
LINE
8
Layer 1
10
215.278332
20
68.118063
11
214.762658
21
67.567683
0
LINE
8
Layer 1
10
214.762658
20
67.567683
11
214.222775
21
67.377439
0
LINE
8
Layer 1
10
214.222775
20
67.377439
11
213.734421
21
67.548688
0
LINE
8
Layer 1
10
213.734421
20
67.548688
11
213.373332
21
68.082785
0
LINE
8
Layer 1
10
213.373332
20
68.082785
11
213.167269
21
69.043301
0
LINE
8
Layer 1
10
213.167269
20
69.043301
11
213.143705
21
70.278852
0
LINE
8
Layer 1
10
213.143705
20
70.278852
11
213.296691
21
71.681959
0
LINE
8
Layer 1
10
213.296691
20
71.681959
11
213.620277
21
73.145146
0
LINE
8
Layer 1
10
213.620277
20
73.145146
11
214.128241
21
74.545179
0
LINE
8
Layer 1
10
214.128241
20
74.545179
11
214.400798
21
74.781409
0
LINE
8
Layer 1
10
214.400798
20
74.781409
11
214.775624
21
74.838479
0
LINE
8
Layer 1
10
214.775624
20
74.838479
11
214.775624
21
74.838479
0
LINE
8
Layer 1
10
9.741178
20
68.770702
11
10.393952
21
68.462420
0
LINE
8
Layer 1
10
10.393952
20
68.462420
11
11.289601
21
67.746505
0
LINE
8
Layer 1
10
11.289601
20
67.746505
11
12.081316
21
66.936351
0
LINE
8
Layer 1
10
12.081316
20
66.936351
11
12.422289
21
66.345354
0
LINE
8
Layer 1
10
12.422289
20
66.345354
11
12.332480
21
66.150759
0
LINE
8
Layer 1
10
12.332480
20
66.150759
11
12.090826
21
66.020042
0
LINE
8
Layer 1
10
12.090826
20
66.020042
11
11.318635
21
65.942501
0
LINE
8
Layer 1
10
11.318635
20
65.942501
11
10.439018
21
66.097255
0
LINE
8
Layer 1
10
10.439018
20
66.097255
11
9.785275
21
66.468827
0
LINE
8
Layer 1
10
9.785275
20
66.468827
11
9.442796
21
67.108098
0
LINE
8
Layer 1
10
9.442796
20
67.108098
11
9.318177
21
67.868302
0
LINE
8
Layer 1
10
9.318177
20
67.868302
11
9.416083
21
68.504237
0
LINE
8
Layer 1
10
9.416083
20
68.504237
11
9.741178
21
68.770702
0
LINE
8
Layer 1
10
9.741178
20
68.770702
11
9.741178
21
68.770702
0
LINE
8
Layer 1
10
200.258818
20
68.770702
11
200.583915
21
68.504237
0
LINE
8
Layer 1
10
200.583915
20
68.504237
11
200.681823
21
67.868302
0
LINE
8
Layer 1
10
200.681823
20
67.868302
11
200.557204
21
67.108098
0
LINE
8
Layer 1
10
200.557204
20
67.108098
11
200.214721
21
66.468827
0
LINE
8
Layer 1
10
200.214721
20
66.468827
11
199.560980
21
66.097255
0
LINE
8
Layer 1
10
199.560980
20
66.097255
11
198.681365
21
65.942501
0
LINE
8
Layer 1
10
198.681365
20
65.942501
11
197.909175
21
66.020042
0
LINE
8
Layer 1
10
197.909175
20
66.020042
11
197.667519
21
66.150759
0
LINE
8
Layer 1
10
197.667519
20
66.150759
11
197.577707
21
66.345354
0
LINE
8
Layer 1
10
197.577707
20
66.345354
11
197.918683
21
66.936351
0
LINE
8
Layer 1
10
197.918683
20
66.936351
11
198.710400
21
67.746505
0
LINE
8
Layer 1
10
198.710400
20
67.746505
11
199.606048
21
68.462420
0
LINE
8
Layer 1
10
199.606048
20
68.462420
11
200.258818
21
68.770702
0
LINE
8
Layer 1
10
200.258818
20
68.770702
11
200.258818
21
68.770702
0
LINE
8
Layer 1
10
3.417637
20
65.225285
11
4.405414
21
64.687299
0
LINE
8
Layer 1
10
4.405414
20
64.687299
11
5.427687
21
63.954922
0
LINE
8
Layer 1
10
5.427687
20
63.954922
11
6.504442
21
62.941049
0
LINE
8
Layer 1
10
6.504442
20
62.941049
11
7.262320
21
61.961362
0
LINE
8
Layer 1
10
7.262320
20
61.961362
11
7.601454
21
61.146254
0
LINE
8
Layer 1
10
7.601454
20
61.146254
11
7.513350
21
60.542832
0
LINE
8
Layer 1
10
7.513350
20
60.542832
11
6.989512
21
60.198202
0
LINE
8
Layer 1
10
6.989512
20
60.198202
11
5.281093
21
60.065831
0
LINE
8
Layer 1
10
5.281093
20
60.065831
11
3.452914
21
60.374591
0
LINE
8
Layer 1
10
3.452914
20
60.374591
11
2.590056
21
60.846012
0
LINE
8
Layer 1
10
2.590056
20
60.846012
11
1.733454
21
61.599985
0
LINE
8
Layer 1
10
1.733454
20
61.599985
11
1.099378
21
62.409334
0
LINE
8
Layer 1
10
1.099378
20
62.409334
11
0.904095
21
63.046882
0
LINE
8
Layer 1
10
0.904095
20
63.046882
11
1.320433
21
63.602241
0
LINE
8
Layer 1
10
1.320433
20
63.602241
11
2.200553
21
64.343341
0
LINE
8
Layer 1
10
2.200553
20
64.343341
11
3.417637
21
65.225285
0
LINE
8
Layer 1
10
3.417637
20
65.225285
11
3.417637
21
65.225285
0
LINE
8
Layer 1
10
206.582360
20
65.225285
11
207.799443
21
64.343341
0
LINE
8
Layer 1
10
207.799443
20
64.343341
11
208.679567
21
63.602241
0
LINE
8
Layer 1
10
208.679567
20
63.602241
11
209.095902
21
63.046882
0
LINE
8
Layer 1
10
209.095902
20
63.046882
11
208.900620
21
62.409334
0
LINE
8
Layer 1
10
208.900620
20
62.409334
11
208.266545
21
61.599985
0
LINE
8
Layer 1
10
208.266545
20
61.599985
11
207.409944
21
60.846012
0
LINE
8
Layer 1
10
207.409944
20
60.846012
11
206.547082
21
60.374591
0
LINE
8
Layer 1
10
206.547082
20
60.374591
11
204.718906
21
60.065831
0
LINE
8
Layer 1
10
204.718906
20
60.065831
11
203.010485
21
60.198202
0
LINE
8
Layer 1
10
203.010485
20
60.198202
11
202.486648
21
60.542832
0
LINE
8
Layer 1
10
202.486648
20
60.542832
11
202.398546
21
61.146254
0
LINE
8
Layer 1
10
202.398546
20
61.146254
11
202.737681
21
61.961362
0
LINE
8
Layer 1
10
202.737681
20
61.961362
11
203.495554
21
62.941049
0
LINE
8
Layer 1
10
203.495554
20
62.941049
11
204.572313
21
63.954922
0
LINE
8
Layer 1
10
204.572313
20
63.954922
11
205.594582
21
64.687299
0
LINE
8
Layer 1
10
205.594582
20
64.687299
11
206.582360
21
65.225285
0
LINE
8
Layer 1
10
206.582360
20
65.225285
11
206.582360
21
65.225285
0
LINE
8
Layer 1
10
16.673262
20
62.570632
11
16.955484
21
62.570632
0
LINE
8
Layer 1
10
16.955484
20
62.570632
11
18.102012
21
62.517716
0
LINE
8
Layer 1
10
18.102012
20
62.517716
11
19.923894
21
62.280172
0
LINE
8
Layer 1
10
19.923894
20
62.280172
11
20.427552
21
61.992005
0
LINE
8
Layer 1
10
20.427552
20
61.992005
11
20.924234
21
61.494660
0
LINE
8
Layer 1
10
20.924234
20
61.494660
11
21.497738
21
60.644474
0
LINE
8
Layer 1
10
21.497738
20
60.644474
11
21.735623
21
59.880702
0
LINE
8
Layer 1
10
21.735623
20
59.880702
11
21.701139
21
59.496338
0
LINE
8
Layer 1
10
21.701139
20
59.496338
11
21.531954
21
59.286478
0
LINE
8
Layer 1
10
21.531954
20
59.286478
11
20.395067
21
59.192785
0
LINE
8
Layer 1
10
20.395067
20
59.192785
11
18.348956
21
59.492646
0
LINE
8
Layer 1
10
18.348956
20
59.492646
11
17.532263
21
59.953901
0
LINE
8
Layer 1
10
17.532263
20
59.953901
11
16.807698
21
60.599074
0
LINE
8
Layer 1
10
16.807698
20
60.599074
11
16.289317
21
61.303984
0
LINE
8
Layer 1
10
16.289317
20
61.303984
11
16.091178
21
61.944452
0
LINE
8
Layer 1
10
16.091178
20
61.944452
11
16.169121
21
62.413525
0
LINE
8
Layer 1
10
16.169121
20
62.413525
11
16.673262
21
62.570632
0
LINE
8
Layer 1
10
16.673262
20
62.570632
11
16.673262
21
62.570632
0
LINE
8
Layer 1
10
193.044513
20
62.570632
11
193.792357
21
62.450928
0
LINE
8
Layer 1
10
193.792357
20
62.450928
11
193.908818
21
61.944452
0
LINE
8
Layer 1
10
193.908818
20
61.944452
11
193.710681
21
61.303984
0
LINE
8
Layer 1
10
193.710681
20
61.303984
11
193.192303
21
60.599074
0
LINE
8
Layer 1
10
193.192303
20
60.599074
11
192.467737
21
59.953901
0
LINE
8
Layer 1
10
192.467737
20
59.953901
11
191.651041
21
59.492646
0
LINE
8
Layer 1
10
191.651041
20
59.492646
11
189.604929
21
59.192785
0
LINE
8
Layer 1
10
189.604929
20
59.192785
11
188.468046
21
59.286478
0
LINE
8
Layer 1
10
188.468046
20
59.286478
11
188.298861
21
59.496338
0
LINE
8
Layer 1
10
188.298861
20
59.496338
11
188.264374
21
59.880702
0
LINE
8
Layer 1
10
188.264374
20
59.880702
11
188.502262
21
60.644474
0
LINE
8
Layer 1
10
188.502262
20
60.644474
11
189.075763
21
61.494660
0
LINE
8
Layer 1
10
189.075763
20
61.494660
11
189.572445
21
61.992005
0
LINE
8
Layer 1
10
189.572445
20
61.992005
11
190.076106
21
62.280172
0
LINE
8
Layer 1
10
190.076106
20
62.280172
11
191.897985
21
62.517716
0
LINE
8
Layer 1
10
191.897985
20
62.517716
11
193.044513
21
62.570632
0
LINE
8
Layer 1
10
193.044513
20
62.570632
11
193.044513
21
62.570632
0
LINE
8
Layer 1
10
30.334582
20
58.328479
11
31.189969
21
58.237182
0
LINE
8
Layer 1
10
31.189969
20
58.237182
11
31.897048
21
57.982545
0
LINE
8
Layer 1
10
31.897048
20
57.982545
11
32.441162
21
57.593450
0
LINE
8
Layer 1
10
32.441162
20
57.593450
11
32.807657
21
57.098778
0
LINE
8
Layer 1
10
32.807657
20
57.098778
11
32.981874
21
56.527411
0
LINE
8
Layer 1
10
32.981874
20
56.527411
11
32.949159
21
55.908229
0
LINE
8
Layer 1
10
32.949159
20
55.908229
11
32.694854
21
55.270116
0
LINE
8
Layer 1
10
32.694854
20
55.270116
11
32.204304
21
54.641952
0
LINE
8
Layer 1
10
32.204304
20
54.641952
11
31.307582
21
54.038936
0
LINE
8
Layer 1
10
31.307582
20
54.038936
11
30.234146
21
53.807059
0
LINE
8
Layer 1
10
30.234146
20
53.807059
11
29.045564
21
53.948531
0
LINE
8
Layer 1
10
29.045564
20
53.948531
11
27.803400
21
54.465563
0
LINE
8
Layer 1
10
27.803400
20
54.465563
11
27.052936
21
55.037710
0
LINE
8
Layer 1
10
27.052936
20
55.037710
11
26.661011
21
55.665953
0
LINE
8
Layer 1
10
26.661011
20
55.665953
11
26.600765
21
56.309491
0
LINE
8
Layer 1
10
26.600765
20
56.309491
11
26.845337
21
56.927520
0
LINE
8
Layer 1
10
26.845337
20
56.927520
11
27.367866
21
57.479237
0
LINE
8
Layer 1
10
27.367866
20
57.479237
11
28.141491
21
57.923838
0
LINE
8
Layer 1
10
28.141491
20
57.923838
11
29.139350
21
58.220520
0
LINE
8
Layer 1
10
29.139350
20
58.220520
11
30.334582
21
58.328479
0
LINE
8
Layer 1
10
30.334582
20
58.328479
11
30.334582
21
58.328479
0
LINE
8
Layer 1
10
179.665416
20
58.328479
11
180.860648
21
58.220520
0
LINE
8
Layer 1
10
180.860648
20
58.220520
11
181.858507
21
57.923838
0
LINE
8
Layer 1
10
181.858507
20
57.923838
11
182.632133
21
57.479237
0
LINE
8
Layer 1
10
182.632133
20
57.479237
11
183.154663
21
56.927520
0
LINE
8
Layer 1
10
183.154663
20
56.927520
11
183.399235
21
56.309491
0
LINE
8
Layer 1
10
183.399235
20
56.309491
11
183.338989
21
55.665953
0
LINE
8
Layer 1
10
183.338989
20
55.665953
11
182.947063
21
55.037710
0
LINE
8
Layer 1
10
182.947063
20
55.037710
11
182.196596
21
54.465563
0
LINE
8
Layer 1
10
182.196596
20
54.465563
11
180.954435
21
53.948531
0
LINE
8
Layer 1
10
180.954435
20
53.948531
11
179.765855
21
53.807059
0
LINE
8
Layer 1
10
179.765855
20
53.807059
11
178.692420
21
54.038936
0
LINE
8
Layer 1
10
178.692420
20
54.038936
11
177.795693
21
54.641952
0
LINE
8
Layer 1
10
177.795693
20
54.641952
11
177.305144
21
55.270116
0
LINE
8
Layer 1
10
177.305144
20
55.270116
11
177.050840
21
55.908229
0
LINE
8
Layer 1
10
177.050840
20
55.908229
11
177.018126
21
56.527411
0
LINE
8
Layer 1
10
177.018126
20
56.527411
11
177.192344
21
57.098778
0
LINE
8
Layer 1
10
177.192344
20
57.098778
11
177.558839
21
57.593450
0
LINE
8
Layer 1
10
177.558839
20
57.593450
11
178.102954
21
57.982545
0
LINE
8
Layer 1
10
178.102954
20
57.982545
11
178.810031
21
58.237182
0
LINE
8
Layer 1
10
178.810031
20
58.237182
11
179.665416
21
58.328479
0
LINE
8
Layer 1
10
179.665416
20
58.328479
11
179.665416
21
58.328479
0
LINE
8
Layer 1
10
14.097984
20
57.481813
11
14.572383
21
57.385434
0
LINE
8
Layer 1
10
14.572383
20
57.385434
11
15.085765
21
57.119950
0
LINE
8
Layer 1
10
15.085765
20
57.119950
11
16.103430
21
56.223599
0
LINE
8
Layer 1
10
16.103430
20
56.223599
11
16.898893
21
55.076616
0
LINE
8
Layer 1
10
16.898893
20
55.076616
11
17.220067
21
53.962854
0
LINE
8
Layer 1
10
17.220067
20
53.962854
11
17.220067
21
52.966257
0
LINE
8
Layer 1
10
17.220067
20
52.966257
11
15.879512
21
52.983896
0
LINE
8
Layer 1
10
15.879512
20
52.983896
11
14.777328
21
53.112141
0
LINE
8
Layer 1
10
14.777328
20
53.112141
11
13.718289
21
53.464743
0
LINE
8
Layer 1
10
13.718289
20
53.464743
11
12.741060
21
54.024508
0
LINE
8
Layer 1
10
12.741060
20
54.024508
11
11.884303
21
54.774243
0
LINE
8
Layer 1
10
11.884303
20
54.774243
11
11.381070
21
55.502538
0
LINE
8
Layer 1
10
11.381070
20
55.502538
11
11.531525
21
56.220632
0
LINE
8
Layer 1
10
11.531525
20
56.220632
11
11.909690
21
56.747619
0
LINE
8
Layer 1
10
11.909690
20
56.747619
11
12.486608
21
57.144493
0
LINE
8
Layer 1
10
12.486608
20
57.144493
11
13.227599
21
57.394731
0
LINE
8
Layer 1
10
13.227599
20
57.394731
11
14.097984
21
57.481813
0
LINE
8
Layer 1
10
14.097984
20
57.481813
11
14.097984
21
57.481813
0
LINE
8
Layer 1
10
195.902013
20
57.481813
11
196.772399
21
57.394731
0
LINE
8
Layer 1
10
196.772399
20
57.394731
11
197.513392
21
57.144493
0
LINE
8
Layer 1
10
197.513392
20
57.144493
11
198.090310
21
56.747619
0
LINE
8
Layer 1
10
198.090310
20
56.747619
11
198.468471
21
56.220632
0
LINE
8
Layer 1
10
198.468471
20
56.220632
11
198.618930
21
55.502538
0
LINE
8
Layer 1
10
198.618930
20
55.502538
11
198.115693
21
54.774243
0
LINE
8
Layer 1
10
198.115693
20
54.774243
11
197.258938
21
54.024508
0
LINE
8
Layer 1
10
197.258938
20
54.024508
11
196.281711
21
53.464743
0
LINE
8
Layer 1
10
196.281711
20
53.464743
11
195.222673
21
53.112141
0
LINE
8
Layer 1
10
195.222673
20
53.112141
11
194.120485
21
52.983896
0
LINE
8
Layer 1
10
194.120485
20
52.983896
11
192.779929
21
52.966257
0
LINE
8
Layer 1
10
192.779929
20
52.966257
11
192.779929
21
53.962854
0
LINE
8
Layer 1
10
192.779929
20
53.962854
11
193.101106
21
55.076616
0
LINE
8
Layer 1
10
193.101106
20
55.076616
11
193.896571
21
56.223599
0
LINE
8
Layer 1
10
193.896571
20
56.223599
11
194.914236
21
57.119950
0
LINE
8
Layer 1
10
194.914236
20
57.119950
11
195.427616
21
57.385434
0
LINE
8
Layer 1
10
195.427616
20
57.385434
11
195.902013
21
57.481813
0
LINE
8
Layer 1
10
195.902013
20
57.481813
11
195.902013
21
57.481813
0
LINE
8
Layer 1
10
38.836527
20
55.515077
11
41.048359
21
55.378967
0
LINE
8
Layer 1
10
41.048359
20
55.378967
11
42.778818
21
54.977091
0
LINE
8
Layer 1
10
42.778818
20
54.977091
11
44.141423
21
54.064760
0
LINE
8
Layer 1
10
44.141423
20
54.064760
11
45.181694
21
52.868670
0
LINE
8
Layer 1
10
45.181694
20
52.868670
11
45.679780
21
51.723579
0
LINE
8
Layer 1
10
45.679780
20
51.723579
11
45.656801
21
51.274769
0
LINE
8
Layer 1
10
45.656801
20
51.274769
11
45.415832
21
50.964243
0
LINE
8
Layer 1
10
45.415832
20
50.964243
11
44.877846
21
50.752577
0
LINE
8
Layer 1
10
44.877846
20
50.752577
11
43.466735
21
50.999521
0
LINE
8
Layer 1
10
43.466735
20
50.999521
11
42.034736
21
51.334344
0
LINE
8
Layer 1
10
42.034736
20
51.334344
11
40.646635
21
51.814871
0
LINE
8
Layer 1
10
40.646635
20
51.814871
11
38.272114
21
53.034572
0
LINE
8
Layer 1
10
38.272114
20
53.034572
11
37.420689
21
53.684515
0
LINE
8
Layer 1
10
37.420689
20
53.684515
11
36.883150
21
54.301696
0
LINE
8
Layer 1
10
36.883150
20
54.301696
11
36.726995
21
54.841501
0
LINE
8
Layer 1
10
36.726995
20
54.841501
11
37.019721
21
55.259313
0
LINE
8
Layer 1
10
37.019721
20
55.259313
11
37.714423
21
55.449597
0
LINE
8
Layer 1
10
37.714423
20
55.449597
11
38.836527
21
55.515077
0
LINE
8
Layer 1
10
38.836527
20
55.515077
11
38.836527
21
55.515077
0
LINE
8
Layer 1
10
171.163471
20
55.515077
11
172.285578
21
55.449597
0
LINE
8
Layer 1
10
172.285578
20
55.449597
11
172.980277
21
55.259313
0
LINE
8
Layer 1
10
172.980277
20
55.259313
11
173.273003
21
54.841501
0
LINE
8
Layer 1
10
173.273003
20
54.841501
11
173.116849
21
54.301696
0
LINE
8
Layer 1
10
173.116849
20
54.301696
11
172.579311
21
53.684515
0
LINE
8
Layer 1
10
172.579311
20
53.684515
11
171.727887
21
53.034572
0
LINE
8
Layer 1
10
171.727887
20
53.034572
11
169.353367
21
51.814871
0
LINE
8
Layer 1
10
169.353367
20
51.814871
11
167.965264
21
51.334344
0
LINE
8
Layer 1
10
167.965264
20
51.334344
11
166.533263
21
50.999521
0
LINE
8
Layer 1
10
166.533263
20
50.999521
11
165.122152
21
50.752577
0
LINE
8
Layer 1
10
165.122152
20
50.752577
11
164.584166
21
50.964243
0
LINE
8
Layer 1
10
164.584166
20
50.964243
11
164.343197
21
51.274769
0
LINE
8
Layer 1
10
164.343197
20
51.274769
11
164.320219
21
51.723579
0
LINE
8
Layer 1
10
164.320219
20
51.723579
11
164.818307
21
52.868670
0
LINE
8
Layer 1
10
164.818307
20
52.868670
11
165.858578
21
54.064760
0
LINE
8
Layer 1
10
165.858578
20
54.064760
11
167.221179
21
54.977091
0
LINE
8
Layer 1
10
167.221179
20
54.977091
11
168.951642
21
55.378967
0
LINE
8
Layer 1
10
168.951642
20
55.378967
11
171.163471
21
55.515077
0
LINE
8
Layer 1
10
171.163471
20
55.515077
11
171.163471
21
55.515077
0
LINE
8
Layer 1
10
53.679652
20
53.151466
11
54.332291
21
53.072091
0
LINE
8
Layer 1
10
54.332291
20
53.072091
11
54.739963
21
52.809311
0
LINE
8
Layer 1
10
54.739963
20
52.809311
11
55.074083
21
52.390434
0
LINE
8
Layer 1
10
55.074083
20
52.390434
11
55.487468
21
51.267670
0
LINE
8
Layer 1
10
55.487468
20
51.267670
11
55.504064
21
50.070363
0
LINE
8
Layer 1
10
55.504064
20
50.070363
11
55.342195
21
49.558307
0
LINE
8
Layer 1
10
55.342195
20
49.558307
11
55.055485
21
49.165077
0
LINE
8
Layer 1
10
55.055485
20
49.165077
11
54.507563
21
48.817640
0
LINE
8
Layer 1
10
54.507563
20
48.817640
11
53.825292
21
48.615073
0
LINE
8
Layer 1
10
53.825292
20
48.615073
11
52.229395
21
48.617598
0
LINE
8
Layer 1
10
52.229395
20
48.617598
11
50.611178
21
49.118758
0
LINE
8
Layer 1
10
50.611178
20
49.118758
11
49.901008
21
49.539484
0
LINE
8
Layer 1
10
49.901008
20
49.539484
11
49.314027
21
50.064660
0
LINE
8
Layer 1
10
49.314027
20
50.064660
11
49.052979
21
50.403644
0
LINE
8
Layer 1
10
49.052979
20
50.403644
11
49.033842
21
50.687661
0
LINE
8
Layer 1
10
49.033842
20
50.687661
11
49.922568
21
51.625702
0
LINE
8
Layer 1
10
49.922568
20
51.625702
11
50.740000
21
52.208796
0
LINE
8
Layer 1
10
50.740000
20
52.208796
11
51.728231
21
52.686887
0
LINE
8
Layer 1
10
51.728231
20
52.686887
11
52.752901
21
53.015826
0
LINE
8
Layer 1
10
52.752901
20
53.015826
11
53.679652
21
53.151466
0
LINE
8
Layer 1
10
53.679652
20
53.151466
11
53.679652
21
53.151466
0
LINE
8
Layer 1
10
156.320346
20
53.151466
11
157.247097
21
53.015826
0
LINE
8
Layer 1
10
157.247097
20
53.015826
11
158.271770
21
52.686887
0
LINE
8
Layer 1
10
158.271770
20
52.686887
11
159.260001
21
52.208796
0
LINE
8
Layer 1
10
159.260001
20
52.208796
11
160.077429
21
51.625702
0
LINE
8
Layer 1
10
160.077429
20
51.625702
11
160.966158
21
50.687661
0
LINE
8
Layer 1
10
160.966158
20
50.687661
11
160.947022
21
50.403644
0
LINE
8
Layer 1
10
160.947022
20
50.403644
11
160.685971
21
50.064660
0
LINE
8
Layer 1
10
160.685971
20
50.064660
11
160.098990
21
49.539484
0
LINE
8
Layer 1
10
160.098990
20
49.539484
11
159.388821
21
49.118758
0
LINE
8
Layer 1
10
159.388821
20
49.118758
11
157.770606
21
48.617598
0
LINE
8
Layer 1
10
157.770606
20
48.617598
11
156.174709
21
48.615073
0
LINE
8
Layer 1
10
156.174709
20
48.615073
11
155.492437
21
48.817640
0
LINE
8
Layer 1
10
155.492437
20
48.817640
11
154.944513
21
49.165077
0
LINE
8
Layer 1
10
154.944513
20
49.165077
11
154.657803
21
49.558307
0
LINE
8
Layer 1
10
154.657803
20
49.558307
11
154.495935
21
50.070363
0
LINE
8
Layer 1
10
154.495935
20
50.070363
11
154.512532
21
51.267670
0
LINE
8
Layer 1
10
154.512532
20
51.267670
11
154.925919
21
52.390434
0
LINE
8
Layer 1
10
154.925919
20
52.390434
11
155.260037
21
52.809311
0
LINE
8
Layer 1
10
155.260037
20
52.809311
11
155.667707
21
53.072091
0
LINE
8
Layer 1
10
155.667707
20
53.072091
11
156.320346
21
53.151466
0
LINE
8
Layer 1
10
156.320346
20
53.151466
11
156.320346
21
53.151466
0
LINE
8
Layer 1
10
24.390275
20
51.652160
11
25.739650
21
51.519868
0
LINE
8
Layer 1
10
25.739650
20
51.519868
11
26.921553
21
51.113123
0
LINE
8
Layer 1
10
26.921553
20
51.113123
11
27.904878
21
50.480933
0
LINE
8
Layer 1
10
27.904878
20
50.480933
11
28.590520
21
49.706752
0
LINE
8
Layer 1
10
28.590520
20
49.706752
11
28.879374
21
48.874035
0
LINE
8
Layer 1
10
28.879374
20
48.874035
11
28.822922
21
48.306541
0
LINE
8
Layer 1
10
28.822922
20
48.306541
11
28.514407
21
48.013956
0
LINE
8
Layer 1
10
28.514407
20
48.013956
11
27.892282
21
47.972816
0
LINE
8
Layer 1
10
27.892282
20
47.972816
11
26.894998
21
48.159660
0
LINE
8
Layer 1
10
26.894998
20
48.159660
11
25.836624
21
48.532340
0
LINE
8
Layer 1
10
25.836624
20
48.532340
11
24.892448
21
49.102639
0
LINE
8
Layer 1
10
24.892448
20
49.102639
11
24.078626
21
49.858497
0
LINE
8
Layer 1
10
24.078626
20
49.858497
11
23.411317
21
50.787854
0
LINE
8
Layer 1
10
23.411317
20
50.787854
11
23.324465
21
51.128395
0
LINE
8
Layer 1
10
23.324465
20
51.128395
11
23.479688
21
51.392476
0
LINE
8
Layer 1
10
23.479688
20
51.392476
11
24.390275
21
51.652160
0
LINE
8
Layer 1
10
24.390275
20
51.652160
11
24.390275
21
51.652160
0
LINE
8
Layer 1
10
185.309860
20
51.652160
11
185.609721
21
51.652160
0
LINE
8
Layer 1
10
185.609721
20
51.652160
11
186.520312
21
51.392476
0
LINE
8
Layer 1
10
186.520312
20
51.392476
11
186.675536
21
51.128395
0
LINE
8
Layer 1
10
186.675536
20
51.128395
11
186.588679
21
50.787854
0
LINE
8
Layer 1
10
186.588679
20
50.787854
11
185.921372
21
49.858497
0
LINE
8
Layer 1
10
185.921372
20
49.858497
11
185.107552
21
49.102639
0
LINE
8
Layer 1
10
185.107552
20
49.102639
11
184.163376
21
48.532340
0
LINE
8
Layer 1
10
184.163376
20
48.532340
11
183.104999
21
48.159660
0
LINE
8
Layer 1
10
183.104999
20
48.159660
11
182.107717
21
47.972816
0
LINE
8
Layer 1
10
182.107717
20
47.972816
11
181.485593
21
48.013956
0
LINE
8
Layer 1
10
181.485593
20
48.013956
11
181.177079
21
48.306541
0
LINE
8
Layer 1
10
181.177079
20
48.306541
11
181.120624
21
48.874035
0
LINE
8
Layer 1
10
181.120624
20
48.874035
11
181.409479
21
49.706752
0
LINE
8
Layer 1
10
181.409479
20
49.706752
11
182.095123
21
50.480933
0
LINE
8
Layer 1
10
182.095123
20
50.480933
11
183.078448
21
51.113123
0
LINE
8
Layer 1
10
183.078448
20
51.113123
11
184.260346
21
51.519868
0
LINE
8
Layer 1
10
184.260346
20
51.519868
11
185.309860
21
51.652160
0
LINE
8
Layer 1
10
185.309860
20
51.652160
11
185.309860
21
51.652160
0
LINE
8
Layer 1
10
38.783610
20
48.406604
11
39.886041
21
48.336049
0
LINE
8
Layer 1
10
39.886041
20
48.336049
11
40.581435
21
48.205493
0
LINE
8
Layer 1
10
40.581435
20
48.205493
11
40.993729
21
48.016047
0
LINE
8
Layer 1
10
40.993729
20
48.016047
11
41.233619
21
47.677921
0
LINE
8
Layer 1
10
41.233619
20
47.677921
11
41.411804
21
47.101327
0
LINE
8
Layer 1
10
41.411804
20
47.101327
11
41.561735
21
45.699035
0
LINE
8
Layer 1
10
41.561735
20
45.699035
11
41.018638
21
45.411574
0
LINE
8
Layer 1
10
41.018638
20
45.411574
11
39.917163
21
45.350425
0
LINE
8
Layer 1
10
39.917163
20
45.350425
11
38.643581
21
45.501063
0
LINE
8
Layer 1
10
38.643581
20
45.501063
11
37.584166
21
45.848966
0
LINE
8
Layer 1
10
37.584166
20
45.848966
11
36.888944
21
46.353894
0
LINE
8
Layer 1
10
36.888944
20
46.353894
11
36.277138
21
47.006868
0
LINE
8
Layer 1
10
36.277138
20
47.006868
11
35.893307
21
47.623286
0
LINE
8
Layer 1
10
35.893307
20
47.623286
11
35.882013
21
48.018549
0
LINE
8
Layer 1
10
35.882013
20
48.018549
11
36.958466
21
48.301418
0
LINE
8
Layer 1
10
36.958466
20
48.301418
11
38.783610
21
48.406604
0
LINE
8
Layer 1
10
38.783610
20
48.406604
11
38.783610
21
48.406604
0
LINE
8
Layer 1
10
171.216388
20
48.406604
11
173.041535
21
48.301418
0
LINE
8
Layer 1
10
173.041535
20
48.301418
11
174.117985
21
48.018549
0
LINE
8
Layer 1
10
174.117985
20
48.018549
11
174.106692
21
47.623286
0
LINE
8
Layer 1
10
174.106692
20
47.623286
11
173.722863
21
47.006868
0
LINE
8
Layer 1
10
173.722863
20
47.006868
11
173.111057
21
46.353894
0
LINE
8
Layer 1
10
173.111057
20
46.353894
11
172.415832
21
45.848966
0
LINE
8
Layer 1
10
172.415832
20
45.848966
11
171.356418
21
45.501063
0
LINE
8
Layer 1
10
171.356418
20
45.501063
11
170.082838
21
45.350425
0
LINE
8
Layer 1
10
170.082838
20
45.350425
11
168.981363
21
45.411574
0
LINE
8
Layer 1
10
168.981363
20
45.411574
11
168.438263
21
45.699035
0
LINE
8
Layer 1
10
168.438263
20
45.699035
11
168.588193
21
47.101327
0
LINE
8
Layer 1
10
168.588193
20
47.101327
11
168.766380
21
47.677921
0
LINE
8
Layer 1
10
168.766380
20
47.677921
11
169.006272
21
48.016047
0
LINE
8
Layer 1
10
169.006272
20
48.016047
11
169.418566
21
48.205493
0
LINE
8
Layer 1
10
169.418566
20
48.205493
11
170.113957
21
48.336049
0
LINE
8
Layer 1
10
170.113957
20
48.336049
11
171.216388
21
48.406604
0
LINE
8
Layer 1
10
171.216388
20
48.406604
11
171.216388
21
48.406604
0
LINE
8
Layer 1
10
58.627360
20
47.013132
11
60.673484
21
46.907918
0
LINE
8
Layer 1
10
60.673484
20
46.907918
11
61.411060
21
46.759396
0
LINE
8
Layer 1
10
61.411060
20
46.759396
11
61.740624
21
46.563341
0
LINE
8
Layer 1
10
61.740624
20
46.563341
11
61.542095
21
46.143481
0
LINE
8
Layer 1
10
61.542095
20
46.143481
11
60.761175
21
45.696427
0
LINE
8
Layer 1
10
60.761175
20
45.696427
11
59.506456
21
45.268315
0
LINE
8
Layer 1
10
59.506456
20
45.268315
11
57.886527
21
44.905285
0
LINE
8
Layer 1
10
57.886527
20
44.905285
11
55.227295
21
44.531893
0
LINE
8
Layer 1
10
55.227295
20
44.531893
11
54.649451
21
44.570513
0
LINE
8
Layer 1
10
54.649451
20
44.570513
11
54.473402
21
44.755354
0
LINE
8
Layer 1
10
54.473402
20
44.755354
11
54.798589
21
45.280216
0
LINE
8
Layer 1
10
54.798589
20
45.280216
11
55.581632
21
45.956940
0
LINE
8
Layer 1
10
55.581632
20
45.956940
11
56.533754
21
46.570858
0
LINE
8
Layer 1
10
56.533754
20
46.570858
11
57.366179
21
46.907299
0
LINE
8
Layer 1
10
57.366179
20
46.907299
11
58.627360
21
47.013132
0
LINE
8
Layer 1
10
58.627360
20
47.013132
11
58.627360
21
47.013132
0
LINE
8
Layer 1
10
150.834652
20
47.013132
11
151.372638
21
47.013132
0
LINE
8
Layer 1
10
151.372638
20
47.013132
11
152.633818
21
46.907299
0
LINE
8
Layer 1
10
152.633818
20
46.907299
11
153.466245
21
46.570858
0
LINE
8
Layer 1
10
153.466245
20
46.570858
11
154.418369
21
45.956940
0
LINE
8
Layer 1
10
154.418369
20
45.956940
11
155.201413
21
45.280216
0
LINE
8
Layer 1
10
155.201413
20
45.280216
11
155.526596
21
44.755354
0
LINE
8
Layer 1
10
155.526596
20
44.755354
11
155.350547
21
44.570513
0
LINE
8
Layer 1
10
155.350547
20
44.570513
11
154.772706
21
44.531893
0
LINE
8
Layer 1
10
154.772706
20
44.531893
11
152.113471
21
44.905285
0
LINE
8
Layer 1
10
152.113471
20
44.905285
11
150.493543
21
45.268315
0
LINE
8
Layer 1
10
150.493543
20
45.268315
11
149.238826
21
45.696427
0
LINE
8
Layer 1
10
149.238826
20
45.696427
11
148.457907
21
46.143481
0
LINE
8
Layer 1
10
148.457907
20
46.143481
11
148.259374
21
46.563341
0
LINE
8
Layer 1
10
148.259374
20
46.563341
11
148.521127
21
46.736999
0
LINE
8
Layer 1
10
148.521127
20
46.736999
11
149.109746
21
46.875156
0
LINE
8
Layer 1
10
149.109746
20
46.875156
11
150.834652
21
47.013132
0
LINE
8
Layer 1
10
150.834652
20
47.013132
11
150.834652
21
47.013132
0
LINE
8
Layer 1
10
49.560971
20
46.157646
11
50.243475
21
46.124326
0
LINE
8
Layer 1
10
50.243475
20
46.124326
11
50.760416
21
45.945979
0
LINE
8
Layer 1
10
50.760416
20
45.945979
11
50.948050
21
45.412874
0
LINE
8
Layer 1
10
50.948050
20
45.412874
11
50.793136
21
44.520995
0
LINE
8
Layer 1
10
50.793136
20
44.520995
11
50.392556
21
43.587546
0
LINE
8
Layer 1
10
50.392556
20
43.587546
11
49.843193
21
42.929729
0
LINE
8
Layer 1
10
49.843193
20
42.929729
11
49.407872
21
42.643168
0
LINE
8
Layer 1
10
49.407872
20
42.643168
11
49.060803
21
42.578096
0
LINE
8
Layer 1
10
49.060803
20
42.578096
11
47.770624
21
43.247229
0
LINE
8
Layer 1
10
47.770624
20
43.247229
11
47.029540
21
43.732758
0
LINE
8
Layer 1
10
47.029540
20
43.732758
11
46.669442
21
44.124284
0
LINE
8
Layer 1
10
46.669442
20
44.124284
11
46.632835
21
44.533689
0
LINE
8
Layer 1
10
46.632835
20
44.533689
11
46.862221
21
45.072854
0
LINE
8
Layer 1
10
46.862221
20
45.072854
11
47.262588
21
45.477818
0
LINE
8
Layer 1
10
47.262588
20
45.477818
11
47.923820
21
45.811652
0
LINE
8
Layer 1
10
47.923820
20
45.811652
11
49.560971
21
46.157646
0
LINE
8
Layer 1
10
49.560971
20
46.157646
11
49.560971
21
46.157646
0
LINE
8
Layer 1
10
160.077429
20
46.157646
11
160.439027
21
46.157646
0
LINE
8
Layer 1
10
160.439027
20
46.157646
11
162.076180
21
45.811652
0
LINE
8
Layer 1
10
162.076180
20
45.811652
11
162.737413
21
45.477818
0
LINE
8
Layer 1
10
162.737413
20
45.477818
11
163.137777
21
45.072854
0
LINE
8
Layer 1
10
163.137777
20
45.072854
11
163.367164
21
44.533689
0
LINE
8
Layer 1
10
163.367164
20
44.533689
11
163.330559
21
44.124284
0
LINE
8
Layer 1
10
163.330559
20
44.124284
11
162.970462
21
43.732758
0
LINE
8
Layer 1
10
162.970462
20
43.732758
11
162.229374
21
43.247229
0
LINE
8
Layer 1
10
162.229374
20
43.247229
11
160.939198
21
42.578096
0
LINE
8
Layer 1
10
160.939198
20
42.578096
11
160.592129
21
42.643168
0
LINE
8
Layer 1
10
160.592129
20
42.643168
11
160.156804
21
42.929729
0
LINE
8
Layer 1
10
160.156804
20
42.929729
11
159.607443
21
43.587546
0
LINE
8
Layer 1
10
159.607443
20
43.587546
11
159.206865
21
44.520995
0
LINE
8
Layer 1
10
159.206865
20
44.520995
11
159.051952
21
45.412874
0
LINE
8
Layer 1
10
159.051952
20
45.412874
11
159.239582
21
45.945979
0
LINE
8
Layer 1
10
159.239582
20
45.945979
11
160.077429
21
46.157646
0
LINE
8
Layer 1
10
160.077429
20
46.157646
11
160.077429
21
46.157646
 0 
ENDSEC
 0 
EOF
