999
"DXF R12 Output" (www.mydxf.blogspot.com)
 0 
SECTION
 2 
HEADER
 9 
$ACADVER
 1 
AC1009
 9 
$EXTMIN
 10 
 0 
 20 
 0 
 9 
$EXTMAX
 10 
 8.5 
 20 
 11 
 0 
ENDSEC
 0 
SECTION
 2 
ENTITIES
0
LINE
8
Layer 1
10
213.492292
20
344.563264
11
208.384335
21
344.387243
0
LINE
8
Layer 1
10
208.384335
20
344.387243
11
203.345071
21
343.968207
0
LINE
8
Layer 1
10
203.345071
20
343.968207
11
198.372817
21
343.305618
0
LINE
8
Layer 1
10
198.372817
20
343.305618
11
193.465887
21
342.398938
0
LINE
8
Layer 1
10
193.465887
20
342.398938
11
188.622598
21
341.247632
0
LINE
8
Layer 1
10
188.622598
20
341.247632
11
183.841265
21
339.851159
0
LINE
8
Layer 1
10
183.841265
20
339.851159
11
179.120204
21
338.208984
0
LINE
8
Layer 1
10
179.120204
20
338.208984
11
174.457731
21
336.320569
0
LINE
8
Layer 1
10
174.457731
20
336.320569
11
169.852162
21
334.185376
0
LINE
8
Layer 1
10
169.852162
20
334.185376
11
165.301812
21
331.802868
0
LINE
8
Layer 1
10
165.301812
20
331.802868
11
160.804997
21
329.172507
0
LINE
8
Layer 1
10
160.804997
20
329.172507
11
156.360033
21
326.293755
0
LINE
8
Layer 1
10
156.360033
20
326.293755
11
151.965236
21
323.166076
0
LINE
8
Layer 1
10
151.965236
20
323.166076
11
147.618920
21
319.788932
0
LINE
8
Layer 1
10
147.618920
20
319.788932
11
143.319403
21
316.161785
0
LINE
8
Layer 1
10
143.319403
20
316.161785
11
139.065000
21
312.284097
0
LINE
8
Layer 1
10
139.065000
20
312.284097
11
134.958542
21
308.284595
0
LINE
8
Layer 1
10
134.958542
20
308.284595
11
131.396700
21
304.584648
0
LINE
8
Layer 1
10
131.396700
20
304.584648
11
128.553539
21
301.372012
0
LINE
8
Layer 1
10
128.553539
20
301.372012
11
126.603125
21
298.834444
0
LINE
8
Layer 1
10
126.603125
20
298.834444
11
124.249723
21
295.517671
0
LINE
8
Layer 1
10
124.249723
20
295.517671
11
122.978333
21
294.027847
0
LINE
8
Layer 1
10
122.978333
20
294.027847
11
122.550552
21
294.280865
0
LINE
8
Layer 1
10
122.550552
20
294.280865
11
121.756189
21
295.109817
0
LINE
8
Layer 1
10
121.756189
20
295.109817
11
119.521111
21
297.978958
0
LINE
8
Layer 1
10
119.521111
20
297.978958
11
116.733277
21
301.542920
0
LINE
8
Layer 1
10
116.733277
20
301.542920
11
113.293971
21
305.383958
0
LINE
8
Layer 1
10
113.293971
20
305.383958
11
109.350621
21
309.370178
0
LINE
8
Layer 1
10
109.350621
20
309.370178
11
105.050653
21
313.369683
0
LINE
8
Layer 1
10
105.050653
20
313.369683
11
100.541493
21
317.250577
0
LINE
8
Layer 1
10
100.541493
20
317.250577
11
95.970567
21
320.880965
0
LINE
8
Layer 1
10
95.970567
20
320.880965
11
91.485302
21
324.128951
0
LINE
8
Layer 1
10
91.485302
20
324.128951
11
87.233125
21
326.862639
0
LINE
8
Layer 1
10
87.233125
20
326.862639
11
82.391480
21
329.552957
0
LINE
8
Layer 1
10
82.391480
20
329.552957
11
77.265756
21
332.034985
0
LINE
8
Layer 1
10
77.265756
20
332.034985
11
71.891341
21
334.296901
0
LINE
8
Layer 1
10
71.891341
20
334.296901
11
66.303618
21
336.326881
0
LINE
8
Layer 1
10
66.303618
20
336.326881
11
60.537973
21
338.113101
0
LINE
8
Layer 1
10
60.537973
20
338.113101
11
54.629792
21
339.643739
0
LINE
8
Layer 1
10
54.629792
20
339.643739
11
48.614459
21
340.906970
0
LINE
8
Layer 1
10
48.614459
20
340.906970
11
42.527361
21
341.890972
0
LINE
8
Layer 1
10
42.527361
20
341.890972
11
37.692176
21
342.416501
0
LINE
8
Layer 1
10
37.692176
20
342.416501
11
32.511807
21
342.726764
0
LINE
8
Layer 1
10
32.511807
20
342.726764
11
27.124661
21
342.826914
0
LINE
8
Layer 1
10
27.124661
20
342.826914
11
21.669143
21
342.722107
0
LINE
8
Layer 1
10
21.669143
20
342.722107
11
16.283658
21
342.417496
0
LINE
8
Layer 1
10
16.283658
20
342.417496
11
11.106612
21
341.918237
0
LINE
8
Layer 1
10
11.106612
20
341.918237
11
6.276410
21
341.229483
0
LINE
8
Layer 1
10
6.276410
20
341.229483
11
1.931458
21
340.356389
0
LINE
8
Layer 1
10
1.931458
20
340.356389
11
-4.726543
21
338.451162
0
LINE
8
Layer 1
10
-4.726543
20
338.451162
11
-12.020794
21
335.827645
0
LINE
8
Layer 1
10
-12.020794
20
335.827645
11
-19.178399
21
332.789594
0
LINE
8
Layer 1
10
-19.178399
20
332.789594
11
-25.426458
21
329.640764
0
LINE
8
Layer 1
10
-25.426458
20
329.640764
11
-28.807520
21
327.609991
0
LINE
8
Layer 1
10
-28.807520
20
327.609991
11
-32.220352
21
325.297174
0
LINE
8
Layer 1
10
-32.220352
20
325.297174
11
-35.630341
21
322.732004
0
LINE
8
Layer 1
10
-35.630341
20
322.732004
11
-39.002873
21
319.944170
0
LINE
8
Layer 1
10
-39.002873
20
319.944170
11
-42.303336
21
316.963362
0
LINE
8
Layer 1
10
-42.303336
20
316.963362
11
-45.497117
21
313.819271
0
LINE
8
Layer 1
10
-45.497117
20
313.819271
11
-48.549603
21
310.541587
0
LINE
8
Layer 1
10
-48.549603
20
310.541587
11
-51.426181
21
307.160000
0
LINE
8
Layer 1
10
-51.426181
20
307.160000
11
-54.774846
21
302.881558
0
LINE
8
Layer 1
10
-54.774846
20
302.881558
11
-57.363001
21
299.136110
0
LINE
8
Layer 1
10
-57.363001
20
299.136110
11
-59.650627
21
295.200141
0
LINE
8
Layer 1
10
-59.650627
20
295.200141
11
-62.097708
21
290.350139
0
LINE
8
Layer 1
10
-62.097708
20
290.350139
11
-64.840910
21
284.523194
0
LINE
8
Layer 1
10
-64.840910
20
284.523194
11
-67.044051
21
279.432000
0
LINE
8
Layer 1
10
-67.044051
20
279.432000
11
-68.781508
21
274.793813
0
LINE
8
Layer 1
10
-68.781508
20
274.793813
11
-70.127659
21
270.325887
0
LINE
8
Layer 1
10
-70.127659
20
270.325887
11
-71.156880
21
265.745475
0
LINE
8
Layer 1
10
-71.156880
20
265.745475
11
-71.943548
21
260.769833
0
LINE
8
Layer 1
10
-71.943548
20
260.769833
11
-72.562042
21
255.116215
0
LINE
8
Layer 1
10
-72.562042
20
255.116215
11
-73.086736
21
248.501875
0
LINE
8
Layer 1
10
-73.086736
20
248.501875
11
-73.229438
21
244.148047
0
LINE
8
Layer 1
10
-73.229438
20
244.148047
11
-73.077725
21
239.521605
0
LINE
8
Layer 1
10
-73.077725
20
239.521605
11
-72.642032
21
234.685354
0
LINE
8
Layer 1
10
-72.642032
20
234.685354
11
-71.932798
21
229.702102
0
LINE
8
Layer 1
10
-71.932798
20
229.702102
11
-70.960457
21
224.634655
0
LINE
8
Layer 1
10
-70.960457
20
224.634655
11
-69.735447
21
219.545819
0
LINE
8
Layer 1
10
-69.735447
20
219.545819
11
-68.268205
21
214.498401
0
LINE
8
Layer 1
10
-68.268205
20
214.498401
11
-66.569167
21
209.555208
0
LINE
8
Layer 1
10
-66.569167
20
209.555208
11
-63.982719
21
203.275045
0
LINE
8
Layer 1
10
-63.982719
20
203.275045
11
-60.721423
21
196.476806
0
LINE
8
Layer 1
10
-60.721423
20
196.476806
11
-56.857668
21
189.278835
0
LINE
8
Layer 1
10
-56.857668
20
189.278835
11
-52.463843
21
181.799477
0
LINE
8
Layer 1
10
-52.463843
20
181.799477
11
-47.612337
21
174.157076
0
LINE
8
Layer 1
10
-47.612337
20
174.157076
11
-42.375539
21
166.469979
0
LINE
8
Layer 1
10
-42.375539
20
166.469979
11
-36.825839
21
158.856528
0
LINE
8
Layer 1
10
-36.825839
20
158.856528
11
-31.035625
21
151.435069
0
LINE
8
Layer 1
10
-31.035625
20
151.435069
11
-28.665952
21
148.230606
0
LINE
8
Layer 1
10
-28.665952
20
148.230606
11
-28.039577
21
147.160772
0
LINE
8
Layer 1
10
-28.039577
20
147.160772
11
-27.922361
21
146.654931
0
LINE
8
Layer 1
10
-27.922361
20
146.654931
11
-28.818366
21
146.347610
0
LINE
8
Layer 1
10
-28.818366
20
146.347610
11
-30.883031
21
146.288619
0
LINE
8
Layer 1
10
-30.883031
20
146.288619
11
-39.916806
21
146.954792
0
LINE
8
Layer 1
10
-39.916806
20
146.954792
11
-45.153744
21
147.573314
0
LINE
8
Layer 1
10
-45.153744
20
147.573314
11
-49.316737
21
148.365155
0
LINE
8
Layer 1
10
-49.316737
20
148.365155
11
-52.501571
21
149.353603
0
LINE
8
Layer 1
10
-52.501571
20
149.353603
11
-54.804028
21
150.561944
0
LINE
8
Layer 1
10
-54.804028
20
150.561944
11
-56.399607
21
151.443697
0
LINE
8
Layer 1
10
-56.399607
20
151.443697
11
-57.047415
21
151.609545
0
LINE
8
Layer 1
10
-57.047415
20
151.609545
11
-57.588599
21
151.593520
0
LINE
8
Layer 1
10
-57.588599
20
151.593520
11
-58.018183
21
151.396735
0
LINE
8
Layer 1
10
-58.018183
20
151.396735
11
-58.331190
21
151.020299
0
LINE
8
Layer 1
10
-58.331190
20
151.020299
11
-58.522645
21
150.465322
0
LINE
8
Layer 1
10
-58.522645
20
150.465322
11
-58.587569
21
149.732917
0
LINE
8
Layer 1
10
-58.587569
20
149.732917
11
-58.458305
21
148.736349
0
LINE
8
Layer 1
10
-58.458305
20
148.736349
11
-58.025317
21
147.815798
0
LINE
8
Layer 1
10
-58.025317
20
147.815798
11
-57.220816
21
146.868233
0
LINE
8
Layer 1
10
-57.220816
20
146.868233
11
-55.977014
21
145.790625
0
LINE
8
Layer 1
10
-55.977014
20
145.790625
11
-54.651017
21
144.658749
0
LINE
8
Layer 1
10
-54.651017
20
144.658749
11
-53.884610
21
143.735581
0
LINE
8
Layer 1
10
-53.884610
20
143.735581
11
-53.560273
21
142.821289
0
LINE
8
Layer 1
10
-53.560273
20
142.821289
11
-53.560486
21
141.716042
0
LINE
8
Layer 1
10
-53.560486
20
141.716042
11
-53.756812
21
140.589983
0
LINE
8
Layer 1
10
-53.756812
20
140.589983
11
-54.258587
21
139.891664
0
LINE
8
Layer 1
10
-54.258587
20
139.891664
11
-55.346173
21
139.415412
0
LINE
8
Layer 1
10
-55.346173
20
139.415412
11
-57.299931
21
138.955556
0
LINE
8
Layer 1
10
-57.299931
20
138.955556
11
-60.605632
21
138.413895
0
LINE
8
Layer 1
10
-60.605632
20
138.413895
11
-63.579375
21
138.152986
0
LINE
8
Layer 1
10
-63.579375
20
138.152986
11
-65.046518
21
138.073512
0
LINE
8
Layer 1
10
-65.046518
20
138.073512
11
-65.870789
21
137.845572
0
LINE
8
Layer 1
10
-65.870789
20
137.845572
11
-66.232860
21
137.359031
0
LINE
8
Layer 1
10
-66.232860
20
137.359031
11
-66.313403
21
136.503750
0
LINE
8
Layer 1
10
-66.313403
20
136.503750
11
-66.188974
21
135.729629
0
LINE
8
Layer 1
10
-66.188974
20
135.729629
11
-65.812534
21
135.039141
0
LINE
8
Layer 1
10
-65.812534
20
135.039141
11
-65.179350
21
134.430187
0
LINE
8
Layer 1
10
-65.179350
20
134.430187
11
-64.284690
21
133.900669
0
LINE
8
Layer 1
10
-64.284690
20
133.900669
11
-63.123824
21
133.448490
0
LINE
8
Layer 1
10
-63.123824
20
133.448490
11
-61.692019
21
133.071550
0
LINE
8
Layer 1
10
-61.692019
20
133.071550
11
-57.996667
21
132.535000
0
LINE
8
Layer 1
10
-57.996667
20
132.535000
11
-55.548063
21
132.225833
0
LINE
8
Layer 1
10
-55.548063
20
132.225833
11
-53.779481
21
131.812598
0
LINE
8
Layer 1
10
-53.779481
20
131.812598
11
-52.690472
21
131.289128
0
LINE
8
Layer 1
10
-52.690472
20
131.289128
11
-52.400668
21
130.984128
0
LINE
8
Layer 1
10
-52.400668
20
130.984128
11
-52.280590
21
130.649255
0
LINE
8
Layer 1
10
-52.280590
20
130.649255
11
-52.549389
21
129.886810
0
LINE
8
Layer 1
10
-52.549389
20
129.886810
11
-53.496422
21
128.995625
0
LINE
8
Layer 1
10
-53.496422
20
128.995625
11
-55.121242
21
127.969531
0
LINE
8
Layer 1
10
-55.121242
20
127.969531
11
-57.423403
21
126.802361
0
LINE
8
Layer 1
10
-57.423403
20
126.802361
11
-60.270523
21
125.382155
0
LINE
8
Layer 1
10
-60.270523
20
125.382155
11
-61.707206
21
124.354316
0
LINE
8
Layer 1
10
-61.707206
20
124.354316
11
-61.969841
21
123.904984
0
LINE
8
Layer 1
10
-61.969841
20
123.904984
11
-61.967717
21
123.454684
0
LINE
8
Layer 1
10
-61.967717
20
123.454684
11
-61.286319
21
122.419097
0
LINE
8
Layer 1
10
-61.286319
20
122.419097
11
-60.439645
21
121.864999
0
LINE
8
Layer 1
10
-60.439645
20
121.864999
11
-59.158208
21
121.524907
0
LINE
8
Layer 1
10
-59.158208
20
121.524907
11
-57.534973
21
121.391133
0
LINE
8
Layer 1
10
-57.534973
20
121.391133
11
-55.662906
21
121.455991
0
LINE
8
Layer 1
10
-55.662906
20
121.455991
11
-53.634972
21
121.711793
0
LINE
8
Layer 1
10
-53.634972
20
121.711793
11
-51.544137
21
122.150851
0
LINE
8
Layer 1
10
-51.544137
20
122.150851
11
-49.483366
21
122.765478
0
LINE
8
Layer 1
10
-49.483366
20
122.765478
11
-47.545625
21
123.547986
0
LINE
8
Layer 1
10
-47.545625
20
123.547986
11
-45.646234
21
124.363991
0
LINE
8
Layer 1
10
-45.646234
20
124.363991
11
-44.118556
21
124.820837
0
LINE
8
Layer 1
10
-44.118556
20
124.820837
11
-42.743371
21
124.963166
0
LINE
8
Layer 1
10
-42.743371
20
124.963166
11
-41.301458
21
124.835625
0
LINE
8
Layer 1
10
-41.301458
20
124.835625
11
-39.290995
21
124.303916
0
LINE
8
Layer 1
10
-39.290995
20
124.303916
11
-38.526817
21
123.898002
0
LINE
8
Layer 1
10
-38.526817
20
123.898002
11
-37.902327
21
123.376739
0
LINE
8
Layer 1
10
-37.902327
20
123.376739
11
-37.401764
21
122.723644
0
LINE
8
Layer 1
10
-37.401764
20
122.723644
11
-37.009370
21
121.922234
0
LINE
8
Layer 1
10
-37.009370
20
121.922234
11
-36.486042
21
119.808542
0
LINE
8
Layer 1
10
-36.486042
20
119.808542
11
-35.939772
21
117.946143
0
LINE
8
Layer 1
10
-35.939772
20
117.946143
11
-34.936932
21
116.186639
0
LINE
8
Layer 1
10
-34.936932
20
116.186639
11
-33.573143
21
114.661609
0
LINE
8
Layer 1
10
-33.573143
20
114.661609
11
-31.944028
21
113.502639
0
LINE
8
Layer 1
10
-31.944028
20
113.502639
11
-31.353348
21
113.260662
0
LINE
8
Layer 1
10
-31.353348
20
113.260662
11
-30.865601
21
113.228110
0
LINE
8
Layer 1
10
-30.865601
20
113.228110
11
-30.480000
21
113.406654
0
LINE
8
Layer 1
10
-30.480000
20
113.406654
11
-30.195759
21
113.797965
0
LINE
8
Layer 1
10
-30.195759
20
113.797965
11
-29.928211
21
115.225573
0
LINE
8
Layer 1
10
-29.928211
20
115.225573
11
-30.056667
21
117.524306
0
LINE
8
Layer 1
10
-30.056667
20
117.524306
11
-30.149913
21
119.246498
0
LINE
8
Layer 1
10
-30.149913
20
119.246498
11
-29.923236
21
120.910535
0
LINE
8
Layer 1
10
-29.923236
20
120.910535
11
-29.284819
21
122.901109
0
LINE
8
Layer 1
10
-29.284819
20
122.901109
11
-28.142847
21
125.602917
0
LINE
8
Layer 1
10
-28.142847
20
125.602917
11
-26.471464
21
129.552844
0
LINE
8
Layer 1
10
-26.471464
20
129.552844
11
-25.646944
21
131.908819
0
LINE
8
Layer 1
10
-25.646944
20
131.908819
11
-25.398972
21
132.592373
0
LINE
8
Layer 1
10
-25.398972
20
132.592373
11
-24.935405
21
133.280918
0
LINE
8
Layer 1
10
-24.935405
20
133.280918
11
-23.599866
21
134.506114
0
LINE
8
Layer 1
10
-23.599866
20
134.506114
11
-22.117085
21
135.250665
0
LINE
8
Layer 1
10
-22.117085
20
135.250665
11
-21.469466
21
135.338406
0
LINE
8
Layer 1
10
-21.469466
20
135.338406
11
-20.963819
21
135.180833
0
LINE
8
Layer 1
10
-20.963819
20
135.180833
11
-16.309537
21
131.087418
0
LINE
8
Layer 1
10
-16.309537
20
131.087418
11
-8.326450
21
123.640783
0
LINE
8
Layer 1
10
-8.326450
20
123.640783
11
-0.777273
21
116.399103
0
LINE
8
Layer 1
10
-0.777273
20
116.399103
11
2.575278
21
112.920556
0
LINE
8
Layer 1
10
2.575278
20
112.920556
11
2.074737
21
112.107973
0
LINE
8
Layer 1
10
2.074737
20
112.107973
11
0.709286
21
110.541789
0
LINE
8
Layer 1
10
0.709286
20
110.541789
11
-3.799318
21
105.947797
0
LINE
8
Layer 1
10
-3.799318
20
105.947797
11
-9.316474
21
100.736937
0
LINE
8
Layer 1
10
-9.316474
20
100.736937
11
-14.208125
21
96.507569
0
LINE
8
Layer 1
10
-14.208125
20
96.507569
11
-18.251594
21
93.525248
0
LINE
8
Layer 1
10
-18.251594
20
93.525248
11
-21.131389
21
91.789167
0
LINE
8
Layer 1
10
-21.131389
20
91.789167
11
-22.576971
21
90.914501
0
LINE
8
Layer 1
10
-22.576971
20
90.914501
11
-23.016243
21
90.435378
0
LINE
8
Layer 1
10
-23.016243
20
90.435378
11
-23.177500
21
90.007639
0
LINE
8
Layer 1
10
-23.177500
20
90.007639
11
-22.761925
21
89.233744
0
LINE
8
Layer 1
10
-22.761925
20
89.233744
11
-21.630534
21
87.810947
0
LINE
8
Layer 1
10
-21.630534
20
87.810947
11
-17.912292
21
83.825208
0
LINE
8
Layer 1
10
-17.912292
20
83.825208
11
-13.422721
21
79.089696
0
LINE
8
Layer 1
10
-13.422721
20
79.089696
11
-9.298609
21
74.291102
0
LINE
8
Layer 1
10
-9.298609
20
74.291102
11
-5.960174
21
69.944647
0
LINE
8
Layer 1
10
-5.960174
20
69.944647
11
-3.827639
21
66.565556
0
LINE
8
Layer 1
10
-3.827639
20
66.565556
11
-3.112420
21
65.063877
0
LINE
8
Layer 1
10
-3.112420
20
65.063877
11
-2.879427
21
63.914900
0
LINE
8
Layer 1
10
-2.879427
20
63.914900
11
-3.133770
21
62.539029
0
LINE
8
Layer 1
10
-3.133770
20
62.539029
11
-3.880556
21
60.356667
0
LINE
8
Layer 1
10
-3.880556
20
60.356667
11
-5.582708
21
55.514792
0
LINE
8
Layer 1
10
-5.582708
20
55.514792
11
-5.620096
21
55.171154
0
LINE
8
Layer 1
10
-5.620096
20
55.171154
11
-5.486060
21
54.816072
0
LINE
8
Layer 1
10
-5.486060
20
54.816072
11
-4.574777
21
53.982780
0
LINE
8
Layer 1
10
-4.574777
20
53.982780
11
-2.590985
21
52.837317
0
LINE
8
Layer 1
10
-2.590985
20
52.837317
11
0.723194
21
51.202083
0
LINE
8
Layer 1
10
0.723194
20
51.202083
11
5.123733
21
48.941213
0
LINE
8
Layer 1
10
5.123733
20
48.941213
11
6.216200
21
48.245871
0
LINE
8
Layer 1
10
6.216200
20
48.245871
11
6.404570
21
48.053697
0
LINE
8
Layer 1
10
6.404570
20
48.053697
11
6.323542
21
47.982986
0
LINE
8
Layer 1
10
6.323542
20
47.982986
11
4.161626
21
48.519673
0
LINE
8
Layer 1
10
4.161626
20
48.519673
11
0.673232
21
49.806417
0
LINE
8
Layer 1
10
0.673232
20
49.806417
11
-2.739469
21
51.281671
0
LINE
8
Layer 1
10
-2.739469
20
51.281671
11
-4.674306
21
52.383889
0
LINE
8
Layer 1
10
-4.674306
20
52.383889
11
-5.375890
21
52.905433
0
LINE
8
Layer 1
10
-5.375890
20
52.905433
11
-6.109234
21
53.139726
0
LINE
8
Layer 1
10
-6.109234
20
53.139726
11
-6.835718
21
53.109741
0
LINE
8
Layer 1
10
-6.835718
20
53.109741
11
-7.516719
21
52.838454
0
LINE
8
Layer 1
10
-7.516719
20
52.838454
11
-8.113616
21
52.348841
0
LINE
8
Layer 1
10
-8.113616
20
52.348841
11
-8.587789
21
51.663876
0
LINE
8
Layer 1
10
-8.587789
20
51.663876
11
-8.900614
21
50.806534
0
LINE
8
Layer 1
10
-8.900614
20
50.806534
11
-9.013472
21
49.799792
0
LINE
8
Layer 1
10
-9.013472
20
49.799792
11
-8.837108
21
48.764360
0
LINE
8
Layer 1
10
-8.837108
20
48.764360
11
-8.540989
21
48.311275
0
LINE
8
Layer 1
10
-8.540989
20
48.311275
11
-8.038989
21
47.849642
0
LINE
8
Layer 1
10
-8.038989
20
47.849642
11
-6.215577
21
46.745833
0
LINE
8
Layer 1
10
-6.215577
20
46.745833
11
-2.963333
21
45.143125
0
LINE
8
Layer 1
10
-2.963333
20
45.143125
11
1.432953
21
42.904818
0
LINE
8
Layer 1
10
1.432953
20
42.904818
11
3.510139
21
41.571250
0
LINE
8
Layer 1
10
3.510139
20
41.571250
11
4.154145
21
41.009419
0
LINE
8
Layer 1
10
4.154145
20
41.009419
11
4.953109
21
40.915703
0
LINE
8
Layer 1
10
4.953109
20
40.915703
11
5.703071
21
41.257799
0
LINE
8
Layer 1
10
5.703071
20
41.257799
11
6.200069
21
42.003403
0
LINE
8
Layer 1
10
6.200069
20
42.003403
11
6.962330
21
43.930082
0
LINE
8
Layer 1
10
6.962330
20
43.930082
11
7.897525
21
45.676534
0
LINE
8
Layer 1
10
7.897525
20
45.676534
11
8.852707
21
46.995326
0
LINE
8
Layer 1
10
8.852707
20
46.995326
11
9.674931
21
47.639028
0
LINE
8
Layer 1
10
9.674931
20
47.639028
11
10.217157
21
48.184808
0
LINE
8
Layer 1
10
10.217157
20
48.184808
11
10.899463
21
49.460559
0
LINE
8
Layer 1
10
10.899463
20
49.460559
11
12.488333
21
53.768542
0
LINE
8
Layer 1
10
12.488333
20
53.768542
11
13.368633
21
56.380082
0
LINE
8
Layer 1
10
13.368633
20
56.380082
11
14.173920
21
58.318760
0
LINE
8
Layer 1
10
14.173920
20
58.318760
11
14.914729
21
59.607312
0
LINE
8
Layer 1
10
14.914729
20
59.607312
11
15.601597
21
60.268472
0
LINE
8
Layer 1
10
15.601597
20
60.268472
11
16.616624
21
60.539343
0
LINE
8
Layer 1
10
16.616624
20
60.539343
11
18.387940
21
60.715548
0
LINE
8
Layer 1
10
18.387940
20
60.715548
11
23.618472
21
60.744722
0
LINE
8
Layer 1
10
23.618472
20
60.744722
11
30.338889
21
60.515417
0
LINE
8
Layer 1
10
30.338889
20
60.515417
11
32.393819
21
64.325417
0
LINE
8
Layer 1
10
32.393819
20
64.325417
11
33.903902
21
66.877680
0
LINE
8
Layer 1
10
33.903902
20
66.877680
11
35.193765
21
68.443995
0
LINE
8
Layer 1
10
35.193765
20
68.443995
11
35.790518
21
68.888561
0
LINE
8
Layer 1
10
35.790518
20
68.888561
11
36.373499
21
69.124006
0
LINE
8
Layer 1
10
36.373499
20
69.124006
11
36.956471
21
69.162788
0
LINE
8
Layer 1
10
36.956471
20
69.162788
11
37.553194
21
69.017361
0
LINE
8
Layer 1
10
37.553194
20
69.017361
11
38.079299
21
68.708610
0
LINE
8
Layer 1
10
38.079299
20
68.708610
11
38.256709
21
68.146506
0
LINE
8
Layer 1
10
38.256709
20
68.146506
11
38.088976
21
67.069534
0
LINE
8
Layer 1
10
38.088976
20
67.069534
11
37.579653
21
65.216181
0
LINE
8
Layer 1
10
37.579653
20
65.216181
11
36.520163
21
62.183757
0
LINE
8
Layer 1
10
36.520163
20
62.183757
11
35.365972
21
59.686389
0
LINE
8
Layer 1
10
35.365972
20
59.686389
11
34.140069
21
57.578542
0
LINE
8
Layer 1
10
34.140069
20
57.578542
11
39.043681
21
55.347222
0
LINE
8
Layer 1
10
39.043681
20
55.347222
11
44.291250
21
53.107083
0
LINE
8
Layer 1
10
44.291250
20
53.107083
11
44.868106
21
52.810036
0
LINE
8
Layer 1
10
44.868106
20
52.810036
11
45.764097
21
52.092847
0
LINE
8
Layer 1
10
45.764097
20
52.092847
11
46.298511
21
51.507360
0
LINE
8
Layer 1
10
46.298511
20
51.507360
11
46.545642
21
50.910950
0
LINE
8
Layer 1
10
46.545642
20
50.910950
11
46.523269
21
50.186703
0
LINE
8
Layer 1
10
46.523269
20
50.186703
11
46.249167
21
49.217708
0
LINE
8
Layer 1
10
46.249167
20
49.217708
11
45.988582
21
48.229155
0
LINE
8
Layer 1
10
45.988582
20
48.229155
11
45.955218
21
47.321160
0
LINE
8
Layer 1
10
45.955218
20
47.321160
11
46.159228
21
46.389096
0
LINE
8
Layer 1
10
46.159228
20
46.389096
11
46.610764
21
45.328333
0
LINE
8
Layer 1
10
46.610764
20
45.328333
11
47.225295
21
43.732347
0
LINE
8
Layer 1
10
47.225295
20
43.732347
11
47.334109
21
43.119824
0
LINE
8
Layer 1
10
47.334109
20
43.119824
11
47.281042
21
42.744236
0
LINE
8
Layer 1
10
47.281042
20
42.744236
11
47.168131
21
41.662606
0
LINE
8
Layer 1
10
47.168131
20
41.662606
11
47.378056
21
39.842639
0
LINE
8
Layer 1
10
47.378056
20
39.842639
11
47.819028
21
37.496667
0
LINE
8
Layer 1
10
47.819028
20
37.496667
11
52.070000
21
37.884722
0
LINE
8
Layer 1
10
52.070000
20
37.884722
11
60.607222
21
38.687292
0
LINE
8
Layer 1
10
60.607222
20
38.687292
11
64.884653
21
39.110625
0
LINE
8
Layer 1
10
64.884653
20
39.110625
11
65.643125
21
42.409097
0
LINE
8
Layer 1
10
65.643125
20
42.409097
11
66.155173
21
45.707943
0
LINE
8
Layer 1
10
66.155173
20
45.707943
11
66.322222
21
49.006042
0
LINE
8
Layer 1
10
66.322222
20
49.006042
11
66.342879
21
50.814722
0
LINE
8
Layer 1
10
66.342879
20
50.814722
11
66.591266
21
52.034543
0
LINE
8
Layer 1
10
66.591266
20
52.034543
11
67.190201
21
52.985859
0
LINE
8
Layer 1
10
67.190201
20
52.985859
11
68.262500
21
53.989028
0
LINE
8
Layer 1
10
68.262500
20
53.989028
11
69.929173
21
55.208264
0
LINE
8
Layer 1
10
69.929173
20
55.208264
11
70.618104
21
55.493618
0
LINE
8
Layer 1
10
70.618104
20
55.493618
11
71.273990
21
55.557883
0
LINE
8
Layer 1
10
71.273990
20
55.557883
11
71.944252
21
55.397379
0
LINE
8
Layer 1
10
71.944252
20
55.397379
11
72.676309
21
55.008422
0
LINE
8
Layer 1
10
72.676309
20
55.008422
11
74.515486
21
53.530417
0
LINE
8
Layer 1
10
74.515486
20
53.530417
11
77.545951
21
51.061002
0
LINE
8
Layer 1
10
77.545951
20
51.061002
11
81.438750
21
48.159375
0
LINE
8
Layer 1
10
81.438750
20
48.159375
11
91.880972
21
40.662847
0
LINE
8
Layer 1
10
91.880972
20
40.662847
11
97.953864
21
36.471965
0
LINE
8
Layer 1
10
97.953864
20
36.471965
11
104.525445
21
32.247056
0
LINE
8
Layer 1
10
104.525445
20
32.247056
11
110.571370
21
28.625095
0
LINE
8
Layer 1
10
110.571370
20
28.625095
11
115.067292
21
26.243056
0
LINE
8
Layer 1
10
115.067292
20
26.243056
11
117.559313
21
24.966554
0
LINE
8
Layer 1
10
117.559313
20
24.966554
11
118.824375
21
24.064653
0
LINE
8
Layer 1
10
118.824375
20
24.064653
11
119.228161
21
23.671644
0
LINE
8
Layer 1
10
119.228161
20
23.671644
11
119.644583
21
23.623681
0
LINE
8
Layer 1
10
119.644583
20
23.623681
11
126.652460
21
27.270093
0
LINE
8
Layer 1
10
126.652460
20
27.270093
11
133.570486
21
31.208403
0
LINE
8
Layer 1
10
133.570486
20
31.208403
11
144.533056
21
37.990556
0
LINE
8
Layer 1
10
144.533056
20
37.990556
11
153.220208
21
43.608542
0
LINE
8
Layer 1
10
153.220208
20
43.608542
11
154.153245
21
44.300826
0
LINE
8
Layer 1
10
154.153245
20
44.300826
11
154.668753
21
44.503850
0
LINE
8
Layer 1
10
154.668753
20
44.503850
11
154.949468
21
44.193075
0
LINE
8
Layer 1
10
154.949468
20
44.193075
11
155.178125
21
43.343958
0
LINE
8
Layer 1
10
155.178125
20
43.343958
11
155.513284
21
42.538688
0
LINE
8
Layer 1
10
155.513284
20
42.538688
11
156.233190
21
41.981317
0
LINE
8
Layer 1
10
156.233190
20
41.981317
11
157.589730
21
41.551846
0
LINE
8
Layer 1
10
157.589730
20
41.551846
11
159.834792
21
41.130278
0
LINE
8
Layer 1
10
159.834792
20
41.130278
11
163.448491
21
40.822589
0
LINE
8
Layer 1
10
163.448491
20
40.822589
11
167.170318
21
40.962861
0
LINE
8
Layer 1
10
167.170318
20
40.962861
11
170.364105
21
41.488908
0
LINE
8
Layer 1
10
170.364105
20
41.488908
11
171.564180
21
41.877163
0
LINE
8
Layer 1
10
171.564180
20
41.877163
11
172.393681
21
42.338542
0
LINE
8
Layer 1
10
172.393681
20
42.338542
11
173.128765
21
42.716568
0
LINE
8
Layer 1
10
173.128765
20
42.716568
11
173.412927
21
42.670664
0
LINE
8
Layer 1
10
173.412927
20
42.670664
11
173.645287
21
42.462777
0
LINE
8
Layer 1
10
173.645287
20
42.462777
11
173.965953
21
41.544942
0
LINE
8
Layer 1
10
173.965953
20
41.544942
11
174.113472
21
39.930833
0
LINE
8
Layer 1
10
174.113472
20
39.930833
11
174.380681
21
38.131789
0
LINE
8
Layer 1
10
174.380681
20
38.131789
11
174.916042
21
36.958681
0
LINE
8
Layer 1
10
174.916042
20
36.958681
11
175.834850
21
36.556668
0
LINE
8
Layer 1
10
175.834850
20
36.556668
11
177.525535
21
36.286430
0
LINE
8
Layer 1
10
177.525535
20
36.286430
11
182.455245
21
36.128869
0
LINE
8
Layer 1
10
182.455245
20
36.128869
11
188.170596
21
36.461178
0
LINE
8
Layer 1
10
188.170596
20
36.461178
11
190.843333
21
36.803279
0
LINE
8
Layer 1
10
190.843333
20
36.803279
11
193.137014
21
37.258542
0
LINE
8
Layer 1
10
193.137014
20
37.258542
11
196.712771
21
38.259226
0
LINE
8
Layer 1
10
196.712771
20
38.259226
11
198.525694
21
38.969514
0
LINE
8
Layer 1
10
198.525694
20
38.969514
11
198.660239
21
39.486483
0
LINE
8
Layer 1
10
198.660239
20
39.486483
11
198.613784
21
40.520769
0
LINE
8
Layer 1
10
198.613784
20
40.520769
11
198.040625
21
43.555625
0
LINE
8
Layer 1
10
198.040625
20
43.555625
11
197.179554
21
48.161159
0
LINE
8
Layer 1
10
197.179554
20
48.161159
11
196.339403
21
54.334833
0
LINE
8
Layer 1
10
196.339403
20
54.334833
11
195.787623
21
59.832896
0
LINE
8
Layer 1
10
195.787623
20
59.832896
11
195.703451
21
61.627401
0
LINE
8
Layer 1
10
195.703451
20
61.627401
11
195.791667
21
62.411597
0
LINE
8
Layer 1
10
195.791667
20
62.411597
11
197.677904
21
62.826316
0
LINE
8
Layer 1
10
197.677904
20
62.826316
11
201.841806
21
63.452292
0
LINE
8
Layer 1
10
201.841806
20
63.452292
11
206.139614
21
64.209745
0
LINE
8
Layer 1
10
206.139614
20
64.209745
11
207.612384
21
64.603488
0
LINE
8
Layer 1
10
207.612384
20
64.603488
11
208.350556
21
64.942778
0
LINE
8
Layer 1
10
208.350556
20
64.942778
11
208.649096
21
65.563543
0
LINE
8
Layer 1
10
208.649096
20
65.563543
11
208.777970
21
66.708567
0
LINE
8
Layer 1
10
208.777970
20
66.708567
11
208.535764
21
70.816528
0
LINE
8
Layer 1
10
208.535764
20
70.816528
11
207.627361
21
79.565417
0
LINE
8
Layer 1
10
207.627361
20
79.565417
11
207.265764
21
83.163750
0
LINE
8
Layer 1
10
207.265764
20
83.163750
11
214.744653
21
89.549028
0
LINE
8
Layer 1
10
214.744653
20
89.549028
11
222.708611
21
96.101875
0
LINE
8
Layer 1
10
222.708611
20
96.101875
11
223.030776
21
95.851146
0
LINE
8
Layer 1
10
223.030776
20
95.851146
11
223.554007
21
95.035742
0
LINE
8
Layer 1
10
223.554007
20
95.035742
11
224.913472
21
92.221319
0
LINE
8
Layer 1
10
224.913472
20
92.221319
11
225.808497
21
89.969511
0
LINE
8
Layer 1
10
225.808497
20
89.969511
11
226.246870
21
88.307935
0
LINE
8
Layer 1
10
226.246870
20
88.307935
11
226.296356
21
86.788451
0
LINE
8
Layer 1
10
226.296356
20
86.788451
11
226.024722
21
84.962917
0
LINE
8
Layer 1
10
226.024722
20
84.962917
11
225.290216
21
81.866679
0
LINE
8
Layer 1
10
225.290216
20
81.866679
11
224.393125
21
78.921597
0
LINE
8
Layer 1
10
224.393125
20
78.921597
11
223.753765
21
76.844812
0
LINE
8
Layer 1
10
223.753765
20
76.844812
11
223.634653
21
75.834792
0
LINE
8
Layer 1
10
223.634653
20
75.834792
11
224.331167
21
75.620711
0
LINE
8
Layer 1
10
224.331167
20
75.620711
11
225.654306
21
75.455556
0
LINE
8
Layer 1
10
225.654306
20
75.455556
11
226.707873
21
75.571196
0
LINE
8
Layer 1
10
226.707873
20
75.571196
11
227.831081
21
76.229520
0
LINE
8
Layer 1
10
227.831081
20
76.229520
11
229.294652
21
77.649595
0
LINE
8
Layer 1
10
229.294652
20
77.649595
11
231.369306
21
80.050486
0
LINE
8
Layer 1
10
231.369306
20
80.050486
11
234.471596
21
83.567558
0
LINE
8
Layer 1
10
234.471596
20
83.567558
11
236.396389
21
85.377431
0
LINE
8
Layer 1
10
236.396389
20
85.377431
11
239.343911
21
86.229624
0
LINE
8
Layer 1
10
239.343911
20
86.229624
11
244.943829
21
87.456307
0
LINE
8
Layer 1
10
244.943829
20
87.456307
11
251.281676
21
88.666607
0
LINE
8
Layer 1
10
251.281676
20
88.666607
11
256.442986
21
89.469653
0
LINE
8
Layer 1
10
256.442986
20
89.469653
11
258.934479
21
89.979891
0
LINE
8
Layer 1
10
258.934479
20
89.979891
11
260.906114
21
90.807538
0
LINE
8
Layer 1
10
260.906114
20
90.807538
11
261.648524
21
91.312586
0
LINE
8
Layer 1
10
261.648524
20
91.312586
11
262.202817
21
91.863621
0
LINE
8
Layer 1
10
262.202817
20
91.863621
11
262.549608
21
92.449522
0
LINE
8
Layer 1
10
262.549608
20
92.449522
11
262.669514
21
93.059167
0
LINE
8
Layer 1
10
262.669514
20
93.059167
11
262.508216
21
93.406280
0
LINE
8
Layer 1
10
262.508216
20
93.406280
11
262.068881
21
93.853876
0
LINE
8
Layer 1
10
262.068881
20
93.853876
11
260.623403
21
94.823056
0
LINE
8
Layer 1
10
260.623403
20
94.823056
11
258.739641
21
96.050601
0
LINE
8
Layer 1
10
258.739641
20
96.050601
11
257.086806
21
97.460069
0
LINE
8
Layer 1
10
257.086806
20
97.460069
11
256.190746
21
98.266222
0
LINE
8
Layer 1
10
256.190746
20
98.266222
11
255.286176
21
98.676321
0
LINE
8
Layer 1
10
255.286176
20
98.676321
11
254.064837
21
98.760516
0
LINE
8
Layer 1
10
254.064837
20
98.760516
11
252.218472
21
98.588958
0
LINE
8
Layer 1
10
252.218472
20
98.588958
11
247.367778
21
97.777569
0
LINE
8
Layer 1
10
247.367778
20
97.777569
11
246.708686
21
97.658595
0
LINE
8
Layer 1
10
246.708686
20
97.658595
11
246.313521
21
97.720671
0
LINE
8
Layer 1
10
246.313521
20
97.720671
11
246.171250
21
97.942397
0
LINE
8
Layer 1
10
246.171250
20
97.942397
11
246.270838
21
98.302374
0
LINE
8
Layer 1
10
246.270838
20
98.302374
11
247.151451
21
99.351484
0
LINE
8
Layer 1
10
247.151451
20
99.351484
11
248.867083
21
100.696806
0
LINE
8
Layer 1
10
248.867083
20
100.696806
11
250.352778
21
102.002122
0
LINE
8
Layer 1
10
250.352778
20
102.002122
11
250.736470
21
102.604862
0
LINE
8
Layer 1
10
250.736470
20
102.604862
11
250.879768
21
103.153316
0
LINE
8
Layer 1
10
250.879768
20
103.153316
11
250.781954
21
103.631729
0
LINE
8
Layer 1
10
250.781954
20
103.631729
11
250.442308
21
104.024345
0
LINE
8
Layer 1
10
250.442308
20
104.024345
11
249.860114
21
104.315410
0
LINE
8
Layer 1
10
249.860114
20
104.315410
11
249.034653
21
104.489167
0
LINE
8
Layer 1
10
249.034653
20
104.489167
11
247.388966
21
104.336449
0
LINE
8
Layer 1
10
247.388966
20
104.336449
11
245.152504
21
103.523497
0
LINE
8
Layer 1
10
245.152504
20
103.523497
11
242.215693
21
102.000550
0
LINE
8
Layer 1
10
242.215693
20
102.000550
11
238.468958
21
99.717847
0
LINE
8
Layer 1
10
238.468958
20
99.717847
11
236.889722
21
98.785525
0
LINE
8
Layer 1
10
236.889722
20
98.785525
11
235.546887
21
98.153022
0
LINE
8
Layer 1
10
235.546887
20
98.153022
11
234.481078
21
97.835500
0
LINE
8
Layer 1
10
234.481078
20
97.835500
11
233.732917
21
97.848125
0
LINE
8
Layer 1
10
233.732917
20
97.848125
11
232.548614
21
98.676374
0
LINE
8
Layer 1
10
232.548614
20
98.676374
11
231.040033
21
100.219681
0
LINE
8
Layer 1
10
231.040033
20
100.219681
11
229.742390
21
101.869259
0
LINE
8
Layer 1
10
229.742390
20
101.869259
11
229.339926
21
102.543653
0
LINE
8
Layer 1
10
229.339926
20
102.543653
11
229.190903
21
103.016319
0
LINE
8
Layer 1
10
229.190903
20
103.016319
11
231.631673
21
105.894720
0
LINE
8
Layer 1
10
231.631673
20
105.894720
11
237.498819
21
112.232639
0
LINE
8
Layer 1
10
237.498819
20
112.232639
11
244.740995
21
120.040866
0
LINE
8
Layer 1
10
244.740995
20
120.040866
11
251.743211
21
127.860323
0
LINE
8
Layer 1
10
251.743211
20
127.860323
11
258.483347
21
135.664016
0
LINE
8
Layer 1
10
258.483347
20
135.664016
11
264.939283
21
143.424955
0
LINE
8
Layer 1
10
264.939283
20
143.424955
11
271.088898
21
151.116146
0
LINE
8
Layer 1
10
271.088898
20
151.116146
11
276.910071
21
158.710599
0
LINE
8
Layer 1
10
276.910071
20
158.710599
11
282.380682
21
166.181321
0
LINE
8
Layer 1
10
282.380682
20
166.181321
11
287.478611
21
173.501319
0
LINE
8
Layer 1
10
287.478611
20
173.501319
11
291.667128
21
179.982342
0
LINE
8
Layer 1
10
291.667128
20
179.982342
11
295.727332
21
186.733994
0
LINE
8
Layer 1
10
295.727332
20
186.733994
11
298.796280
21
192.269014
0
LINE
8
Layer 1
10
298.796280
20
192.269014
11
299.689363
21
194.115517
0
LINE
8
Layer 1
10
299.689363
20
194.115517
11
300.011028
21
195.100139
0
LINE
8
Layer 1
10
300.011028
20
195.100139
11
300.296912
21
195.883852
0
LINE
8
Layer 1
10
300.296912
20
195.883852
11
300.981195
21
196.678819
0
LINE
8
Layer 1
10
300.981195
20
196.678819
11
301.661015
21
197.611277
0
LINE
8
Layer 1
10
301.661015
20
197.611277
11
301.942500
21
198.724931
0
LINE
8
Layer 1
10
301.942500
20
198.724931
11
302.207221
21
200.108349
0
LINE
8
Layer 1
10
302.207221
20
200.108349
11
302.842083
21
201.697083
0
LINE
8
Layer 1
10
302.842083
20
201.697083
11
304.687661
21
206.424836
0
LINE
8
Layer 1
10
304.687661
20
206.424836
11
307.930917
21
216.319722
0
LINE
8
Layer 1
10
307.930917
20
216.319722
11
310.010763
21
223.655259
0
LINE
8
Layer 1
10
310.010763
20
223.655259
11
311.502802
21
230.748822
0
LINE
8
Layer 1
10
311.502802
20
230.748822
11
312.407439
21
237.729908
0
LINE
8
Layer 1
10
312.407439
20
237.729908
11
312.725079
21
244.728012
0
LINE
8
Layer 1
10
312.725079
20
244.728012
11
312.456125
21
251.872633
0
LINE
8
Layer 1
10
312.456125
20
251.872633
11
311.600983
21
259.293266
0
LINE
8
Layer 1
10
311.600983
20
259.293266
11
310.160056
21
267.119408
0
LINE
8
Layer 1
10
310.160056
20
267.119408
11
308.133750
21
275.480556
0
LINE
8
Layer 1
10
308.133750
20
275.480556
11
306.416249
21
280.918039
0
LINE
8
Layer 1
10
306.416249
20
280.918039
11
304.127733
21
286.644766
0
LINE
8
Layer 1
10
304.127733
20
286.644766
11
301.361403
21
292.499221
0
LINE
8
Layer 1
10
301.361403
20
292.499221
11
298.210457
21
298.319889
0
LINE
8
Layer 1
10
298.210457
20
298.319889
11
294.768096
21
303.945254
0
LINE
8
Layer 1
10
294.768096
20
303.945254
11
291.127521
21
309.213800
0
LINE
8
Layer 1
10
291.127521
20
309.213800
11
287.381932
21
313.964013
0
LINE
8
Layer 1
10
287.381932
20
313.964013
11
283.624528
21
318.034375
0
LINE
8
Layer 1
10
283.624528
20
318.034375
11
279.081264
21
322.070934
0
LINE
8
Layer 1
10
279.081264
20
322.070934
11
273.604751
21
326.390073
0
LINE
8
Layer 1
10
273.604751
20
326.390073
11
268.739425
21
329.832039
0
LINE
8
Layer 1
10
268.739425
20
329.832039
11
267.018594
21
330.861661
0
LINE
8
Layer 1
10
267.018594
20
330.861661
11
266.029722
21
331.237083
0
LINE
8
Layer 1
10
266.029722
20
331.237083
11
265.149300
21
331.576231
0
LINE
8
Layer 1
10
265.149300
20
331.576231
11
263.886597
21
332.392431
0
LINE
8
Layer 1
10
263.886597
20
332.392431
11
261.695353
21
333.778410
0
LINE
8
Layer 1
10
261.695353
20
333.778410
11
258.722701
21
335.271881
0
LINE
8
Layer 1
10
258.722701
20
335.271881
11
255.150613
21
336.807728
0
LINE
8
Layer 1
10
255.150613
20
336.807728
11
251.161066
21
338.320833
0
LINE
8
Layer 1
10
251.161066
20
338.320833
11
246.936035
21
339.746077
0
LINE
8
Layer 1
10
246.936035
20
339.746077
11
242.657493
21
341.018344
0
LINE
8
Layer 1
10
242.657493
20
341.018344
11
238.507416
21
342.072514
0
LINE
8
Layer 1
10
238.507416
20
342.072514
11
234.667778
21
342.843472
0
LINE
8
Layer 1
10
234.667778
20
342.843472
11
229.601805
21
343.592014
0
LINE
8
Layer 1
10
229.601805
20
343.592014
11
224.602485
21
344.127742
0
LINE
8
Layer 1
10
224.602485
20
344.127742
11
219.668259
21
344.451283
0
LINE
8
Layer 1
10
219.668259
20
344.451283
11
214.797569
21
344.563264
0
LINE
8
Layer 1
10
214.797569
20
344.563264
11
213.492292
21
344.563264
0
LINE
8
Layer 1
10
213.492292
20
344.563264
11
213.492292
21
344.563264
0
LINE
8
Layer 1
10
213.095417
20
341.776319
11
220.162556
21
341.734191
0
LINE
8
Layer 1
10
220.162556
20
341.734191
11
226.305735
21
341.491991
0
LINE
8
Layer 1
10
226.305735
20
341.491991
11
231.752037
21
341.006002
0
LINE
8
Layer 1
10
231.752037
20
341.006002
11
236.728543
21
340.232503
0
LINE
8
Layer 1
10
236.728543
20
340.232503
11
241.462337
21
339.127776
0
LINE
8
Layer 1
10
241.462337
20
339.127776
11
246.180500
21
337.648100
0
LINE
8
Layer 1
10
246.180500
20
337.648100
11
251.110115
21
335.749757
0
LINE
8
Layer 1
10
251.110115
20
335.749757
11
256.478264
21
333.389028
0
LINE
8
Layer 1
10
256.478264
20
333.389028
11
261.513885
21
330.921530
0
LINE
8
Layer 1
10
261.513885
20
330.921530
11
266.168645
21
328.319740
0
LINE
8
Layer 1
10
266.168645
20
328.319740
11
270.487179
21
325.548158
0
LINE
8
Layer 1
10
270.487179
20
325.548158
11
274.514122
21
322.571282
0
LINE
8
Layer 1
10
274.514122
20
322.571282
11
278.294110
21
319.353612
0
LINE
8
Layer 1
10
278.294110
20
319.353612
11
281.871778
21
315.859648
0
LINE
8
Layer 1
10
281.871778
20
315.859648
11
285.291761
21
312.053888
0
LINE
8
Layer 1
10
285.291761
20
312.053888
11
288.598695
21
307.900833
0
LINE
8
Layer 1
10
288.598695
20
307.900833
11
292.459073
21
302.478691
0
LINE
8
Layer 1
10
292.459073
20
302.478691
11
295.955400
21
296.959799
0
LINE
8
Layer 1
10
295.955400
20
296.959799
11
299.085721
21
291.354712
0
LINE
8
Layer 1
10
299.085721
20
291.354712
11
301.848084
21
285.673983
0
LINE
8
Layer 1
10
301.848084
20
285.673983
11
304.240537
21
279.928166
0
LINE
8
Layer 1
10
304.240537
20
279.928166
11
306.261126
21
274.127813
0
LINE
8
Layer 1
10
306.261126
20
274.127813
11
307.907899
21
268.283479
0
LINE
8
Layer 1
10
307.907899
20
268.283479
11
309.178904
21
262.405716
0
LINE
8
Layer 1
10
309.178904
20
262.405716
11
310.072186
21
256.505078
0
LINE
8
Layer 1
10
310.072186
20
256.505078
11
310.585793
21
250.592118
0
LINE
8
Layer 1
10
310.585793
20
250.592118
11
310.717774
21
244.677391
0
LINE
8
Layer 1
10
310.717774
20
244.677391
11
310.466174
21
238.771448
0
LINE
8
Layer 1
10
310.466174
20
238.771448
11
309.829041
21
232.884844
0
LINE
8
Layer 1
10
309.829041
20
232.884844
11
308.804422
21
227.028132
0
LINE
8
Layer 1
10
308.804422
20
227.028132
11
307.390365
21
221.211865
0
LINE
8
Layer 1
10
307.390365
20
221.211865
11
305.584916
21
215.446597
0
LINE
8
Layer 1
10
305.584916
20
215.446597
11
302.877545
21
208.046333
0
LINE
8
Layer 1
10
302.877545
20
208.046333
11
300.155102
21
201.288476
0
LINE
8
Layer 1
10
300.155102
20
201.288476
11
297.508351
21
195.387562
0
LINE
8
Layer 1
10
297.508351
20
195.387562
11
295.028056
21
190.558125
0
LINE
8
Layer 1
10
295.028056
20
190.558125
11
286.940639
21
176.411736
0
LINE
8
Layer 1
10
286.940639
20
176.411736
11
280.659284
21
166.978464
0
LINE
8
Layer 1
10
280.659284
20
166.978464
11
273.173472
21
156.276944
0
LINE
8
Layer 1
10
273.173472
20
156.276944
11
268.318552
21
150.057915
0
LINE
8
Layer 1
10
268.318552
20
150.057915
11
261.827806
21
142.275385
0
LINE
8
Layer 1
10
261.827806
20
142.275385
11
254.389349
21
133.689715
0
LINE
8
Layer 1
10
254.389349
20
133.689715
11
246.691295
21
125.061271
0
LINE
8
Layer 1
10
246.691295
20
125.061271
11
239.421761
21
117.150415
0
LINE
8
Layer 1
10
239.421761
20
117.150415
11
233.268859
21
110.717512
0
LINE
8
Layer 1
10
233.268859
20
110.717512
11
228.920706
21
106.522923
0
LINE
8
Layer 1
10
228.920706
20
106.522923
11
227.638446
21
105.502611
0
LINE
8
Layer 1
10
227.638446
20
105.502611
11
227.257902
21
105.303283
0
LINE
8
Layer 1
10
227.257902
20
105.303283
11
227.065417
21
105.327014
0
LINE
8
Layer 1
10
227.065417
20
105.327014
11
225.230972
21
107.831736
0
LINE
8
Layer 1
10
225.230972
20
107.831736
11
223.551898
21
110.435046
0
LINE
8
Layer 1
10
223.551898
20
110.435046
11
221.835486
21
113.529097
0
LINE
8
Layer 1
10
221.835486
20
113.529097
11
220.919285
21
115.425708
0
LINE
8
Layer 1
10
220.919285
20
115.425708
11
220.526344
21
116.606926
0
LINE
8
Layer 1
10
220.526344
20
116.606926
11
220.604972
21
117.389142
0
LINE
8
Layer 1
10
220.604972
20
117.389142
11
221.103472
21
118.088750
0
LINE
8
Layer 1
10
221.103472
20
118.088750
11
221.782428
21
119.070331
0
LINE
8
Layer 1
10
221.782428
20
119.070331
11
222.069814
21
120.047524
0
LINE
8
Layer 1
10
222.069814
20
120.047524
11
221.960019
21
120.962552
0
LINE
8
Layer 1
10
221.960019
20
120.962552
11
221.447431
21
121.757639
0
LINE
8
Layer 1
10
221.447431
20
121.757639
11
221.305879
21
122.126012
0
LINE
8
Layer 1
10
221.305879
20
122.126012
11
221.575644
21
122.551056
0
LINE
8
Layer 1
10
221.575644
20
122.551056
11
222.268576
21
123.042412
0
LINE
8
Layer 1
10
222.268576
20
123.042412
11
223.396528
21
123.609722
0
LINE
8
Layer 1
10
223.396528
20
123.609722
11
225.179489
21
124.643666
0
LINE
8
Layer 1
10
225.179489
20
124.643666
11
225.672560
21
125.116370
0
LINE
8
Layer 1
10
225.672560
20
125.116370
11
225.795417
21
125.479444
0
LINE
8
Layer 1
10
225.795417
20
125.479444
11
224.945462
21
126.319515
0
LINE
8
Layer 1
10
224.945462
20
126.319515
11
223.202500
21
127.357986
0
LINE
8
Layer 1
10
223.202500
20
127.357986
11
221.638702
21
128.220259
0
LINE
8
Layer 1
10
221.638702
20
128.220259
11
220.969160
21
128.919801
0
LINE
8
Layer 1
10
220.969160
20
128.919801
11
220.947600
21
129.269617
0
LINE
8
Layer 1
10
220.947600
20
129.269617
11
221.123042
21
129.652030
0
LINE
8
Layer 1
10
221.123042
20
129.652030
11
222.029514
21
130.612361
0
LINE
8
Layer 1
10
222.029514
20
130.612361
11
222.691367
21
131.278027
0
LINE
8
Layer 1
10
222.691367
20
131.278027
11
222.907794
21
131.878684
0
LINE
8
Layer 1
10
222.907794
20
131.878684
11
222.674056
21
132.717100
0
LINE
8
Layer 1
10
222.674056
20
132.717100
11
221.985417
21
134.096042
0
LINE
8
Layer 1
10
221.985417
20
134.096042
11
221.425604
21
135.494541
0
LINE
8
Layer 1
10
221.425604
20
135.494541
11
221.069974
21
137.120583
0
LINE
8
Layer 1
10
221.069974
20
137.120583
11
220.914362
21
138.914957
0
LINE
8
Layer 1
10
220.914362
20
138.914957
11
220.954604
21
140.818453
0
LINE
8
Layer 1
10
220.954604
20
140.818453
11
221.186536
21
142.771860
0
LINE
8
Layer 1
10
221.186536
20
142.771860
11
221.605995
21
144.715968
0
LINE
8
Layer 1
10
221.605995
20
144.715968
11
222.208815
21
146.591566
0
LINE
8
Layer 1
10
222.208815
20
146.591566
11
222.990833
21
148.339444
0
LINE
8
Layer 1
10
222.990833
20
148.339444
11
224.684167
21
151.849583
0
LINE
8
Layer 1
10
224.684167
20
151.849583
11
224.037824
21
152.507148
0
LINE
8
Layer 1
10
224.037824
20
152.507148
11
222.322222
21
153.696192
0
LINE
8
Layer 1
10
222.322222
20
153.696192
11
217.023782
21
156.899655
0
LINE
8
Layer 1
10
217.023782
20
156.899655
11
211.469927
21
159.921851
0
LINE
8
Layer 1
10
211.469927
20
159.921851
11
209.435056
21
160.884309
0
LINE
8
Layer 1
10
209.435056
20
160.884309
11
208.341736
21
161.224653
0
LINE
8
Layer 1
10
208.341736
20
161.224653
11
207.784308
21
160.884741
0
LINE
8
Layer 1
10
207.784308
20
160.884741
11
206.794860
21
159.995796
0
LINE
8
Layer 1
10
206.794860
20
159.995796
11
204.081944
21
157.114792
0
LINE
8
Layer 1
10
204.081944
20
157.114792
11
201.883883
21
154.780244
0
LINE
8
Layer 1
10
201.883883
20
154.780244
11
200.544708
21
153.709285
0
LINE
8
Layer 1
10
200.544708
20
153.709285
11
200.256185
21
153.676026
0
LINE
8
Layer 1
10
200.256185
20
153.676026
11
200.253162
21
153.992712
0
LINE
8
Layer 1
10
200.253162
20
153.992712
11
201.197986
21
155.721319
0
LINE
8
Layer 1
10
201.197986
20
155.721319
11
201.754598
21
156.670801
0
LINE
8
Layer 1
10
201.754598
20
156.670801
11
201.839521
21
157.020005
0
LINE
8
Layer 1
10
201.839521
20
157.020005
11
201.772410
21
157.334352
0
LINE
8
Layer 1
10
201.772410
20
157.334352
11
201.112750
21
158.004980
0
LINE
8
Layer 1
10
201.112750
20
158.004980
11
199.636944
21
158.975694
0
LINE
8
Layer 1
10
199.636944
20
158.975694
11
197.629640
21
160.140275
0
LINE
8
Layer 1
10
197.629640
20
160.140275
11
196.470764
21
160.624931
0
LINE
8
Layer 1
10
196.470764
20
160.624931
11
196.127827
21
160.383275
0
LINE
8
Layer 1
10
196.127827
20
160.383275
11
195.603375
21
159.725486
0
LINE
8
Layer 1
10
195.603375
20
159.725486
11
194.292361
21
157.564583
0
LINE
8
Layer 1
10
194.292361
20
157.564583
11
193.496614
21
155.790625
0
LINE
8
Layer 1
10
193.496614
20
155.790625
11
192.867296
21
153.703724
0
LINE
8
Layer 1
10
192.867296
20
153.703724
11
192.361813
21
151.128520
0
LINE
8
Layer 1
10
192.361813
20
151.128520
11
191.937569
21
147.889653
0
LINE
8
Layer 1
10
191.937569
20
147.889653
11
191.395820
21
139.760193
0
LINE
8
Layer 1
10
191.395820
20
139.760193
11
191.217236
21
130.340431
0
LINE
8
Layer 1
10
191.217236
20
130.340431
11
191.401023
21
122.280331
0
LINE
8
Layer 1
10
191.401023
20
122.280331
11
191.628559
21
119.588270
0
LINE
8
Layer 1
10
191.628559
20
119.588270
11
191.946389
21
118.229861
0
LINE
8
Layer 1
10
191.946389
20
118.229861
11
192.307378
21
117.405315
0
LINE
8
Layer 1
10
192.307378
20
117.405315
11
192.456531
21
116.465549
0
LINE
8
Layer 1
10
192.456531
20
116.465549
11
192.405830
21
115.449266
0
LINE
8
Layer 1
10
192.405830
20
115.449266
11
192.167260
21
114.395164
0
LINE
8
Layer 1
10
192.167260
20
114.395164
11
191.752804
21
113.341945
0
LINE
8
Layer 1
10
191.752804
20
113.341945
11
191.174446
21
112.328308
0
LINE
8
Layer 1
10
191.174446
20
112.328308
11
190.444169
21
111.392954
0
LINE
8
Layer 1
10
190.444169
20
111.392954
11
189.573958
21
110.574583
0
LINE
8
Layer 1
10
189.573958
20
110.574583
11
188.687242
21
109.764333
0
LINE
8
Layer 1
10
188.687242
20
109.764333
11
187.980018
21
108.915532
0
LINE
8
Layer 1
10
187.980018
20
108.915532
11
187.511934
21
108.111326
0
LINE
8
Layer 1
10
187.511934
20
108.111326
11
187.342639
21
107.434861
0
LINE
8
Layer 1
10
187.342639
20
107.434861
11
187.116759
21
106.676830
0
LINE
8
Layer 1
10
187.116759
20
106.676830
11
186.481601
21
105.670195
0
LINE
8
Layer 1
10
186.481601
20
105.670195
11
185.500852
21
104.500789
0
LINE
8
Layer 1
10
185.500852
20
104.500789
11
184.238194
21
103.254444
0
LINE
8
Layer 1
10
184.238194
20
103.254444
11
177.773542
21
97.398333
0
LINE
8
Layer 1
10
177.773542
20
97.398333
11
175.511442
21
95.609831
0
LINE
8
Layer 1
10
175.511442
20
95.609831
11
173.182197
21
94.235174
0
LINE
8
Layer 1
10
173.182197
20
94.235174
11
170.939354
21
93.350690
0
LINE
8
Layer 1
10
170.939354
20
93.350690
11
168.936458
21
93.032708
0
LINE
8
Layer 1
10
168.936458
20
93.032708
11
167.642022
21
92.452945
0
LINE
8
Layer 1
10
167.642022
20
92.452945
11
165.523333
21
91.065972
0
LINE
8
Layer 1
10
165.523333
20
91.065972
11
163.193030
21
89.533723
0
LINE
8
Layer 1
10
163.193030
20
89.533723
11
161.395833
21
88.605347
0
LINE
8
Layer 1
10
161.395833
20
88.605347
11
160.490554
21
88.433991
0
LINE
8
Layer 1
10
160.490554
20
88.433991
11
159.281865
21
88.410892
0
LINE
8
Layer 1
10
159.281865
20
88.410892
11
156.389832
21
88.732447
0
LINE
8
Layer 1
10
156.389832
20
88.732447
11
153.590887
21
89.415991
0
LINE
8
Layer 1
10
153.590887
20
89.415991
11
152.498557
21
89.845377
0
LINE
8
Layer 1
10
152.498557
20
89.845377
11
151.756181
21
90.307500
0
LINE
8
Layer 1
10
151.756181
20
90.307500
11
151.053323
21
90.719988
0
LINE
8
Layer 1
10
151.053323
20
90.719988
11
149.988923
21
91.085821
0
LINE
8
Layer 1
10
149.988923
20
91.085821
11
147.328819
21
91.524583
0
LINE
8
Layer 1
10
147.328819
20
91.524583
11
144.895727
21
91.814478
0
LINE
8
Layer 1
10
144.895727
20
91.814478
11
144.019754
21
92.080067
0
LINE
8
Layer 1
10
144.019754
20
92.080067
11
143.323398
21
92.460378
0
LINE
8
Layer 1
10
143.323398
20
92.460378
11
142.771083
21
92.981132
0
LINE
8
Layer 1
10
142.771083
20
92.981132
11
142.327234
21
93.668050
0
LINE
8
Layer 1
10
142.327234
20
93.668050
11
141.622639
21
95.643264
0
LINE
8
Layer 1
10
141.622639
20
95.643264
11
141.233949
21
96.703581
0
LINE
8
Layer 1
10
141.233949
20
96.703581
11
140.665975
21
97.768242
0
LINE
8
Layer 1
10
140.665975
20
97.768242
11
139.994250
21
98.714095
0
LINE
8
Layer 1
10
139.994250
20
98.714095
11
139.294306
21
99.417986
0
LINE
8
Layer 1
10
139.294306
20
99.417986
11
138.474358
21
100.181662
0
LINE
8
Layer 1
10
138.474358
20
100.181662
11
137.965880
21
101.001203
0
LINE
8
Layer 1
10
137.965880
20
101.001203
11
137.711511
21
102.016913
0
LINE
8
Layer 1
10
137.711511
20
102.016913
11
137.653889
21
103.369097
0
LINE
8
Layer 1
10
137.653889
20
103.369097
11
137.877507
21
105.458028
0
LINE
8
Layer 1
10
137.877507
20
105.458028
11
138.359444
21
106.791042
0
LINE
8
Layer 1
10
138.359444
20
106.791042
11
138.587114
21
107.280436
0
LINE
8
Layer 1
10
138.587114
20
107.280436
11
138.717516
21
108.022554
0
LINE
8
Layer 1
10
138.717516
20
108.022554
11
138.650486
21
109.860208
0
LINE
8
Layer 1
10
138.650486
20
109.860208
11
138.577303
21
111.110762
0
LINE
8
Layer 1
10
138.577303
20
111.110762
11
138.750887
21
112.400795
0
LINE
8
Layer 1
10
138.750887
20
112.400795
11
139.163829
21
113.717441
0
LINE
8
Layer 1
10
139.163829
20
113.717441
11
139.808716
21
115.047833
0
LINE
8
Layer 1
10
139.808716
20
115.047833
11
140.678139
21
116.379103
0
LINE
8
Layer 1
10
140.678139
20
116.379103
11
141.764687
21
117.698384
0
LINE
8
Layer 1
10
141.764687
20
117.698384
11
143.060949
21
118.992810
0
LINE
8
Layer 1
10
143.060949
20
118.992810
11
144.559514
21
120.249514
0
LINE
8
Layer 1
10
144.559514
20
120.249514
11
146.174793
21
121.583592
0
LINE
8
Layer 1
10
146.174793
20
121.583592
11
147.262427
21
122.697716
0
LINE
8
Layer 1
10
147.262427
20
122.697716
11
147.876139
21
123.654891
0
LINE
8
Layer 1
10
147.876139
20
123.654891
11
148.069653
21
124.518125
0
LINE
8
Layer 1
10
148.069653
20
124.518125
11
148.256333
21
125.355687
0
LINE
8
Layer 1
10
148.256333
20
125.355687
11
148.804404
21
126.344650
0
LINE
8
Layer 1
10
148.804404
20
126.344650
11
149.699474
21
127.465454
0
LINE
8
Layer 1
10
149.699474
20
127.465454
11
150.927153
21
128.698542
0
LINE
8
Layer 1
10
150.927153
20
128.698542
11
152.070253
21
129.874099
0
LINE
8
Layer 1
10
152.070253
20
129.874099
11
153.074420
21
131.127640
0
LINE
8
Layer 1
10
153.074420
20
131.127640
11
153.831777
21
132.308750
0
LINE
8
Layer 1
10
153.831777
20
132.308750
11
154.234444
21
133.267014
0
LINE
8
Layer 1
10
154.234444
20
133.267014
11
155.109085
21
136.115375
0
LINE
8
Layer 1
10
155.109085
20
136.115375
11
156.523508
21
139.810694
0
LINE
8
Layer 1
10
156.523508
20
139.810694
11
160.290035
21
148.308645
0
LINE
8
Layer 1
10
160.290035
20
148.308645
11
164.170694
21
155.893749
0
LINE
8
Layer 1
10
164.170694
20
155.893749
11
165.727782
21
158.448010
0
LINE
8
Layer 1
10
165.727782
20
158.448010
11
166.802153
21
159.698889
0
LINE
8
Layer 1
10
166.802153
20
159.698889
11
167.213390
21
160.300333
0
LINE
8
Layer 1
10
167.213390
20
160.300333
11
167.384236
21
161.242292
0
LINE
8
Layer 1
10
167.384236
20
161.242292
11
167.249181
21
161.814970
0
LINE
8
Layer 1
10
167.249181
20
161.814970
11
166.823451
21
162.283322
0
LINE
8
Layer 1
10
166.823451
20
162.283322
11
166.076186
21
162.667722
0
LINE
8
Layer 1
10
166.076186
20
162.667722
11
164.976528
21
162.988542
0
LINE
8
Layer 1
10
164.976528
20
162.988542
11
163.680603
21
163.387809
0
LINE
8
Layer 1
10
163.680603
20
163.387809
11
162.728369
21
164.004877
0
LINE
8
Layer 1
10
162.728369
20
164.004877
11
161.923461
21
165.026590
0
LINE
8
Layer 1
10
161.923461
20
165.026590
11
161.069514
21
166.639792
0
LINE
8
Layer 1
10
161.069514
20
166.639792
11
160.295535
21
168.129986
0
LINE
8
Layer 1
10
160.295535
20
168.129986
11
159.665009
21
169.008107
0
LINE
8
Layer 1
10
159.665009
20
169.008107
11
159.092916
21
169.361324
0
LINE
8
Layer 1
10
159.092916
20
169.361324
11
158.494236
21
169.276806
0
LINE
8
Layer 1
10
158.494236
20
169.276806
11
156.499171
21
168.894173
0
LINE
8
Layer 1
10
156.499171
20
168.894173
11
153.229028
21
168.624167
0
LINE
8
Layer 1
10
153.229028
20
168.624167
11
150.800990
21
168.464688
0
LINE
8
Layer 1
10
150.800990
20
168.464688
11
149.347729
21
168.094620
0
LINE
8
Layer 1
10
149.347729
20
168.094620
11
148.320377
21
167.246288
0
LINE
8
Layer 1
10
148.320377
20
167.246288
11
147.170069
21
165.652014
0
LINE
8
Layer 1
10
147.170069
20
165.652014
11
145.035671
21
162.735549
0
LINE
8
Layer 1
10
145.035671
20
162.735549
11
142.548681
21
159.619514
0
LINE
8
Layer 1
10
142.548681
20
159.619514
11
139.814653
21
156.365139
0
LINE
8
Layer 1
10
139.814653
20
156.365139
11
140.970000
21
151.382153
0
LINE
8
Layer 1
10
140.970000
20
151.382153
11
141.660160
21
147.902151
0
LINE
8
Layer 1
10
141.660160
20
147.902151
11
141.676114
21
146.754251
0
LINE
8
Layer 1
10
141.676114
20
146.754251
11
141.408290
21
145.886480
0
LINE
8
Layer 1
10
141.408290
20
145.886480
11
140.808419
21
145.212881
0
LINE
8
Layer 1
10
140.808419
20
145.212881
11
139.828230
21
144.647499
0
LINE
8
Layer 1
10
139.828230
20
144.647499
11
136.533819
21
143.497569
0
LINE
8
Layer 1
10
136.533819
20
143.497569
11
133.776861
21
142.488013
0
LINE
8
Layer 1
10
133.776861
20
142.488013
11
132.936832
21
142.063803
0
LINE
8
Layer 1
10
132.936832
20
142.063803
11
132.626806
21
141.768958
0
LINE
8
Layer 1
10
132.626806
20
141.768958
11
132.766068
21
141.286510
0
LINE
8
Layer 1
10
132.766068
20
141.286510
11
133.153232
21
140.717616
0
LINE
8
Layer 1
10
133.153232
20
140.717616
11
134.432912
21
139.506371
0
LINE
8
Layer 1
10
134.432912
20
139.506371
11
135.989140
21
138.506993
0
LINE
8
Layer 1
10
135.989140
20
138.506993
11
136.721989
21
138.202931
0
LINE
8
Layer 1
10
136.721989
20
138.202931
11
137.345208
21
138.091250
0
LINE
8
Layer 1
10
137.345208
20
138.091250
11
138.656840
21
137.837203
0
LINE
8
Layer 1
10
138.656840
20
137.837203
11
139.620625
21
137.226944
0
LINE
8
Layer 1
10
139.620625
20
137.226944
11
139.756784
21
136.940279
0
LINE
8
Layer 1
10
139.756784
20
136.940279
11
139.732901
21
136.570587
0
LINE
8
Layer 1
10
139.732901
20
136.570587
11
139.133569
21
135.484242
0
LINE
8
Layer 1
10
139.133569
20
135.484242
11
137.679744
21
133.772148
0
LINE
8
Layer 1
10
137.679744
20
133.772148
11
135.228542
21
131.238542
0
LINE
8
Layer 1
10
135.228542
20
131.238542
11
133.134620
21
129.250327
0
LINE
8
Layer 1
10
133.134620
20
129.250327
11
130.920511
21
127.370061
0
LINE
8
Layer 1
10
130.920511
20
127.370061
11
128.585576
21
125.597551
0
LINE
8
Layer 1
10
128.585576
20
125.597551
11
126.129174
21
123.932600
0
LINE
8
Layer 1
10
126.129174
20
123.932600
11
123.550667
21
122.375016
0
LINE
8
Layer 1
10
123.550667
20
122.375016
11
120.849414
21
120.924603
0
LINE
8
Layer 1
10
120.849414
20
120.924603
11
115.076111
21
118.344514
0
LINE
8
Layer 1
10
115.076111
20
118.344514
11
111.948170
21
117.323273
0
LINE
8
Layer 1
10
111.948170
20
117.323273
11
110.753312
21
117.155705
0
LINE
8
Layer 1
10
110.753312
20
117.155705
11
109.742506
21
117.229720
0
LINE
8
Layer 1
10
109.742506
20
117.229720
11
108.869234
21
117.554981
0
LINE
8
Layer 1
10
108.869234
20
117.554981
11
108.086978
21
118.141150
0
LINE
8
Layer 1
10
108.086978
20
118.141150
11
107.349220
21
118.997890
0
LINE
8
Layer 1
10
107.349220
20
118.997890
11
106.609444
21
120.134861
0
LINE
8
Layer 1
10
106.609444
20
120.134861
11
105.345351
21
121.784331
0
LINE
8
Layer 1
10
105.345351
20
121.784331
11
103.875417
21
123.089375
0
LINE
8
Layer 1
10
103.875417
20
123.089375
11
102.962785
21
123.604368
0
LINE
8
Layer 1
10
102.962785
20
123.604368
11
102.152156
21
123.812435
0
LINE
8
Layer 1
10
102.152156
20
123.812435
11
101.252863
21
123.727323
0
LINE
8
Layer 1
10
101.252863
20
123.727323
11
100.074236
21
123.362778
0
LINE
8
Layer 1
10
100.074236
20
123.362778
11
98.991191
21
123.033158
0
LINE
8
Layer 1
10
98.991191
20
123.033158
11
98.093466
21
122.909527
0
LINE
8
Layer 1
10
98.093466
20
122.909527
11
97.315207
21
122.990473
0
LINE
8
Layer 1
10
97.315207
20
122.990473
11
96.590556
21
123.274583
0
LINE
8
Layer 1
10
96.590556
20
123.274583
11
95.726123
21
123.892783
0
LINE
8
Layer 1
10
95.726123
20
123.892783
11
95.484425
21
124.285289
0
LINE
8
Layer 1
10
95.484425
20
124.285289
11
95.362809
21
124.798165
0
LINE
8
Layer 1
10
95.362809
20
124.798165
11
95.459027
21
126.379325
0
LINE
8
Layer 1
10
95.459027
20
126.379325
11
95.973194
21
129.024861
0
LINE
8
Layer 1
10
95.973194
20
129.024861
11
96.435554
21
130.847028
0
LINE
8
Layer 1
10
96.435554
20
130.847028
11
97.053317
21
132.009902
0
LINE
8
Layer 1
10
97.053317
20
132.009902
11
98.136435
21
132.884110
0
LINE
8
Layer 1
10
98.136435
20
132.884110
11
99.994861
21
133.840278
0
LINE
8
Layer 1
10
99.994861
20
133.840278
11
102.725729
21
135.242663
0
LINE
8
Layer 1
10
102.725729
20
135.242663
11
104.607431
21
136.380278
0
LINE
8
Layer 1
10
104.607431
20
136.380278
11
105.262678
21
136.981391
0
LINE
8
Layer 1
10
105.262678
20
136.981391
11
105.359125
21
137.285408
0
LINE
8
Layer 1
10
105.359125
20
137.285408
11
105.275354
21
137.652614
0
LINE
8
Layer 1
10
105.275354
20
137.652614
11
104.488842
21
138.759231
0
LINE
8
Layer 1
10
104.488842
20
138.759231
11
102.746528
21
140.666528
0
LINE
8
Layer 1
10
102.746528
20
140.666528
11
99.615625
21
144.017917
0
LINE
8
Layer 1
10
99.615625
20
144.017917
11
100.038958
21
148.595208
0
LINE
8
Layer 1
10
100.038958
20
148.595208
11
100.444342
21
151.453838
0
LINE
8
Layer 1
10
100.444342
20
151.453838
11
101.107694
21
153.750380
0
LINE
8
Layer 1
10
101.107694
20
153.750380
11
102.089960
21
155.643329
0
LINE
8
Layer 1
10
102.089960
20
155.643329
11
103.452083
21
157.291181
0
LINE
8
Layer 1
10
103.452083
20
157.291181
11
103.811887
21
157.841314
0
LINE
8
Layer 1
10
103.811887
20
157.841314
11
103.813471
21
158.552117
0
LINE
8
Layer 1
10
103.813471
20
158.552117
11
103.418285
21
159.598181
0
LINE
8
Layer 1
10
103.418285
20
159.598181
11
102.587778
21
161.154097
0
LINE
8
Layer 1
10
102.587778
20
161.154097
11
101.035666
21
163.650124
0
LINE
8
Layer 1
10
101.035666
20
163.650124
11
99.703819
21
165.422708
0
LINE
8
Layer 1
10
99.703819
20
165.422708
11
98.995712
21
166.112487
0
LINE
8
Layer 1
10
98.995712
20
166.112487
11
98.427148
21
166.279317
0
LINE
8
Layer 1
10
98.427148
20
166.279317
11
97.716398
21
165.867911
0
LINE
8
Layer 1
10
97.716398
20
165.867911
11
96.581736
21
164.822986
0
LINE
8
Layer 1
10
96.581736
20
164.822986
11
95.343619
21
163.711164
0
LINE
8
Layer 1
10
95.343619
20
163.711164
11
94.761027
21
163.421928
0
LINE
8
Layer 1
10
94.761027
20
163.421928
11
94.786723
21
163.978742
0
LINE
8
Layer 1
10
94.786723
20
163.978742
11
95.373472
21
165.405069
0
LINE
8
Layer 1
10
95.373472
20
165.405069
11
95.722729
21
166.755167
0
LINE
8
Layer 1
10
95.722729
20
166.755167
11
95.653188
21
167.334723
0
LINE
8
Layer 1
10
95.653188
20
167.334723
11
95.420150
21
167.851472
0
LINE
8
Layer 1
10
95.420150
20
167.851472
11
95.023078
21
168.306059
0
LINE
8
Layer 1
10
95.023078
20
168.306059
11
94.461436
21
168.699124
0
LINE
8
Layer 1
10
94.461436
20
168.699124
11
92.842292
21
169.303264
0
LINE
8
Layer 1
10
92.842292
20
169.303264
11
91.205281
21
169.983255
0
LINE
8
Layer 1
10
91.205281
20
169.983255
11
89.720208
21
171.014236
0
LINE
8
Layer 1
10
89.720208
20
171.014236
11
88.344375
21
172.301875
0
LINE
8
Layer 1
10
88.344375
20
172.301875
11
85.530972
21
167.001389
0
LINE
8
Layer 1
10
85.530972
20
167.001389
11
83.330854
21
163.184883
0
LINE
8
Layer 1
10
83.330854
20
163.184883
11
82.493626
21
161.967822
0
LINE
8
Layer 1
10
82.493626
20
161.967822
11
81.985556
21
161.453958
0
LINE
8
Layer 1
10
81.985556
20
161.453958
11
81.599960
21
161.683797
0
LINE
8
Layer 1
10
81.599960
20
161.683797
11
81.141774
21
162.554136
0
LINE
8
Layer 1
10
81.141774
20
162.554136
11
80.124653
21
165.943056
0
LINE
8
Layer 1
10
80.124653
20
165.943056
11
79.440055
21
168.634308
0
LINE
8
Layer 1
10
79.440055
20
168.634308
11
78.783891
21
170.207187
0
LINE
8
Layer 1
10
78.783891
20
170.207187
11
77.834584
21
171.167149
0
LINE
8
Layer 1
10
77.834584
20
171.167149
11
76.270556
21
172.019653
0
LINE
8
Layer 1
10
76.270556
20
172.019653
11
74.869926
21
172.651226
0
LINE
8
Layer 1
10
74.869926
20
172.651226
11
73.895882
21
172.935612
0
LINE
8
Layer 1
10
73.895882
20
172.935612
11
73.205182
21
172.894309
0
LINE
8
Layer 1
10
73.205182
20
172.894309
11
72.654583
21
172.548819
0
LINE
8
Layer 1
10
72.654583
20
172.548819
11
71.599313
21
171.923661
0
LINE
8
Layer 1
10
71.599313
20
171.923661
11
69.914066
21
171.304879
0
LINE
8
Layer 1
10
69.914066
20
171.304879
11
65.603794
21
170.262096
0
LINE
8
Layer 1
10
65.603794
20
170.262096
11
61.624073
21
169.771772
0
LINE
8
Layer 1
10
61.624073
20
169.771772
11
60.352015
21
169.843564
0
LINE
8
Layer 1
10
60.352015
20
169.843564
11
59.999359
21
169.977910
0
LINE
8
Layer 1
10
59.999359
20
169.977910
11
59.875208
21
170.185208
0
LINE
8
Layer 1
10
59.875208
20
170.185208
11
60.273674
21
172.211474
0
LINE
8
Layer 1
10
60.273674
20
172.211474
11
61.341460
21
175.149878
0
LINE
8
Layer 1
10
61.341460
20
175.149878
11
62.887152
21
178.636011
0
LINE
8
Layer 1
10
62.887152
20
178.636011
11
64.719338
21
182.305462
0
LINE
8
Layer 1
10
64.719338
20
182.305462
11
66.646602
21
185.793823
0
LINE
8
Layer 1
10
66.646602
20
185.793823
11
68.477530
21
188.736683
0
LINE
8
Layer 1
10
68.477530
20
188.736683
11
70.020708
21
190.769633
0
LINE
8
Layer 1
10
70.020708
20
190.769633
11
70.624574
21
191.331014
0
LINE
8
Layer 1
10
70.624574
20
191.331014
11
71.084722
21
191.528264
0
LINE
8
Layer 1
10
71.084722
20
191.528264
11
71.879002
21
191.323102
0
LINE
8
Layer 1
10
71.879002
20
191.323102
11
72.742688
21
190.417455
0
LINE
8
Layer 1
10
72.742688
20
190.417455
11
73.990064
21
188.376083
0
LINE
8
Layer 1
10
73.990064
20
188.376083
11
75.935417
21
184.763750
0
LINE
8
Layer 1
10
75.935417
20
184.763750
11
78.008922
21
180.972502
0
LINE
8
Layer 1
10
78.008922
20
180.972502
11
79.172153
21
179.084028
0
LINE
8
Layer 1
10
79.172153
20
179.084028
11
79.528839
21
178.956228
0
LINE
8
Layer 1
10
79.528839
20
178.956228
11
80.121080
21
179.006157
0
LINE
8
Layer 1
10
80.121080
20
179.006157
11
81.685694
21
179.577917
0
LINE
8
Layer 1
10
81.685694
20
179.577917
11
84.155083
21
180.535040
0
LINE
8
Layer 1
10
84.155083
20
180.535040
11
87.041596
21
181.239248
0
LINE
8
Layer 1
10
87.041596
20
181.239248
11
89.567468
21
181.544943
0
LINE
8
Layer 1
10
89.567468
20
181.544943
11
90.452111
21
181.502849
0
LINE
8
Layer 1
10
90.452111
20
181.502849
11
90.954931
21
181.306528
0
LINE
8
Layer 1
10
90.954931
20
181.306528
11
91.137062
21
180.965755
0
LINE
8
Layer 1
10
91.137062
20
180.965755
11
91.166614
21
180.489529
0
LINE
8
Layer 1
10
91.166614
20
180.489529
11
90.778542
21
179.295694
0
LINE
8
Layer 1
10
90.778542
20
179.295694
11
90.399019
21
178.428553
0
LINE
8
Layer 1
10
90.399019
20
178.428553
11
90.280792
21
177.769279
0
LINE
8
Layer 1
10
90.280792
20
177.769279
11
90.398771
21
177.324429
0
LINE
8
Layer 1
10
90.398771
20
177.324429
11
90.727870
21
177.100561
0
LINE
8
Layer 1
10
90.727870
20
177.100561
11
91.242999
21
177.104231
0
LINE
8
Layer 1
10
91.242999
20
177.104231
11
91.919069
21
177.341997
0
LINE
8
Layer 1
10
91.919069
20
177.341997
11
93.653681
21
178.546042
0
LINE
8
Layer 1
10
93.653681
20
178.546042
11
95.740779
21
180.088361
0
LINE
8
Layer 1
10
95.740779
20
180.088361
11
97.534236
21
180.962569
0
LINE
8
Layer 1
10
97.534236
20
180.962569
11
98.551404
21
181.095034
0
LINE
8
Layer 1
10
98.551404
20
181.095034
11
99.781253
21
181.044490
0
LINE
8
Layer 1
10
99.781253
20
181.044490
11
102.775125
21
180.423895
0
LINE
8
Layer 1
10
102.775125
20
180.423895
11
106.308119
21
179.159824
0
LINE
8
Layer 1
10
106.308119
20
179.159824
11
110.172500
21
177.311319
0
LINE
8
Layer 1
10
110.172500
20
177.311319
11
117.218207
21
173.749983
0
LINE
8
Layer 1
10
117.218207
20
173.749983
11
119.812455
21
172.705773
0
LINE
8
Layer 1
10
119.812455
20
172.705773
11
121.990808
21
172.115245
0
LINE
8
Layer 1
10
121.990808
20
172.115245
11
123.905649
21
171.950433
0
LINE
8
Layer 1
10
123.905649
20
171.950433
11
125.709359
21
172.183371
0
LINE
8
Layer 1
10
125.709359
20
172.183371
11
127.554321
21
172.786090
0
LINE
8
Layer 1
10
127.554321
20
172.786090
11
129.592917
21
173.730625
0
LINE
8
Layer 1
10
129.592917
20
173.730625
11
131.403783
21
174.758098
0
LINE
8
Layer 1
10
131.403783
20
174.758098
11
132.868500
21
175.865529
0
LINE
8
Layer 1
10
132.868500
20
175.865529
11
134.115356
21
177.166689
0
LINE
8
Layer 1
10
134.115356
20
177.166689
11
135.272639
21
178.775347
0
LINE
8
Layer 1
10
135.272639
20
178.775347
11
136.268266
21
180.145794
0
LINE
8
Layer 1
10
136.268266
20
180.145794
11
137.454849
21
181.502006
0
LINE
8
Layer 1
10
137.454849
20
181.502006
11
138.683626
21
182.687719
0
LINE
8
Layer 1
10
138.683626
20
182.687719
11
139.805833
21
183.546667
0
LINE
8
Layer 1
10
139.805833
20
183.546667
11
141.583040
21
184.881490
0
LINE
8
Layer 1
10
141.583040
20
184.881490
11
142.147238
21
185.469322
0
LINE
8
Layer 1
10
142.147238
20
185.469322
11
142.381111
21
185.901458
0
LINE
8
Layer 1
10
142.381111
20
185.901458
11
142.636875
21
190.240625
0
LINE
8
Layer 1
10
142.636875
20
190.240625
11
142.877282
21
193.423772
0
LINE
8
Layer 1
10
142.877282
20
193.423772
11
143.236597
21
196.105556
0
LINE
8
Layer 1
10
143.236597
20
196.105556
11
143.410397
21
197.397493
0
LINE
8
Layer 1
10
143.410397
20
197.397493
11
143.272145
21
198.357630
0
LINE
8
Layer 1
10
143.272145
20
198.357630
11
142.723653
21
199.245654
0
LINE
8
Layer 1
10
142.723653
20
199.245654
11
141.666736
21
200.321250
0
LINE
8
Layer 1
10
141.666736
20
200.321250
11
140.515133
21
201.460905
0
LINE
8
Layer 1
10
140.515133
20
201.460905
11
140.004520
21
202.365590
0
LINE
8
Layer 1
10
140.004520
20
202.365590
11
140.025154
21
203.493852
0
LINE
8
Layer 1
10
140.025154
20
203.493852
11
140.467292
21
205.304236
0
LINE
8
Layer 1
10
140.467292
20
205.304236
11
140.919523
21
207.295927
0
LINE
8
Layer 1
10
140.919523
20
207.295927
11
140.901864
21
208.014987
0
LINE
8
Layer 1
10
140.901864
20
208.014987
11
140.654702
21
208.662653
0
LINE
8
Layer 1
10
140.654702
20
208.662653
11
140.127799
21
209.323772
0
LINE
8
Layer 1
10
140.127799
20
209.323772
11
139.270916
21
210.083191
0
LINE
8
Layer 1
10
139.270916
20
210.083191
11
136.366250
21
212.236319
0
LINE
8
Layer 1
10
136.366250
20
212.236319
11
134.875764
21
213.312292
0
LINE
8
Layer 1
10
134.875764
20
213.312292
11
136.754306
21
216.857708
0
LINE
8
Layer 1
10
136.754306
20
216.857708
11
137.832056
21
218.737934
0
LINE
8
Layer 1
10
137.832056
20
218.737934
11
138.786200
21
219.918031
0
LINE
8
Layer 1
10
138.786200
20
219.918031
11
139.884155
21
220.646143
0
LINE
8
Layer 1
10
139.884155
20
220.646143
11
141.393333
21
221.170417
0
LINE
8
Layer 1
10
141.393333
20
221.170417
11
142.665697
21
221.641947
0
LINE
8
Layer 1
10
142.665697
20
221.641947
11
144.089329
21
222.354496
0
LINE
8
Layer 1
10
144.089329
20
222.354496
11
145.490085
21
223.211428
0
LINE
8
Layer 1
10
145.490085
20
223.211428
11
146.693819
21
224.116111
0
LINE
8
Layer 1
10
146.693819
20
224.116111
11
149.233819
21
226.285694
0
LINE
8
Layer 1
10
149.233819
20
226.285694
11
151.253472
21
224.398333
0
LINE
8
Layer 1
10
151.253472
20
224.398333
11
153.162708
21
223.005599
0
LINE
8
Layer 1
10
153.162708
20
223.005599
11
154.118314
21
222.535502
0
LINE
8
Layer 1
10
154.118314
20
222.535502
11
154.913542
21
222.308125
0
LINE
8
Layer 1
10
154.913542
20
222.308125
11
155.855603
21
222.074779
0
LINE
8
Layer 1
10
155.855603
20
222.074779
11
156.155671
21
221.773796
0
LINE
8
Layer 1
10
156.155671
20
221.773796
11
156.370835
21
221.242108
0
LINE
8
Layer 1
10
156.370835
20
221.242108
11
156.633670
21
219.163123
0
LINE
8
Layer 1
10
156.633670
20
219.163123
11
156.818542
21
215.190833
0
LINE
8
Layer 1
10
156.818542
20
215.190833
11
156.883225
21
211.264863
0
LINE
8
Layer 1
10
156.883225
20
211.264863
11
156.690483
21
208.950466
0
LINE
8
Layer 1
10
156.690483
20
208.950466
11
156.493301
21
208.378467
0
LINE
8
Layer 1
10
156.493301
20
208.378467
11
156.226632
21
208.186392
0
LINE
8
Layer 1
10
156.226632
20
208.186392
11
155.888763
21
208.366585
0
LINE
8
Layer 1
10
155.888763
20
208.366585
11
155.477986
21
208.911389
0
LINE
8
Layer 1
10
155.477986
20
208.911389
11
154.940243
21
209.464724
0
LINE
8
Layer 1
10
154.940243
20
209.464724
11
154.420358
21
209.504983
0
LINE
8
Layer 1
10
154.420358
20
209.504983
11
154.028003
21
209.078671
0
LINE
8
Layer 1
10
154.028003
20
209.078671
11
153.872847
21
208.232292
0
LINE
8
Layer 1
10
153.872847
20
208.232292
11
154.026010
21
207.576925
0
LINE
8
Layer 1
10
154.026010
20
207.576925
11
154.443710
21
206.771314
0
LINE
8
Layer 1
10
154.443710
20
206.771314
11
155.821944
21
205.119028
0
LINE
8
Layer 1
10
155.821944
20
205.119028
11
157.779861
21
203.328681
0
LINE
8
Layer 1
10
157.779861
20
203.328681
11
153.987500
21
200.991528
0
LINE
8
Layer 1
10
153.987500
20
200.991528
11
150.212888
21
198.437081
0
LINE
8
Layer 1
10
150.212888
20
198.437081
11
148.850955
21
197.290497
0
LINE
8
Layer 1
10
148.850955
20
197.290497
11
147.801003
21
196.185013
0
LINE
8
Layer 1
10
147.801003
20
196.185013
11
147.034334
21
195.086133
0
LINE
8
Layer 1
10
147.034334
20
195.086133
11
146.522246
21
193.959362
0
LINE
8
Layer 1
10
146.522246
20
193.959362
11
146.236039
21
192.770205
0
LINE
8
Layer 1
10
146.236039
20
192.770205
11
146.147014
21
191.484167
0
LINE
8
Layer 1
10
146.147014
20
191.484167
11
146.310977
21
187.783822
0
LINE
8
Layer 1
10
146.310977
20
187.783822
11
146.590458
21
186.357080
0
LINE
8
Layer 1
10
146.590458
20
186.357080
11
147.067851
21
185.073892
0
LINE
8
Layer 1
10
147.067851
20
185.073892
11
147.792840
21
183.830209
0
LINE
8
Layer 1
10
147.792840
20
183.830209
11
148.815106
21
182.521982
0
LINE
8
Layer 1
10
148.815106
20
182.521982
11
151.950208
21
179.295694
0
LINE
8
Layer 1
10
151.950208
20
179.295694
11
154.587920
21
176.871324
0
LINE
8
Layer 1
10
154.587920
20
176.871324
11
157.237221
21
174.704781
0
LINE
8
Layer 1
10
157.237221
20
174.704781
11
159.909068
21
172.789854
0
LINE
8
Layer 1
10
159.909068
20
172.789854
11
162.614418
21
171.120332
0
LINE
8
Layer 1
10
162.614418
20
171.120332
11
165.364230
21
169.690005
0
LINE
8
Layer 1
10
165.364230
20
169.690005
11
168.169459
21
168.492662
0
LINE
8
Layer 1
10
168.169459
20
168.492662
11
171.041063
21
167.522092
0
LINE
8
Layer 1
10
171.041063
20
167.522092
11
173.990000
21
166.772083
0
LINE
8
Layer 1
10
173.990000
20
166.772083
11
174.709887
21
166.546041
0
LINE
8
Layer 1
10
174.709887
20
166.546041
11
175.236378
21
166.233857
0
LINE
8
Layer 1
10
175.236378
20
166.233857
11
175.567584
21
165.859236
0
LINE
8
Layer 1
10
175.567584
20
165.859236
11
175.701612
21
165.445886
0
LINE
8
Layer 1
10
175.701612
20
165.445886
11
175.636571
21
165.017512
0
LINE
8
Layer 1
10
175.636571
20
165.017512
11
175.370571
21
164.597820
0
LINE
8
Layer 1
10
175.370571
20
164.597820
11
174.901719
21
164.210516
0
LINE
8
Layer 1
10
174.901719
20
164.210516
11
174.228125
21
163.879306
0
LINE
8
Layer 1
10
174.228125
20
163.879306
11
173.653671
21
163.554757
0
LINE
8
Layer 1
10
173.653671
20
163.554757
11
173.035630
21
163.014162
0
LINE
8
Layer 1
10
173.035630
20
163.014162
11
171.712017
21
161.378156
0
LINE
8
Layer 1
10
171.712017
20
161.378156
11
170.343743
21
159.157929
0
LINE
8
Layer 1
10
170.343743
20
159.157929
11
169.017267
21
156.540121
0
LINE
8
Layer 1
10
169.017267
20
156.540121
11
167.819044
21
153.711373
0
LINE
8
Layer 1
10
167.819044
20
153.711373
11
166.835532
21
150.858327
0
LINE
8
Layer 1
10
166.835532
20
150.858327
11
166.153189
21
148.167623
0
LINE
8
Layer 1
10
166.153189
20
148.167623
11
165.858472
21
145.825903
0
LINE
8
Layer 1
10
165.858472
20
145.825903
11
165.779097
21
143.576944
0
LINE
8
Layer 1
10
165.779097
20
143.576944
11
173.178611
21
142.395139
0
LINE
8
Layer 1
10
173.178611
20
142.395139
11
179.436119
21
141.420162
0
LINE
8
Layer 1
10
179.436119
20
141.420162
11
181.318669
21
141.209901
0
LINE
8
Layer 1
10
181.318669
20
141.209901
11
182.575551
21
141.205699
0
LINE
8
Layer 1
10
182.575551
20
141.205699
11
183.360614
21
141.423489
0
LINE
8
Layer 1
10
183.360614
20
141.423489
11
183.827710
21
141.879202
0
LINE
8
Layer 1
10
183.827710
20
141.879202
11
184.423403
21
143.568125
0
LINE
8
Layer 1
10
184.423403
20
143.568125
11
185.803709
21
147.278736
0
LINE
8
Layer 1
10
185.803709
20
147.278736
11
187.762592
21
151.598710
0
LINE
8
Layer 1
10
187.762592
20
151.598710
11
189.822384
21
155.545822
0
LINE
8
Layer 1
10
189.822384
20
155.545822
11
191.505417
21
158.137847
0
LINE
8
Layer 1
10
191.505417
20
158.137847
11
192.892730
21
160.071975
0
LINE
8
Layer 1
10
192.892730
20
160.071975
11
193.120096
21
160.769766
0
LINE
8
Layer 1
10
193.120096
20
160.769766
11
193.015353
21
161.325759
0
LINE
8
Layer 1
10
193.015353
20
161.325759
11
192.562567
21
161.768240
0
LINE
8
Layer 1
10
192.562567
20
161.768240
11
191.745802
21
162.125499
0
LINE
8
Layer 1
10
191.745802
20
162.125499
11
188.956597
21
162.697500
0
LINE
8
Layer 1
10
188.956597
20
162.697500
11
188.420977
21
162.944575
0
LINE
8
Layer 1
10
188.420977
20
162.944575
11
187.976856
21
163.457560
0
LINE
8
Layer 1
10
187.976856
20
163.457560
11
187.639883
21
164.150887
0
LINE
8
Layer 1
10
187.639883
20
164.150887
11
187.425705
21
164.938985
0
LINE
8
Layer 1
10
187.425705
20
164.938985
11
187.349973
21
165.736286
0
LINE
8
Layer 1
10
187.349973
20
165.736286
11
187.428334
21
166.457220
0
LINE
8
Layer 1
10
187.428334
20
166.457220
11
187.676437
21
167.016217
0
LINE
8
Layer 1
10
187.676437
20
167.016217
11
188.109931
21
167.327708
0
LINE
8
Layer 1
10
188.109931
20
167.327708
11
193.362540
21
168.961949
0
LINE
8
Layer 1
10
193.362540
20
168.961949
11
197.485570
21
170.410284
0
LINE
8
Layer 1
10
197.485570
20
170.410284
11
201.059305
21
171.893806
0
LINE
8
Layer 1
10
201.059305
20
171.893806
11
204.664028
21
173.633611
0
LINE
8
Layer 1
10
204.664028
20
173.633611
11
210.952292
21
176.720417
0
LINE
8
Layer 1
10
210.952292
20
176.720417
11
211.411933
21
175.964410
0
LINE
8
Layer 1
10
211.411933
20
175.964410
11
212.204653
21
174.145139
0
LINE
8
Layer 1
10
212.204653
20
174.145139
11
213.278515
21
172.221972
0
LINE
8
Layer 1
10
213.278515
20
172.221972
11
214.797036
21
170.343244
0
LINE
8
Layer 1
10
214.797036
20
170.343244
11
216.377560
21
168.916869
0
LINE
8
Layer 1
10
216.377560
20
168.916869
11
217.071493
21
168.500788
0
LINE
8
Layer 1
10
217.071493
20
168.500788
11
217.637431
21
168.350764
0
LINE
8
Layer 1
10
217.637431
20
168.350764
11
218.886919
21
167.511419
0
LINE
8
Layer 1
10
218.886919
20
167.511419
11
221.077014
21
165.493264
0
LINE
8
Layer 1
10
221.077014
20
165.493264
11
223.620350
21
163.334930
0
LINE
8
Layer 1
10
223.620350
20
163.334930
11
226.596506
21
161.351753
0
LINE
8
Layer 1
10
226.596506
20
161.351753
11
229.405833
21
159.900339
0
LINE
8
Layer 1
10
229.405833
20
159.900339
11
230.560545
21
159.485482
0
LINE
8
Layer 1
10
230.560545
20
159.485482
11
231.448681
21
159.337292
0
LINE
8
Layer 1
10
231.448681
20
159.337292
11
231.880956
21
159.461967
0
LINE
8
Layer 1
10
231.880956
20
159.461967
11
231.928087
21
159.913763
0
LINE
8
Layer 1
10
231.928087
20
159.913763
11
231.561331
21
160.809337
0
LINE
8
Layer 1
10
231.561331
20
160.809337
11
230.751944
21
162.265347
0
LINE
8
Layer 1
10
230.751944
20
162.265347
11
229.635196
21
164.425335
0
LINE
8
Layer 1
10
229.635196
20
164.425335
11
229.368958
21
165.155498
0
LINE
8
Layer 1
10
229.368958
20
165.155498
11
229.358472
21
165.510903
0
LINE
8
Layer 1
10
229.358472
20
165.510903
11
229.807565
21
165.509337
0
LINE
8
Layer 1
10
229.807565
20
165.509337
11
230.792364
21
165.267513
0
LINE
8
Layer 1
10
230.792364
20
165.267513
11
233.785833
21
164.232083
0
LINE
8
Layer 1
10
233.785833
20
164.232083
11
238.244243
21
162.696576
0
LINE
8
Layer 1
10
238.244243
20
162.696576
11
242.156471
21
161.826146
0
LINE
8
Layer 1
10
242.156471
20
161.826146
11
245.823468
21
161.576600
0
LINE
8
Layer 1
10
245.823468
20
161.576600
11
249.546181
21
161.903750
0
LINE
8
Layer 1
10
249.546181
20
161.903750
11
256.275090
21
163.151706
0
LINE
8
Layer 1
10
256.275090
20
163.151706
11
258.530721
21
163.742220
0
LINE
8
Layer 1
10
258.530721
20
163.742220
11
260.023248
21
164.298578
0
LINE
8
Layer 1
10
260.023248
20
164.298578
11
260.734757
21
164.811899
0
LINE
8
Layer 1
10
260.734757
20
164.811899
11
260.792032
21
165.049643
0
LINE
8
Layer 1
10
260.792032
20
165.049643
11
260.647334
21
165.273297
0
LINE
8
Layer 1
10
260.647334
20
165.273297
11
259.743062
21
165.673889
0
LINE
8
Layer 1
10
259.743062
20
165.673889
11
258.004028
21
166.004792
0
LINE
8
Layer 1
10
258.004028
20
166.004792
11
252.209653
21
166.789722
0
LINE
8
Layer 1
10
252.209653
20
166.789722
11
250.048751
21
167.209395
0
LINE
8
Layer 1
10
250.048751
20
167.209395
11
249.390961
21
167.432663
0
LINE
8
Layer 1
10
249.390961
20
167.432663
11
249.149306
21
167.627569
0
LINE
8
Layer 1
10
249.149306
20
167.627569
11
250.356435
21
168.352898
0
LINE
8
Layer 1
10
250.356435
20
168.352898
11
253.259167
21
169.514931
0
LINE
8
Layer 1
10
253.259167
20
169.514931
11
255.995981
21
170.653480
0
LINE
8
Layer 1
10
255.995981
20
170.653480
11
258.553168
21
172.038889
0
LINE
8
Layer 1
10
258.553168
20
172.038889
11
260.923604
21
173.664465
0
LINE
8
Layer 1
10
260.923604
20
173.664465
11
263.100160
21
175.523515
0
LINE
8
Layer 1
10
263.100160
20
175.523515
11
265.075712
21
177.609348
0
LINE
8
Layer 1
10
265.075712
20
177.609348
11
266.843131
21
179.915272
0
LINE
8
Layer 1
10
266.843131
20
179.915272
11
268.395293
21
182.434595
0
LINE
8
Layer 1
10
268.395293
20
182.434595
11
269.725069
21
185.160625
0
LINE
8
Layer 1
10
269.725069
20
185.160625
11
270.592798
21
187.713810
0
LINE
8
Layer 1
10
270.592798
20
187.713810
11
270.772515
21
189.456595
0
LINE
8
Layer 1
10
270.772515
20
189.456595
11
270.617125
21
189.920975
0
LINE
8
Layer 1
10
270.617125
20
189.920975
11
270.305037
21
190.059017
0
LINE
8
Layer 1
10
270.305037
20
190.059017
11
269.841355
21
189.829478
0
LINE
8
Layer 1
10
269.841355
20
189.829478
11
269.231181
21
189.191111
0
LINE
8
Layer 1
10
269.231181
20
189.191111
11
267.297923
21
187.283302
0
LINE
8
Layer 1
10
267.297923
20
187.283302
11
264.793553
21
185.524594
0
LINE
8
Layer 1
10
264.793553
20
185.524594
11
262.122336
21
184.159371
0
LINE
8
Layer 1
10
262.122336
20
184.159371
11
260.850494
21
183.700685
0
LINE
8
Layer 1
10
260.850494
20
183.700685
11
259.688542
21
183.432014
0
LINE
8
Layer 1
10
259.688542
20
183.432014
11
257.545365
21
183.244372
0
LINE
8
Layer 1
10
257.545365
20
183.244372
11
256.425347
21
183.396736
0
LINE
8
Layer 1
10
256.425347
20
183.396736
11
256.938044
21
184.197614
0
LINE
8
Layer 1
10
256.938044
20
184.197614
11
258.625068
21
186.087482
0
LINE
8
Layer 1
10
258.625068
20
186.087482
11
264.468681
21
192.004514
0
LINE
8
Layer 1
10
264.468681
20
192.004514
11
269.185874
21
196.676698
0
LINE
8
Layer 1
10
269.185874
20
196.676698
11
272.084310
21
199.905120
0
LINE
8
Layer 1
10
272.084310
20
199.905120
11
274.016997
21
202.766137
0
LINE
8
Layer 1
10
274.016997
20
202.766137
11
275.836944
21
206.336111
0
LINE
8
Layer 1
10
275.836944
20
206.336111
11
278.216979
21
211.941579
0
LINE
8
Layer 1
10
278.216979
20
211.941579
11
279.832153
21
216.831250
0
LINE
8
Layer 1
10
279.832153
20
216.831250
11
280.676099
21
219.573308
0
LINE
8
Layer 1
10
280.676099
20
219.573308
11
281.038704
21
220.213099
0
LINE
8
Layer 1
10
281.038704
20
220.213099
11
281.352304
21
220.368322
0
LINE
8
Layer 1
10
281.352304
20
220.368322
11
281.609830
21
220.041173
0
LINE
8
Layer 1
10
281.609830
20
220.041173
11
281.804214
21
219.233845
0
LINE
8
Layer 1
10
281.804214
20
219.233845
11
281.975278
21
216.187431
0
LINE
8
Layer 1
10
281.975278
20
216.187431
11
282.063798
21
214.536036
0
LINE
8
Layer 1
10
282.063798
20
214.536036
11
282.295734
21
213.345017
0
LINE
8
Layer 1
10
282.295734
20
213.345017
11
282.637286
21
212.616636
0
LINE
8
Layer 1
10
282.637286
20
212.616636
11
283.054654
21
212.353152
0
LINE
8
Layer 1
10
283.054654
20
212.353152
11
283.514040
21
212.556826
0
LINE
8
Layer 1
10
283.514040
20
212.556826
11
283.981644
21
213.229919
0
LINE
8
Layer 1
10
283.981644
20
213.229919
11
284.423665
21
214.374691
0
LINE
8
Layer 1
10
284.423665
20
214.374691
11
284.806305
21
215.993403
0
LINE
8
Layer 1
10
284.806305
20
215.993403
11
286.071031
21
219.570649
0
LINE
8
Layer 1
10
286.071031
20
219.570649
11
288.528139
21
225.006875
0
LINE
8
Layer 1
10
288.528139
20
225.006875
11
291.835417
21
231.762569
0
LINE
8
Layer 1
10
291.835417
20
231.762569
11
291.826583
21
239.488403
0
LINE
8
Layer 1
10
291.826583
20
239.488403
11
291.727127
21
242.933414
0
LINE
8
Layer 1
10
291.727127
20
242.933414
11
291.438561
21
246.283995
0
LINE
8
Layer 1
10
291.438561
20
246.283995
11
290.961680
21
249.538711
0
LINE
8
Layer 1
10
290.961680
20
249.538711
11
290.297280
21
252.696129
0
LINE
8
Layer 1
10
290.297280
20
252.696129
11
289.446157
21
255.754818
0
LINE
8
Layer 1
10
289.446157
20
255.754818
11
288.409107
21
258.713343
0
LINE
8
Layer 1
10
288.409107
20
258.713343
11
287.186924
21
261.570273
0
LINE
8
Layer 1
10
287.186924
20
261.570273
11
285.780406
21
264.324173
0
LINE
8
Layer 1
10
285.780406
20
264.324173
11
284.190347
21
266.973611
0
LINE
8
Layer 1
10
284.190347
20
266.973611
11
282.417543
21
269.517154
0
LINE
8
Layer 1
10
282.417543
20
269.517154
11
280.462790
21
271.953370
0
LINE
8
Layer 1
10
280.462790
20
271.953370
11
278.326884
21
274.280824
0
LINE
8
Layer 1
10
278.326884
20
274.280824
11
276.010620
21
276.498085
0
LINE
8
Layer 1
10
276.010620
20
276.498085
11
273.514794
21
278.603719
0
LINE
8
Layer 1
10
273.514794
20
278.603719
11
270.840202
21
280.596293
0
LINE
8
Layer 1
10
270.840202
20
280.596293
11
267.987639
21
282.474375
0
LINE
8
Layer 1
10
267.987639
20
282.474375
11
262.601345
21
285.591670
0
LINE
8
Layer 1
10
262.601345
20
285.591670
11
260.364509
21
286.629169
0
LINE
8
Layer 1
10
260.364509
20
286.629169
11
258.225236
21
287.379098
0
LINE
8
Layer 1
10
258.225236
20
287.379098
11
256.028548
21
287.886353
0
LINE
8
Layer 1
10
256.028548
20
287.886353
11
253.619461
21
288.195831
0
LINE
8
Layer 1
10
253.619461
20
288.195831
11
247.544167
21
288.401042
0
LINE
8
Layer 1
10
247.544167
20
288.401042
11
242.794938
21
288.371975
0
LINE
8
Layer 1
10
242.794938
20
288.371975
11
239.862751
21
288.156264
0
LINE
8
Layer 1
10
239.862751
20
288.156264
11
237.792504
21
287.608740
0
LINE
8
Layer 1
10
237.792504
20
287.608740
11
235.629097
21
286.584236
0
LINE
8
Layer 1
10
235.629097
20
286.584236
11
232.420159
21
284.606421
0
LINE
8
Layer 1
10
232.420159
20
284.606421
11
229.675972
21
282.430278
0
LINE
8
Layer 1
10
229.675972
20
282.430278
11
228.043530
21
280.957755
0
LINE
8
Layer 1
10
228.043530
20
280.957755
11
227.600590
21
280.676488
0
LINE
8
Layer 1
10
227.600590
20
280.676488
11
227.399798
21
280.715135
0
LINE
8
Layer 1
10
227.399798
20
280.715135
11
227.704536
21
281.801927
0
LINE
8
Layer 1
10
227.704536
20
281.801927
11
228.917500
21
284.317639
0
LINE
8
Layer 1
10
228.917500
20
284.317639
11
229.984574
21
286.720380
0
LINE
8
Layer 1
10
229.984574
20
286.720380
11
230.231883
21
287.528222
0
LINE
8
Layer 1
10
230.231883
20
287.528222
11
230.231597
21
287.915972
0
LINE
8
Layer 1
10
230.231597
20
287.915972
11
229.878450
21
288.084046
0
LINE
8
Layer 1
10
229.878450
20
288.084046
11
229.345138
21
288.089469
0
LINE
8
Layer 1
10
229.345138
20
288.089469
11
227.854764
21
287.659562
0
LINE
8
Layer 1
10
227.854764
20
287.659562
11
225.993970
21
286.720656
0
LINE
8
Layer 1
10
225.993970
20
286.720656
11
223.996250
21
285.367153
0
LINE
8
Layer 1
10
223.996250
20
285.367153
11
222.654072
21
284.207571
0
LINE
8
Layer 1
10
222.654072
20
284.207571
11
221.438255
21
282.892604
0
LINE
8
Layer 1
10
221.438255
20
282.892604
11
220.351208
21
281.427000
0
LINE
8
Layer 1
10
220.351208
20
281.427000
11
219.395342
21
279.815511
0
LINE
8
Layer 1
10
219.395342
20
279.815511
11
218.573065
21
278.062885
0
LINE
8
Layer 1
10
218.573065
20
278.062885
11
217.886788
21
276.173874
0
LINE
8
Layer 1
10
217.886788
20
276.173874
11
217.338922
21
274.153227
0
LINE
8
Layer 1
10
217.338922
20
274.153227
11
216.931875
21
272.005694
0
LINE
8
Layer 1
10
216.931875
20
272.005694
11
216.282116
21
268.453464
0
LINE
8
Layer 1
10
216.282116
20
268.453464
11
215.750069
21
266.696389
0
LINE
8
Layer 1
10
215.750069
20
266.696389
11
215.399325
21
266.563016
0
LINE
8
Layer 1
10
215.399325
20
266.563016
11
214.776378
21
266.552033
0
LINE
8
Layer 1
10
214.776378
20
266.552033
11
213.068958
21
266.872778
0
LINE
8
Layer 1
10
213.068958
20
266.872778
11
209.767999
21
267.616062
0
LINE
8
Layer 1
10
209.767999
20
267.616062
11
204.955069
21
268.486736
0
LINE
8
Layer 1
10
204.955069
20
268.486736
11
201.266761
21
269.086039
0
LINE
8
Layer 1
10
201.266761
20
269.086039
11
199.844404
21
269.146564
0
LINE
8
Layer 1
10
199.844404
20
269.146564
11
198.262447
21
268.968885
0
LINE
8
Layer 1
10
198.262447
20
268.968885
11
193.297344
21
267.662566
0
LINE
8
Layer 1
10
193.297344
20
267.662566
11
183.726667
21
264.694375
0
LINE
8
Layer 1
10
183.726667
20
264.694375
11
177.785926
21
262.575576
0
LINE
8
Layer 1
10
177.785926
20
262.575576
11
170.850278
21
259.764306
0
LINE
8
Layer 1
10
170.850278
20
259.764306
11
166.408293
21
257.788732
0
LINE
8
Layer 1
10
166.408293
20
257.788732
11
163.680898
21
256.248309
0
LINE
8
Layer 1
10
163.680898
20
256.248309
11
162.633695
21
255.410436
0
LINE
8
Layer 1
10
162.633695
20
255.410436
11
161.623367
21
254.404340
0
LINE
8
Layer 1
10
161.623367
20
254.404340
11
159.190972
21
251.518125
0
LINE
8
Layer 1
10
159.190972
20
251.518125
11
153.528889
21
244.162708
0
LINE
8
Layer 1
10
153.528889
20
244.162708
11
152.205472
21
242.456502
0
LINE
8
Layer 1
10
152.205472
20
242.456502
11
151.324028
21
241.746181
0
LINE
8
Layer 1
10
151.324028
20
241.746181
11
150.971559
21
242.140246
0
LINE
8
Layer 1
10
150.971559
20
242.140246
11
150.431622
21
243.213004
0
LINE
8
Layer 1
10
150.431622
20
243.213004
11
149.083889
21
246.737986
0
LINE
8
Layer 1
10
149.083889
20
246.737986
11
148.013911
21
249.631717
0
LINE
8
Layer 1
10
148.013911
20
249.631717
11
146.720423
21
252.623753
0
LINE
8
Layer 1
10
146.720423
20
252.623753
11
143.614211
21
258.638805
0
LINE
8
Layer 1
10
143.614211
20
258.638805
11
141.877133
21
261.529859
0
LINE
8
Layer 1
10
141.877133
20
261.529859
11
140.067837
21
264.255289
0
LINE
8
Layer 1
10
140.067837
20
264.255289
11
138.224148
21
266.749112
0
LINE
8
Layer 1
10
138.224148
20
266.749112
11
136.383889
21
268.945347
0
LINE
8
Layer 1
10
136.383889
20
268.945347
11
133.853432
21
271.599392
0
LINE
8
Layer 1
10
133.853432
20
271.599392
11
131.434761
21
273.626100
0
LINE
8
Layer 1
10
131.434761
20
273.626100
11
128.359751
21
275.581233
0
LINE
8
Layer 1
10
128.359751
20
275.581233
11
123.860278
21
278.020556
0
LINE
8
Layer 1
10
123.860278
20
278.020556
11
120.069974
21
279.894778
0
LINE
8
Layer 1
10
120.069974
20
279.894778
11
116.023382
21
281.687797
0
LINE
8
Layer 1
10
116.023382
20
281.687797
11
111.804728
21
283.371062
0
LINE
8
Layer 1
10
111.804728
20
283.371062
11
107.498236
21
284.916024
0
LINE
8
Layer 1
10
107.498236
20
284.916024
11
103.188132
21
286.294136
0
LINE
8
Layer 1
10
103.188132
20
286.294136
11
98.958642
21
287.476847
0
LINE
8
Layer 1
10
98.958642
20
287.476847
11
94.893990
21
288.435610
0
LINE
8
Layer 1
10
94.893990
20
288.435610
11
91.078403
21
289.141875
0
LINE
8
Layer 1
10
91.078403
20
289.141875
11
87.395656
21
289.673625
0
LINE
8
Layer 1
10
87.395656
20
289.673625
11
85.004813
21
289.849168
0
LINE
8
Layer 1
10
85.004813
20
289.849168
11
83.216598
21
289.668860
0
LINE
8
Layer 1
10
83.216598
20
289.668860
11
81.341736
21
289.133056
0
LINE
8
Layer 1
10
81.341736
20
289.133056
11
79.758480
21
288.451431
0
LINE
8
Layer 1
10
79.758480
20
288.451431
11
77.753711
21
287.361299
0
LINE
8
Layer 1
10
77.753711
20
287.361299
11
73.510069
21
284.555764
0
LINE
8
Layer 1
10
73.510069
20
284.555764
11
68.544722
21
281.019167
0
LINE
8
Layer 1
10
68.544722
20
281.019167
11
68.149864
21
281.821847
0
LINE
8
Layer 1
10
68.149864
20
281.821847
11
67.556944
21
283.753194
0
LINE
8
Layer 1
10
67.556944
20
283.753194
11
66.606167
21
286.130227
0
LINE
8
Layer 1
10
66.606167
20
286.130227
11
65.042066
21
288.824576
0
LINE
8
Layer 1
10
65.042066
20
288.824576
11
63.110421
21
291.461498
0
LINE
8
Layer 1
10
63.110421
20
291.461498
11
61.057014
21
293.666250
0
LINE
8
Layer 1
10
61.057014
20
293.666250
11
60.081837
21
294.353098
0
LINE
8
Layer 1
10
60.081837
20
294.353098
11
58.768063
21
294.849382
0
LINE
8
Layer 1
10
58.768063
20
294.849382
11
56.914250
21
295.210507
0
LINE
8
Layer 1
10
56.914250
20
295.210507
11
54.318958
21
295.491875
0
LINE
8
Layer 1
10
54.318958
20
295.491875
11
50.566843
21
295.652814
0
LINE
8
Layer 1
10
50.566843
20
295.652814
11
49.451028
21
295.539728
0
LINE
8
Layer 1
10
49.451028
20
295.539728
11
48.834850
21
295.291182
0
LINE
8
Layer 1
10
48.834850
20
295.291182
11
48.712914
21
294.902358
0
LINE
8
Layer 1
10
48.712914
20
294.902358
11
49.079825
21
294.368438
0
LINE
8
Layer 1
10
49.079825
20
294.368438
11
51.258611
21
292.846042
0
LINE
8
Layer 1
10
51.258611
20
292.846042
11
52.844893
21
291.795854
0
LINE
8
Layer 1
10
52.844893
20
291.795854
11
54.039235
21
290.647109
0
LINE
8
Layer 1
10
54.039235
20
290.647109
11
55.053733
21
289.144826
0
LINE
8
Layer 1
10
55.053733
20
289.144826
11
56.100486
21
287.034028
0
LINE
8
Layer 1
10
56.100486
20
287.034028
11
57.401338
21
283.772126
0
LINE
8
Layer 1
10
57.401338
20
283.772126
11
57.943750
21
281.627708
0
LINE
8
Layer 1
10
57.943750
20
281.627708
11
57.832979
21
280.885540
0
LINE
8
Layer 1
10
57.832979
20
280.885540
11
57.619060
21
280.665340
0
LINE
8
Layer 1
10
57.619060
20
280.665340
11
57.232378
21
280.532759
0
LINE
8
Layer 1
10
57.232378
20
280.532759
11
55.739511
21
280.491533
0
LINE
8
Layer 1
10
55.739511
20
280.491533
11
52.951944
21
280.684028
0
LINE
8
Layer 1
10
52.951944
20
280.684028
11
49.231598
21
280.809795
0
LINE
8
Layer 1
10
49.231598
20
280.809795
11
47.945903
21
280.729501
0
LINE
8
Layer 1
10
47.945903
20
280.729501
11
47.289861
21
280.560556
0
LINE
8
Layer 1
10
47.289861
20
280.560556
11
45.146162
21
278.149198
0
LINE
8
Layer 1
10
45.146162
20
278.149198
11
41.559407
21
273.653021
0
LINE
8
Layer 1
10
41.559407
20
273.653021
11
38.189840
21
269.206305
0
LINE
8
Layer 1
10
38.189840
20
269.206305
11
36.697708
21
266.943333
0
LINE
8
Layer 1
10
36.697708
20
266.943333
11
36.967785
21
266.314290
0
LINE
8
Layer 1
10
36.967785
20
266.314290
11
37.614931
21
265.611597
0
LINE
8
Layer 1
10
37.614931
20
265.611597
11
38.202150
21
265.335627
0
LINE
8
Layer 1
10
38.202150
20
265.335627
11
38.969714
21
265.450313
0
LINE
8
Layer 1
10
38.969714
20
265.450313
11
40.065303
21
266.009443
0
LINE
8
Layer 1
10
40.065303
20
266.009443
11
41.636597
21
267.066806
0
LINE
8
Layer 1
10
41.636597
20
267.066806
11
43.800461
21
268.490723
0
LINE
8
Layer 1
10
43.800461
20
268.490723
11
45.960331
21
269.696218
0
LINE
8
Layer 1
10
45.960331
20
269.696218
11
48.039175
21
270.659641
0
LINE
8
Layer 1
10
48.039175
20
270.659641
11
49.959958
21
271.357341
0
LINE
8
Layer 1
10
49.959958
20
271.357341
11
51.645647
21
271.765668
0
LINE
8
Layer 1
10
51.645647
20
271.765668
11
53.019207
21
271.860973
0
LINE
8
Layer 1
10
53.019207
20
271.860973
11
54.003604
21
271.619606
0
LINE
8
Layer 1
10
54.003604
20
271.619606
11
54.325794
21
271.365280
0
LINE
8
Layer 1
10
54.325794
20
271.365280
11
54.521806
21
271.017917
0
LINE
8
Layer 1
10
54.521806
20
271.017917
11
54.234173
21
270.303725
0
LINE
8
Layer 1
10
54.234173
20
270.303725
11
53.289655
21
268.851776
0
LINE
8
Layer 1
10
53.289655
20
268.851776
11
50.023889
21
264.579722
0
LINE
8
Layer 1
10
50.023889
20
264.579722
11
45.793647
21
259.223591
0
LINE
8
Layer 1
10
45.793647
20
259.223591
11
42.236319
21
254.455000
0
LINE
8
Layer 1
10
42.236319
20
254.455000
11
39.158333
21
250.107014
0
LINE
8
Layer 1
10
39.158333
20
250.107014
11
39.564028
21
244.480208
0
LINE
8
Layer 1
10
39.564028
20
244.480208
11
40.234127
21
237.440492
0
LINE
8
Layer 1
10
40.234127
20
237.440492
11
41.189879
21
231.221951
0
LINE
8
Layer 1
10
41.189879
20
231.221951
11
42.501281
21
225.456723
0
LINE
8
Layer 1
10
42.501281
20
225.456723
11
44.238333
21
219.776944
0
LINE
8
Layer 1
10
44.238333
20
219.776944
11
44.858554
21
218.235717
0
LINE
8
Layer 1
10
44.858554
20
218.235717
11
45.574469
21
217.129904
0
LINE
8
Layer 1
10
45.574469
20
217.129904
11
46.537334
21
216.282663
0
LINE
8
Layer 1
10
46.537334
20
216.282663
11
47.898403
21
215.517153
0
LINE
8
Layer 1
10
47.898403
20
215.517153
11
50.671712
21
213.786032
0
LINE
8
Layer 1
10
50.671712
20
213.786032
11
53.758835
21
211.296591
0
LINE
8
Layer 1
10
53.758835
20
211.296591
11
56.563781
21
208.575869
0
LINE
8
Layer 1
10
56.563781
20
208.575869
11
58.490556
21
206.150903
0
LINE
8
Layer 1
10
58.490556
20
206.150903
11
59.517938
21
203.788686
0
LINE
8
Layer 1
10
59.517938
20
203.788686
11
60.210347
21
201.009167
0
LINE
8
Layer 1
10
60.210347
20
201.009167
11
60.484780
21
199.630727
0
LINE
8
Layer 1
10
60.484780
20
199.630727
11
60.856450
21
198.543628
0
LINE
8
Layer 1
10
60.856450
20
198.543628
11
61.321788
21
197.756641
0
LINE
8
Layer 1
10
61.321788
20
197.756641
11
61.877222
21
197.278542
0
LINE
8
Layer 1
10
61.877222
20
197.278542
11
62.770538
21
196.621311
0
LINE
8
Layer 1
10
62.770538
20
196.621311
11
63.046979
21
196.012790
0
LINE
8
Layer 1
10
63.046979
20
196.012790
11
62.955602
21
195.761898
0
LINE
8
Layer 1
10
62.955602
20
195.761898
11
62.712083
21
195.565305
0
LINE
8
Layer 1
10
62.712083
20
195.565305
11
61.771389
21
195.391181
0
LINE
8
Layer 1
10
61.771389
20
195.391181
11
61.086221
21
195.225095
0
LINE
8
Layer 1
10
61.086221
20
195.225095
11
60.442132
21
194.693256
0
LINE
8
Layer 1
10
60.442132
20
194.693256
11
59.794598
21
193.745292
0
LINE
8
Layer 1
10
59.794598
20
193.745292
11
59.099097
21
192.330833
0
LINE
8
Layer 1
10
59.099097
20
192.330833
11
57.437788
21
188.891241
0
LINE
8
Layer 1
10
57.437788
20
188.891241
11
55.947125
21
186.429441
0
LINE
8
Layer 1
10
55.947125
20
186.429441
11
54.731580
21
185.090507
0
LINE
8
Layer 1
10
54.731580
20
185.090507
11
54.259624
21
184.887451
0
LINE
8
Layer 1
10
54.259624
20
184.887451
11
53.895625
21
185.019514
0
LINE
8
Layer 1
10
53.895625
20
185.019514
11
53.134867
21
185.313642
0
LINE
8
Layer 1
10
53.134867
20
185.313642
11
51.589273
21
185.544267
0
LINE
8
Layer 1
10
51.589273
20
185.544267
11
46.707778
21
185.760347
0
LINE
8
Layer 1
10
46.707778
20
185.760347
11
42.958285
21
185.860316
0
LINE
8
Layer 1
10
42.958285
20
185.860316
11
40.076621
21
186.194467
0
LINE
8
Layer 1
10
40.076621
20
186.194467
11
37.465623
21
186.871594
0
LINE
8
Layer 1
10
37.465623
20
186.871594
11
34.528125
21
188.000486
0
LINE
8
Layer 1
10
34.528125
20
188.000486
11
33.882776
21
188.186163
0
LINE
8
Layer 1
10
33.882776
20
188.186163
11
33.689841
21
188.114332
0
LINE
8
Layer 1
10
33.689841
20
188.114332
11
33.573499
21
187.896717
0
LINE
8
Layer 1
10
33.573499
20
187.896717
11
33.540893
21
186.916117
0
LINE
8
Layer 1
10
33.540893
20
186.916117
11
33.725556
21
185.028333
0
LINE
8
Layer 1
10
33.725556
20
185.028333
11
34.122431
21
181.553472
0
LINE
8
Layer 1
10
34.122431
20
181.553472
11
32.887708
21
184.208125
0
LINE
8
Layer 1
10
32.887708
20
184.208125
11
31.860687
21
186.166591
0
LINE
8
Layer 1
10
31.860687
20
186.166591
11
30.959091
21
187.209382
0
LINE
8
Layer 1
10
30.959091
20
187.209382
11
30.521200
21
187.410618
0
LINE
8
Layer 1
10
30.521200
20
187.410618
11
30.073713
21
187.410797
0
LINE
8
Layer 1
10
30.073713
20
187.410797
11
29.095347
21
186.845139
0
LINE
8
Layer 1
10
29.095347
20
186.845139
11
27.308211
21
185.850894
0
LINE
8
Layer 1
10
27.308211
20
185.850894
11
24.361921
21
184.813528
0
LINE
8
Layer 1
10
24.361921
20
184.813528
11
20.608337
21
183.801986
0
LINE
8
Layer 1
10
20.608337
20
183.801986
11
16.399319
21
182.885212
0
LINE
8
Layer 1
10
16.399319
20
182.885212
11
12.086727
21
182.132147
0
LINE
8
Layer 1
10
12.086727
20
182.132147
11
8.022422
21
181.611737
0
LINE
8
Layer 1
10
8.022422
20
181.611737
11
4.558263
21
181.392924
0
LINE
8
Layer 1
10
4.558263
20
181.392924
11
2.046111
21
181.544653
0
LINE
8
Layer 1
10
2.046111
20
181.544653
11
-0.158750
21
181.959167
0
LINE
8
Layer 1
10
-0.158750
20
181.959167
11
0.291042
21
178.942917
0
LINE
8
Layer 1
10
0.291042
20
178.942917
11
0.962250
21
175.472370
0
LINE
8
Layer 1
10
0.962250
20
175.472370
11
1.940278
21
171.367014
0
LINE
8
Layer 1
10
1.940278
20
171.367014
11
2.692604
21
168.000544
0
LINE
8
Layer 1
10
2.692604
20
168.000544
11
2.822222
21
166.304653
0
LINE
8
Layer 1
10
2.822222
20
166.304653
11
1.706962
21
165.115035
0
LINE
8
Layer 1
10
1.706962
20
165.115035
11
-0.425259
21
163.358854
0
LINE
8
Layer 1
10
-0.425259
20
163.358854
11
-6.776563
21
158.801213
0
LINE
8
Layer 1
10
-6.776563
20
158.801213
11
-14.303647
21
153.940553
0
LINE
8
Layer 1
10
-14.303647
20
153.940553
11
-17.905595
21
151.805597
0
LINE
8
Layer 1
10
-17.905595
20
151.805597
11
-21.078472
21
150.085694
0
LINE
8
Layer 1
10
-21.078472
20
150.085694
11
-24.447500
21
148.374722
0
LINE
8
Layer 1
10
-24.447500
20
148.374722
11
-28.301597
21
153.375347
0
LINE
8
Layer 1
10
-28.301597
20
153.375347
11
-35.273166
21
162.723787
0
LINE
8
Layer 1
10
-35.273166
20
162.723787
11
-42.512997
21
172.913043
0
LINE
8
Layer 1
10
-42.512997
20
172.913043
11
-48.926573
21
182.368972
0
LINE
8
Layer 1
10
-48.926573
20
182.368972
11
-53.419375
21
189.517431
0
LINE
8
Layer 1
10
-53.419375
20
189.517431
11
-55.593455
21
193.535731
0
LINE
8
Layer 1
10
-55.593455
20
193.535731
11
-57.797016
21
198.094150
0
LINE
8
Layer 1
10
-57.797016
20
198.094150
11
-59.963335
21
203.019492
0
LINE
8
Layer 1
10
-59.963335
20
203.019492
11
-62.025685
21
208.138564
0
LINE
8
Layer 1
10
-62.025685
20
208.138564
11
-63.917342
21
213.278172
0
LINE
8
Layer 1
10
-63.917342
20
213.278172
11
-65.571581
21
218.265120
0
LINE
8
Layer 1
10
-65.571581
20
218.265120
11
-66.921676
21
222.926216
0
LINE
8
Layer 1
10
-66.921676
20
222.926216
11
-67.900903
21
227.088264
0
LINE
8
Layer 1
10
-67.900903
20
227.088264
11
-68.714740
21
232.357748
0
LINE
8
Layer 1
10
-68.714740
20
232.357748
11
-69.223011
21
238.296001
0
LINE
8
Layer 1
10
-69.223011
20
238.296001
11
-69.434833
21
244.631495
0
LINE
8
Layer 1
10
-69.434833
20
244.631495
11
-69.359324
21
251.092704
0
LINE
8
Layer 1
10
-69.359324
20
251.092704
11
-69.005601
21
257.408102
0
LINE
8
Layer 1
10
-69.005601
20
257.408102
11
-68.382781
21
263.306163
0
LINE
8
Layer 1
10
-68.382781
20
263.306163
11
-67.499982
21
268.515360
0
LINE
8
Layer 1
10
-67.499982
20
268.515360
11
-66.366319
21
272.764167
0
LINE
8
Layer 1
10
-66.366319
20
272.764167
11
-63.284759
21
281.145959
0
LINE
8
Layer 1
10
-63.284759
20
281.145959
11
-60.075497
21
288.607375
0
LINE
8
Layer 1
10
-60.075497
20
288.607375
11
-56.715378
21
295.200537
0
LINE
8
Layer 1
10
-56.715378
20
295.200537
11
-53.181250
21
300.977569
0
LINE
8
Layer 1
10
-53.181250
20
300.977569
11
-51.745990
21
302.895287
0
LINE
8
Layer 1
10
-51.745990
20
302.895287
11
-49.784787
21
305.208152
0
LINE
8
Layer 1
10
-49.784787
20
305.208152
11
-44.785795
21
310.514063
0
LINE
8
Layer 1
10
-44.785795
20
310.514063
11
-39.186752
21
315.884783
0
LINE
8
Layer 1
10
-39.186752
20
315.884783
11
-33.990139
21
320.309792
0
LINE
8
Layer 1
10
-33.990139
20
320.309792
11
-30.512546
21
322.865968
0
LINE
8
Layer 1
10
-30.512546
20
322.865968
11
-26.871170
21
325.271777
0
LINE
8
Layer 1
10
-26.871170
20
325.271777
11
-23.081137
21
327.522647
0
LINE
8
Layer 1
10
-23.081137
20
327.522647
11
-19.157572
21
329.614002
0
LINE
8
Layer 1
10
-19.157572
20
329.614002
11
-15.115601
21
331.541270
0
LINE
8
Layer 1
10
-15.115601
20
331.541270
11
-10.970352
21
333.299877
0
LINE
8
Layer 1
10
-10.970352
20
333.299877
11
-6.736948
21
334.885248
0
LINE
8
Layer 1
10
-6.736948
20
334.885248
11
-2.430518
21
336.292810
0
LINE
8
Layer 1
10
-2.430518
20
336.292810
11
1.933814
21
337.517990
0
LINE
8
Layer 1
10
1.933814
20
337.517990
11
6.340921
21
338.556213
0
LINE
8
Layer 1
10
6.340921
20
338.556213
11
10.775678
21
339.402906
0
LINE
8
Layer 1
10
10.775678
20
339.402906
11
15.222958
21
340.053495
0
LINE
8
Layer 1
10
15.222958
20
340.053495
11
19.667636
21
340.503406
0
LINE
8
Layer 1
10
19.667636
20
340.503406
11
24.094584
21
340.748065
0
LINE
8
Layer 1
10
24.094584
20
340.748065
11
28.488678
21
340.782899
0
LINE
8
Layer 1
10
28.488678
20
340.782899
11
32.834792
21
340.603333
0
LINE
8
Layer 1
10
32.834792
20
340.603333
11
40.150109
21
339.883949
0
LINE
8
Layer 1
10
40.150109
20
339.883949
11
47.647049
21
338.762845
0
LINE
8
Layer 1
10
47.647049
20
338.762845
11
54.319371
21
337.415458
0
LINE
8
Layer 1
10
54.319371
20
337.415458
11
57.031850
21
336.711732
0
LINE
8
Layer 1
10
57.031850
20
336.711732
11
59.160833
21
336.017222
0
LINE
8
Layer 1
10
59.160833
20
336.017222
11
66.884414
21
333.043408
0
LINE
8
Layer 1
10
66.884414
20
333.043408
11
72.341173
21
330.812164
0
LINE
8
Layer 1
10
72.341173
20
330.812164
11
76.858822
21
328.751487
0
LINE
8
Layer 1
10
76.858822
20
328.751487
11
81.765069
21
326.289375
0
LINE
8
Layer 1
10
81.765069
20
326.289375
11
86.900364
21
323.440711
0
LINE
8
Layer 1
10
86.900364
20
323.440711
11
91.982489
21
320.219920
0
LINE
8
Layer 1
10
91.982489
20
320.219920
11
96.961466
21
316.668802
0
LINE
8
Layer 1
10
96.961466
20
316.668802
11
101.787312
21
312.829158
0
LINE
8
Layer 1
10
101.787312
20
312.829158
11
106.410048
21
308.742787
0
LINE
8
Layer 1
10
106.410048
20
308.742787
11
110.779694
21
304.451490
0
LINE
8
Layer 1
10
110.779694
20
304.451490
11
114.846268
21
299.997068
0
LINE
8
Layer 1
10
114.846268
20
299.997068
11
118.559792
21
295.421319
0
LINE
8
Layer 1
10
118.559792
20
295.421319
11
121.933690
21
291.160767
0
LINE
8
Layer 1
10
121.933690
20
291.160767
11
123.595694
21
289.388819
0
LINE
8
Layer 1
10
123.595694
20
289.388819
11
124.649027
21
290.471106
0
LINE
8
Layer 1
10
124.649027
20
290.471106
11
126.559028
21
293.075347
0
LINE
8
Layer 1
10
126.559028
20
293.075347
11
130.258505
21
298.055190
0
LINE
8
Layer 1
10
130.258505
20
298.055190
11
134.563384
21
303.088412
0
LINE
8
Layer 1
10
134.563384
20
303.088412
11
139.381568
21
308.093178
0
LINE
8
Layer 1
10
139.381568
20
308.093178
11
144.620960
21
312.987654
0
LINE
8
Layer 1
10
144.620960
20
312.987654
11
150.189464
21
317.690005
0
LINE
8
Layer 1
10
150.189464
20
317.690005
11
155.994983
21
322.118399
0
LINE
8
Layer 1
10
155.994983
20
322.118399
11
161.945421
21
326.190999
0
LINE
8
Layer 1
10
161.945421
20
326.190999
11
167.948681
21
329.825972
0
LINE
8
Layer 1
10
167.948681
20
329.825972
11
173.650024
21
332.913153
0
LINE
8
Layer 1
10
173.650024
20
332.913153
11
178.658162
21
335.244310
0
LINE
8
Layer 1
10
178.658162
20
335.244310
11
183.973643
21
337.238729
0
LINE
8
Layer 1
10
183.973643
20
337.238729
11
190.597014
21
339.315694
0
LINE
8
Layer 1
10
190.597014
20
339.315694
11
198.613889
21
341.688125
0
LINE
8
Layer 1
10
198.613889
20
341.688125
11
213.095417
21
341.776319
0
LINE
8
Layer 1
10
213.095417
20
341.776319
11
213.095417
21
341.776319
0
LINE
8
Layer 1
10
238.830556
20
248.828194
11
239.638915
21
248.497528
0
LINE
8
Layer 1
10
239.638915
20
248.497528
11
240.493742
21
247.577546
0
LINE
8
Layer 1
10
240.493742
20
247.577546
11
241.351290
21
246.176271
0
LINE
8
Layer 1
10
241.351290
20
246.176271
11
242.167812
21
244.401726
0
LINE
8
Layer 1
10
242.167812
20
244.401726
11
242.899559
21
242.361935
0
LINE
8
Layer 1
10
242.899559
20
242.361935
11
243.502784
21
240.164921
0
LINE
8
Layer 1
10
243.502784
20
240.164921
11
243.933741
21
237.918708
0
LINE
8
Layer 1
10
243.933741
20
237.918708
11
244.148681
21
235.731319
0
LINE
8
Layer 1
10
244.148681
20
235.731319
11
244.271996
21
234.152644
0
LINE
8
Layer 1
10
244.271996
20
234.152644
11
244.527011
21
233.173571
0
LINE
8
Layer 1
10
244.527011
20
233.173571
11
244.994145
21
232.620091
0
LINE
8
Layer 1
10
244.994145
20
232.620091
11
245.753819
21
232.318194
0
LINE
8
Layer 1
10
245.753819
20
232.318194
11
246.791082
21
231.934907
0
LINE
8
Layer 1
10
246.791082
20
231.934907
11
247.226667
21
231.533264
0
LINE
8
Layer 1
10
247.226667
20
231.533264
11
247.773472
21
230.272083
0
LINE
8
Layer 1
10
247.773472
20
230.272083
11
248.213895
21
229.891792
0
LINE
8
Layer 1
10
248.213895
20
229.891792
11
249.007039
21
229.797007
0
LINE
8
Layer 1
10
249.007039
20
229.797007
11
250.349770
21
229.997087
0
LINE
8
Layer 1
10
250.349770
20
229.997087
11
252.438958
21
230.501389
0
LINE
8
Layer 1
10
252.438958
20
230.501389
11
255.899261
21
231.110824
0
LINE
8
Layer 1
10
255.899261
20
231.110824
11
259.392214
21
231.249109
0
LINE
8
Layer 1
10
259.392214
20
231.249109
11
262.363053
21
230.931955
0
LINE
8
Layer 1
10
262.363053
20
230.931955
11
263.479316
21
230.607497
0
LINE
8
Layer 1
10
263.479316
20
230.607497
11
264.257014
21
230.175069
0
LINE
8
Layer 1
10
264.257014
20
230.175069
11
264.949547
21
229.195817
0
LINE
8
Layer 1
10
264.949547
20
229.195817
11
265.421181
21
227.829097
0
LINE
8
Layer 1
10
265.421181
20
227.829097
11
265.462428
21
226.590492
0
LINE
8
Layer 1
10
265.462428
20
226.590492
11
265.275227
21
224.761875
0
LINE
8
Layer 1
10
265.275227
20
224.761875
11
264.378554
21
220.045008
0
LINE
8
Layer 1
10
264.378554
20
220.045008
11
263.057309
21
215.099300
0
LINE
8
Layer 1
10
263.057309
20
215.099300
11
262.339392
21
212.984632
0
LINE
8
Layer 1
10
262.339392
20
212.984632
11
261.637639
21
211.345556
0
LINE
8
Layer 1
10
261.637639
20
211.345556
11
260.548363
21
208.843970
0
LINE
8
Layer 1
10
260.548363
20
208.843970
11
260.094236
21
207.094583
0
LINE
8
Layer 1
10
260.094236
20
207.094583
11
259.969672
21
206.488291
0
LINE
8
Layer 1
10
259.969672
20
206.488291
11
259.630513
21
205.735723
0
LINE
8
Layer 1
10
259.630513
20
205.735723
11
258.515556
21
204.175347
0
LINE
8
Layer 1
10
258.515556
20
204.175347
11
257.424735
21
203.083031
0
LINE
8
Layer 1
10
257.424735
20
203.083031
11
256.601724
21
202.606493
0
LINE
8
Layer 1
10
256.601724
20
202.606493
11
255.763284
21
202.676257
0
LINE
8
Layer 1
10
255.763284
20
202.676257
11
254.626181
21
203.222847
0
LINE
8
Layer 1
10
254.626181
20
203.222847
11
253.143557
21
204.181340
0
LINE
8
Layer 1
10
253.143557
20
204.181340
11
251.763440
21
205.352570
0
LINE
8
Layer 1
10
251.763440
20
205.352570
11
250.504164
21
206.708845
0
LINE
8
Layer 1
10
250.504164
20
206.708845
11
249.384068
21
208.222473
0
LINE
8
Layer 1
10
249.384068
20
208.222473
11
248.421489
21
209.865761
0
LINE
8
Layer 1
10
248.421489
20
209.865761
11
247.634763
21
211.611017
0
LINE
8
Layer 1
10
247.634763
20
211.611017
11
247.042229
21
213.430550
0
LINE
8
Layer 1
10
247.042229
20
213.430550
11
246.662222
21
215.296667
0
LINE
8
Layer 1
10
246.662222
20
215.296667
11
246.238889
21
218.242361
0
LINE
8
Layer 1
10
246.238889
20
218.242361
11
243.028611
21
218.577500
0
LINE
8
Layer 1
10
243.028611
20
218.577500
11
240.559183
21
218.943840
0
LINE
8
Layer 1
10
240.559183
20
218.943840
11
239.130417
21
219.353611
0
LINE
8
Layer 1
10
239.130417
20
219.353611
11
238.545767
21
219.478544
0
LINE
8
Layer 1
10
238.545767
20
219.478544
11
237.464387
21
219.494797
0
LINE
8
Layer 1
10
237.464387
20
219.494797
11
234.429653
21
219.221319
0
LINE
8
Layer 1
10
234.429653
20
219.221319
11
232.455652
21
219.006138
0
LINE
8
Layer 1
10
232.455652
20
219.006138
11
230.796344
21
218.974522
0
LINE
8
Layer 1
10
230.796344
20
218.974522
11
229.357371
21
219.130245
0
LINE
8
Layer 1
10
229.357371
20
219.130245
11
228.044375
21
219.477083
0
LINE
8
Layer 1
10
228.044375
20
219.477083
11
226.778424
21
219.999799
0
LINE
8
Layer 1
10
226.778424
20
219.999799
11
225.983569
21
220.628401
0
LINE
8
Layer 1
10
225.983569
20
220.628401
11
225.489307
21
221.572109
0
LINE
8
Layer 1
10
225.489307
20
221.572109
11
225.125139
21
223.040139
0
LINE
8
Layer 1
10
225.125139
20
223.040139
11
224.953244
21
224.418839
0
LINE
8
Layer 1
10
224.953244
20
224.418839
11
224.984582
21
225.870262
0
LINE
8
Layer 1
10
224.984582
20
225.870262
11
225.234225
21
227.440319
0
LINE
8
Layer 1
10
225.234225
20
227.440319
11
225.717244
21
229.174923
0
LINE
8
Layer 1
10
225.717244
20
229.174923
11
227.443697
21
233.321410
0
LINE
8
Layer 1
10
227.443697
20
233.321410
11
230.284514
21
238.677014
0
LINE
8
Layer 1
10
230.284514
20
238.677014
11
232.742582
21
242.636278
0
LINE
8
Layer 1
10
232.742582
20
242.636278
11
235.166792
21
245.862064
0
LINE
8
Layer 1
10
235.166792
20
245.862064
11
237.286373
21
248.033119
0
LINE
8
Layer 1
10
237.286373
20
248.033119
11
238.147312
21
248.622732
0
LINE
8
Layer 1
10
238.147312
20
248.622732
11
238.830556
21
248.828194
0
LINE
8
Layer 1
10
238.830556
20
248.828194
11
238.830556
21
248.828194
0
LINE
8
Layer 1
10
68.641736
20
162.556389
11
69.267184
21
162.321413
0
LINE
8
Layer 1
10
69.267184
20
162.321413
11
69.499965
21
161.726203
0
LINE
8
Layer 1
10
69.499965
20
161.726203
11
69.332294
21
160.935339
0
LINE
8
Layer 1
10
69.332294
20
160.935339
11
68.756389
21
160.113403
0
LINE
8
Layer 1
10
68.756389
20
160.113403
11
68.097222
21
159.572367
0
LINE
8
Layer 1
10
68.097222
20
159.572367
11
67.532500
21
159.374302
0
LINE
8
Layer 1
10
67.532500
20
159.374302
11
67.043942
21
159.519329
0
LINE
8
Layer 1
10
67.043942
20
159.519329
11
66.613264
21
160.007569
0
LINE
8
Layer 1
10
66.613264
20
160.007569
11
66.502588
21
160.358340
0
LINE
8
Layer 1
10
66.502588
20
160.358340
11
66.544029
21
160.760313
0
LINE
8
Layer 1
10
66.544029
20
160.760313
11
66.987166
21
161.597082
0
LINE
8
Layer 1
10
66.987166
20
161.597082
11
67.750470
21
162.276299
0
LINE
8
Layer 1
10
67.750470
20
162.276299
11
68.641736
21
162.556389
0
LINE
8
Layer 1
10
68.641736
20
162.556389
11
68.641736
21
162.556389
0
LINE
8
Layer 1
10
179.131736
20
160.545556
11
179.897899
21
160.434738
0
LINE
8
Layer 1
10
179.897899
20
160.434738
11
180.219646
21
160.102314
0
LINE
8
Layer 1
10
180.219646
20
160.102314
11
180.087837
21
159.561562
0
LINE
8
Layer 1
10
180.087837
20
159.561562
11
179.493333
21
158.825764
0
LINE
8
Layer 1
10
179.493333
20
158.825764
11
178.594961
21
158.278366
0
LINE
8
Layer 1
10
178.594961
20
158.278366
11
177.517778
21
158.049653
0
LINE
8
Layer 1
10
177.517778
20
158.049653
11
176.911820
21
158.145639
0
LINE
8
Layer 1
10
176.911820
20
158.145639
11
176.553140
21
158.400717
0
LINE
8
Layer 1
10
176.553140
20
158.400717
11
176.422146
21
158.765569
0
LINE
8
Layer 1
10
176.422146
20
158.765569
11
176.499245
21
159.190875
0
LINE
8
Layer 1
10
176.499245
20
159.190875
11
176.764846
21
159.627317
0
LINE
8
Layer 1
10
176.764846
20
159.627317
11
177.199356
21
160.025578
0
LINE
8
Layer 1
10
177.199356
20
160.025578
11
177.783183
21
160.336337
0
LINE
8
Layer 1
10
177.783183
20
160.336337
11
178.496736
21
160.510278
0
LINE
8
Layer 1
10
178.496736
20
160.510278
11
179.131736
21
160.545556
0
LINE
8
Layer 1
10
179.131736
20
160.545556
11
179.131736
21
160.545556
0
LINE
8
Layer 1
10
27.940000
20
158.314236
11
28.303942
21
158.099386
0
LINE
8
Layer 1
10
28.303942
20
158.099386
11
28.356739
21
157.479383
0
LINE
8
Layer 1
10
28.356739
20
157.479383
11
28.101948
21
156.454393
0
LINE
8
Layer 1
10
28.101948
20
156.454393
11
27.543125
21
155.024583
0
LINE
8
Layer 1
10
27.543125
20
155.024583
11
26.586781
21
153.170692
0
LINE
8
Layer 1
10
26.586781
20
153.170692
11
25.384419
21
151.383915
0
LINE
8
Layer 1
10
25.384419
20
151.383915
11
23.998176
21
149.719620
0
LINE
8
Layer 1
10
23.998176
20
149.719620
11
22.490189
21
148.233176
0
LINE
8
Layer 1
10
22.490189
20
148.233176
11
20.922595
21
146.979950
0
LINE
8
Layer 1
10
20.922595
20
146.979950
11
19.357531
21
146.015311
0
LINE
8
Layer 1
10
19.357531
20
146.015311
11
17.857135
21
145.394626
0
LINE
8
Layer 1
10
17.857135
20
145.394626
11
16.483542
21
145.173264
0
LINE
8
Layer 1
10
16.483542
20
145.173264
11
15.484567
21
145.086273
0
LINE
8
Layer 1
10
15.484567
20
145.086273
11
14.737598
21
144.798674
0
LINE
8
Layer 1
10
14.737598
20
144.798674
11
14.162455
21
144.261808
0
LINE
8
Layer 1
10
14.162455
20
144.261808
11
13.678958
21
143.427014
0
LINE
8
Layer 1
10
13.678958
20
143.427014
11
13.057650
21
141.843692
0
LINE
8
Layer 1
10
13.057650
20
141.843692
11
12.972718
21
141.236404
0
LINE
8
Layer 1
10
12.972718
20
141.236404
11
13.058345
21
140.690772
0
LINE
8
Layer 1
10
13.058345
20
140.690772
11
13.329586
21
140.160850
0
LINE
8
Layer 1
10
13.329586
20
140.160850
11
13.801499
21
139.600695
0
LINE
8
Layer 1
10
13.801499
20
139.600695
11
15.407569
21
138.205903
0
LINE
8
Layer 1
10
15.407569
20
138.205903
11
17.315521
21
136.379606
0
LINE
8
Layer 1
10
17.315521
20
136.379606
11
17.991147
21
135.520754
0
LINE
8
Layer 1
10
17.991147
20
135.520754
11
18.353264
21
134.845694
0
LINE
8
Layer 1
10
18.353264
20
134.845694
11
18.397759
21
134.116076
0
LINE
8
Layer 1
10
18.397759
20
134.116076
11
18.168756
21
133.236539
0
LINE
8
Layer 1
10
18.168756
20
133.236539
11
17.111964
21
131.332478
0
LINE
8
Layer 1
10
17.111964
20
131.332478
11
15.626308
21
129.743045
0
LINE
8
Layer 1
10
15.626308
20
129.743045
11
14.861225
21
129.256795
0
LINE
8
Layer 1
10
14.861225
20
129.256795
11
14.155208
21
129.077778
0
LINE
8
Layer 1
10
14.155208
20
129.077778
11
13.642023
21
128.903059
0
LINE
8
Layer 1
10
13.642023
20
128.903059
11
12.982329
21
128.431183
0
LINE
8
Layer 1
10
12.982329
20
128.431183
11
11.488401
21
126.909616
0
LINE
8
Layer 1
10
11.488401
20
126.909616
11
10.203398
21
125.140394
0
LINE
8
Layer 1
10
10.203398
20
125.140394
11
9.804859
21
124.358949
0
LINE
8
Layer 1
10
9.804859
20
124.358949
11
9.657292
21
123.750833
0
LINE
8
Layer 1
10
9.657292
20
123.750833
11
8.995908
21
122.346772
0
LINE
8
Layer 1
10
8.995908
20
122.346772
11
7.408333
21
119.711528
0
LINE
8
Layer 1
10
7.408333
20
119.711528
11
5.679459
21
117.237644
0
LINE
8
Layer 1
10
5.679459
20
117.237644
11
4.674306
21
116.219028
0
LINE
8
Layer 1
10
4.674306
20
116.219028
11
3.675848
21
116.759596
0
LINE
8
Layer 1
10
3.675848
20
116.759596
11
1.817624
21
118.207223
0
LINE
8
Layer 1
10
1.817624
20
118.207223
11
-3.585293
21
122.995839
0
LINE
8
Layer 1
10
-3.585293
20
122.995839
11
-9.748792
21
128.929244
0
LINE
8
Layer 1
10
-9.748792
20
128.929244
11
-14.887222
21
134.351806
0
LINE
8
Layer 1
10
-14.887222
20
134.351806
11
-18.079861
21
138.011875
0
LINE
8
Layer 1
10
-18.079861
20
138.011875
11
-13.387917
21
141.133958
0
LINE
8
Layer 1
10
-13.387917
20
141.133958
11
-0.432153
21
149.865208
0
LINE
8
Layer 1
10
-0.432153
20
149.865208
11
5.632629
21
153.827136
0
LINE
8
Layer 1
10
5.632629
20
153.827136
11
7.658217
21
155.031949
0
LINE
8
Layer 1
10
7.658217
20
155.031949
11
8.616597
21
155.474375
0
LINE
8
Layer 1
10
8.616597
20
155.474375
11
10.114021
21
154.889576
0
LINE
8
Layer 1
10
10.114021
20
154.889576
11
12.415808
21
153.554048
0
LINE
8
Layer 1
10
12.415808
20
153.554048
11
14.528962
21
152.096096
0
LINE
8
Layer 1
10
14.528962
20
152.096096
11
15.204490
21
151.517557
0
LINE
8
Layer 1
10
15.204490
20
151.517557
11
15.460486
21
151.144028
0
LINE
8
Layer 1
10
15.460486
20
151.144028
11
15.643492
21
150.513281
0
LINE
8
Layer 1
10
15.643492
20
150.513281
11
16.069028
21
149.697639
0
LINE
8
Layer 1
10
16.069028
20
149.697639
11
16.276662
21
149.482198
0
LINE
8
Layer 1
10
16.276662
20
149.482198
11
16.555806
21
149.414561
0
LINE
8
Layer 1
10
16.555806
20
149.414561
11
17.422882
21
149.784546
0
LINE
8
Layer 1
10
17.422882
20
149.784546
11
18.858778
21
150.931286
0
LINE
8
Layer 1
10
18.858778
20
150.931286
11
21.052014
21
152.978472
0
LINE
8
Layer 1
10
21.052014
20
152.978472
11
25.557206
21
156.999225
0
LINE
8
Layer 1
10
25.557206
20
156.999225
11
27.010650
21
157.993741
0
LINE
8
Layer 1
10
27.010650
20
157.993741
11
27.940000
21
158.314236
0
LINE
8
Layer 1
10
27.940000
20
158.314236
11
27.940000
21
158.314236
0
LINE
8
Layer 1
10
174.378056
20
151.399792
11
175.383472
21
151.223403
0
LINE
8
Layer 1
10
175.383472
20
151.223403
11
176.230665
21
150.658679
0
LINE
8
Layer 1
10
176.230665
20
150.658679
11
176.635075
21
149.863243
0
LINE
8
Layer 1
10
176.635075
20
149.863243
11
176.570228
21
148.965160
0
LINE
8
Layer 1
10
176.570228
20
148.965160
11
176.009653
21
148.092500
0
LINE
8
Layer 1
10
176.009653
20
148.092500
11
175.229945
21
147.416306
0
LINE
8
Layer 1
10
175.229945
20
147.416306
11
174.595445
21
147.161589
0
LINE
8
Layer 1
10
174.595445
20
147.161589
11
173.993362
21
147.319411
0
LINE
8
Layer 1
10
173.993362
20
147.319411
11
173.310903
21
147.880833
0
LINE
8
Layer 1
10
173.310903
20
147.880833
11
172.863548
21
148.453903
0
LINE
8
Layer 1
10
172.863548
20
148.453903
11
172.617768
21
149.045943
0
LINE
8
Layer 1
10
172.617768
20
149.045943
11
172.555739
21
149.628441
0
LINE
8
Layer 1
10
172.555739
20
149.628441
11
172.659638
21
150.172882
0
LINE
8
Layer 1
10
172.659638
20
150.172882
11
172.911642
21
150.650751
0
LINE
8
Layer 1
10
172.911642
20
150.650751
11
173.293929
21
151.033536
0
LINE
8
Layer 1
10
173.293929
20
151.033536
11
173.788674
21
151.292721
0
LINE
8
Layer 1
10
173.788674
20
151.292721
11
174.378056
21
151.399792
0
LINE
8
Layer 1
10
174.378056
20
151.399792
11
174.378056
21
151.399792
0
LINE
8
Layer 1
10
60.960000
20
145.173264
11
61.344742
21
145.078565
0
LINE
8
Layer 1
10
61.344742
20
145.078565
11
61.599284
21
144.800940
0
LINE
8
Layer 1
10
61.599284
20
144.800940
11
61.717188
21
144.350085
0
LINE
8
Layer 1
10
61.717188
20
144.350085
11
61.692014
21
143.735694
0
LINE
8
Layer 1
10
61.692014
20
143.735694
11
61.538661
21
143.193864
0
LINE
8
Layer 1
10
61.538661
20
143.193864
11
61.265771
21
142.739306
0
LINE
8
Layer 1
10
61.265771
20
142.739306
11
60.489647
21
142.145186
0
LINE
8
Layer 1
10
60.489647
20
142.145186
11
59.620175
21
142.059688
0
LINE
8
Layer 1
10
59.620175
20
142.059688
11
59.230601
21
142.240908
0
LINE
8
Layer 1
10
59.230601
20
142.240908
11
58.913889
21
142.589167
0
LINE
8
Layer 1
10
58.913889
20
142.589167
11
58.793748
21
142.954010
0
LINE
8
Layer 1
10
58.793748
20
142.954010
11
58.827572
21
143.365874
0
LINE
8
Layer 1
10
58.827572
20
143.365874
11
59.263988
21
144.212718
0
LINE
8
Layer 1
10
59.263988
20
144.212718
11
60.036882
21
144.893811
0
LINE
8
Layer 1
10
60.036882
20
144.893811
11
60.960000
21
145.173264
0
LINE
8
Layer 1
10
60.960000
20
145.173264
11
60.960000
21
145.173264
0
LINE
8
Layer 1
10
148.933958
20
142.941944
11
149.246402
21
142.867429
0
LINE
8
Layer 1
10
149.246402
20
142.867429
11
149.366111
21
142.650903
0
LINE
8
Layer 1
10
149.366111
20
142.650903
11
149.080216
21
142.149906
0
LINE
8
Layer 1
10
149.080216
20
142.149906
11
148.395972
21
141.724861
0
LINE
8
Layer 1
10
148.395972
20
141.724861
11
147.716132
21
141.626619
0
LINE
8
Layer 1
10
147.716132
20
141.626619
11
147.510165
21
141.723753
0
LINE
8
Layer 1
10
147.510165
20
141.723753
11
147.434653
21
141.910069
0
LINE
8
Layer 1
10
147.434653
20
141.910069
11
147.716133
21
142.411066
0
LINE
8
Layer 1
10
147.716133
20
142.411066
11
148.395972
21
142.836111
0
LINE
8
Layer 1
10
148.395972
20
142.836111
11
148.933958
21
142.941944
0
LINE
8
Layer 1
10
148.933958
20
142.941944
11
148.933958
21
142.941944
0
LINE
8
Layer 1
10
84.260972
20
141.716042
11
84.322708
21
141.566111
0
LINE
8
Layer 1
10
84.322708
20
141.566111
11
83.658321
21
139.596777
0
LINE
8
Layer 1
10
83.658321
20
139.596777
11
82.038472
21
135.868750
0
LINE
8
Layer 1
10
82.038472
20
135.868750
11
80.517786
21
132.087972
0
LINE
8
Layer 1
10
80.517786
20
132.087972
11
80.135262
21
130.730873
0
LINE
8
Layer 1
10
80.135262
20
130.730873
11
80.089375
21
129.986181
0
LINE
8
Layer 1
10
80.089375
20
129.986181
11
80.395117
21
129.614940
0
LINE
8
Layer 1
10
80.395117
20
129.614940
11
80.966536
21
129.328157
0
LINE
8
Layer 1
10
80.966536
20
129.328157
11
82.708750
21
129.077778
0
LINE
8
Layer 1
10
82.708750
20
129.077778
11
84.984167
21
129.077778
0
LINE
8
Layer 1
10
84.984167
20
129.077778
11
84.984167
21
124.218264
0
LINE
8
Layer 1
10
84.984167
20
124.218264
11
85.239443
21
120.119297
0
LINE
8
Layer 1
10
85.239443
20
120.119297
11
85.549164
21
118.576436
0
LINE
8
Layer 1
10
85.549164
20
118.576436
11
85.971944
21
117.436111
0
LINE
8
Layer 1
10
85.971944
20
117.436111
11
86.494860
21
116.305939
0
LINE
8
Layer 1
10
86.494860
20
116.305939
11
86.534685
21
115.495114
0
LINE
8
Layer 1
10
86.534685
20
115.495114
11
85.982254
21
114.649371
0
LINE
8
Layer 1
10
85.982254
20
114.649371
11
84.728403
21
113.414444
0
LINE
8
Layer 1
10
84.728403
20
113.414444
11
83.524003
21
112.099264
0
LINE
8
Layer 1
10
83.524003
20
112.099264
11
82.662731
21
110.773137
0
LINE
8
Layer 1
10
82.662731
20
110.773137
11
82.144607
21
109.472087
0
LINE
8
Layer 1
10
82.144607
20
109.472087
11
81.969653
21
108.232137
0
LINE
8
Layer 1
10
81.969653
20
108.232137
11
82.137888
21
107.089312
0
LINE
8
Layer 1
10
82.137888
20
107.089312
11
82.649335
21
106.079635
0
LINE
8
Layer 1
10
82.649335
20
106.079635
11
83.504013
21
105.239129
0
LINE
8
Layer 1
10
83.504013
20
105.239129
11
84.701944
21
104.603819
0
LINE
8
Layer 1
10
84.701944
20
104.603819
11
85.445592
21
104.223825
0
LINE
8
Layer 1
10
85.445592
20
104.223825
11
85.929859
21
103.717153
0
LINE
8
Layer 1
10
85.929859
20
103.717153
11
86.192635
21
103.023224
0
LINE
8
Layer 1
10
86.192635
20
103.023224
11
86.271806
21
102.081458
0
LINE
8
Layer 1
10
86.271806
20
102.081458
11
86.355586
21
101.266195
0
LINE
8
Layer 1
10
86.355586
20
101.266195
11
86.600943
21
100.561399
0
LINE
8
Layer 1
10
86.600943
20
100.561399
11
86.998905
21
99.973023
0
LINE
8
Layer 1
10
86.998905
20
99.973023
11
87.540499
21
99.507022
0
LINE
8
Layer 1
10
87.540499
20
99.507022
11
88.216753
21
99.169349
0
LINE
8
Layer 1
10
88.216753
20
99.169349
11
89.018695
21
98.965958
0
LINE
8
Layer 1
10
89.018695
20
98.965958
11
90.963750
21
98.985833
0
LINE
8
Layer 1
10
90.963750
20
98.985833
11
92.839540
21
98.933052
0
LINE
8
Layer 1
10
92.839540
20
98.933052
11
94.588542
21
98.403750
0
LINE
8
Layer 1
10
94.588542
20
98.403750
11
96.197102
21
97.731813
0
LINE
8
Layer 1
10
96.197102
20
97.731813
11
96.894482
21
97.614633
0
LINE
8
Layer 1
10
96.894482
20
97.614633
11
97.568627
21
97.651494
0
LINE
8
Layer 1
10
97.568627
20
97.651494
11
98.991307
21
98.211887
0
LINE
8
Layer 1
10
98.991307
20
98.211887
11
100.753333
21
99.462083
0
LINE
8
Layer 1
10
100.753333
20
99.462083
11
102.773504
21
100.834687
0
LINE
8
Layer 1
10
102.773504
20
100.834687
11
103.624902
21
101.258163
0
LINE
8
Layer 1
10
103.624902
20
101.258163
11
104.219375
21
101.420000
0
LINE
8
Layer 1
10
104.219375
20
101.420000
11
105.029983
21
101.521141
0
LINE
8
Layer 1
10
105.029983
20
101.521141
11
105.826629
21
101.786173
0
LINE
8
Layer 1
10
105.826629
20
101.786173
11
107.359786
21
102.792750
0
LINE
8
Layer 1
10
107.359786
20
102.792750
11
108.782356
21
104.409411
0
LINE
8
Layer 1
10
108.782356
20
104.409411
11
110.057847
21
106.605833
0
LINE
8
Layer 1
10
110.057847
20
106.605833
11
111.089823
21
108.580513
0
LINE
8
Layer 1
10
111.089823
20
108.580513
11
111.591893
21
109.269852
0
LINE
8
Layer 1
10
111.591893
20
109.269852
11
112.180877
21
109.836964
0
LINE
8
Layer 1
10
112.180877
20
109.836964
11
113.908159
21
110.833839
0
LINE
8
Layer 1
10
113.908159
20
110.833839
11
116.848819
21
112.029792
0
LINE
8
Layer 1
10
116.848819
20
112.029792
11
120.976208
21
113.719038
0
LINE
8
Layer 1
10
120.976208
20
113.719038
11
124.929440
21
115.520866
0
LINE
8
Layer 1
10
124.929440
20
115.520866
11
128.697494
21
117.428864
0
LINE
8
Layer 1
10
128.697494
20
117.428864
11
132.269347
21
119.436618
0
LINE
8
Layer 1
10
132.269347
20
119.436618
11
135.633978
21
121.537715
0
LINE
8
Layer 1
10
135.633978
20
121.537715
11
138.780363
21
123.725744
0
LINE
8
Layer 1
10
138.780363
20
123.725744
11
141.697479
21
125.994292
0
LINE
8
Layer 1
10
141.697479
20
125.994292
11
144.374306
21
128.336944
0
LINE
8
Layer 1
10
144.374306
20
128.336944
11
146.535205
21
130.151368
0
LINE
8
Layer 1
10
146.535205
20
130.151368
11
147.192995
21
130.550309
0
LINE
8
Layer 1
10
147.192995
20
130.550309
11
147.434653
21
130.515347
0
LINE
8
Layer 1
10
147.434653
20
130.515347
11
147.026702
21
129.843255
0
LINE
8
Layer 1
10
147.026702
20
129.843255
11
145.925725
21
128.610385
0
LINE
8
Layer 1
10
145.925725
20
128.610385
11
142.381914
21
125.147714
0
LINE
8
Layer 1
10
142.381914
20
125.147714
11
138.277667
21
121.498131
0
LINE
8
Layer 1
10
138.277667
20
121.498131
11
135.087431
21
119.032431
0
LINE
8
Layer 1
10
135.087431
20
119.032431
11
132.787052
21
117.438018
0
LINE
8
Layer 1
10
132.787052
20
117.438018
11
130.580694
21
115.707500
0
LINE
8
Layer 1
10
130.580694
20
115.707500
11
124.124861
21
110.847986
0
LINE
8
Layer 1
10
124.124861
20
110.847986
11
122.018845
21
109.205598
0
LINE
8
Layer 1
10
122.018845
20
109.205598
11
119.364096
21
106.902320
0
LINE
8
Layer 1
10
119.364096
20
106.902320
11
113.431111
21
101.317874
0
LINE
8
Layer 1
10
113.431111
20
101.317874
11
108.371338
21
96.104195
0
LINE
8
Layer 1
10
108.371338
20
96.104195
11
106.808103
21
94.264378
0
LINE
8
Layer 1
10
106.808103
20
94.264378
11
106.230208
21
93.270833
0
LINE
8
Layer 1
10
106.230208
20
93.270833
11
106.486799
21
92.700845
0
LINE
8
Layer 1
10
106.486799
20
92.700845
11
107.209558
21
91.825870
0
LINE
8
Layer 1
10
107.209558
20
91.825870
11
109.771522
21
89.405573
0
LINE
8
Layer 1
10
109.771522
20
89.405573
11
113.351979
21
86.499174
0
LINE
8
Layer 1
10
113.351979
20
86.499174
11
117.386806
21
83.595903
0
LINE
8
Layer 1
10
117.386806
20
83.595903
11
123.715495
21
79.785104
0
LINE
8
Layer 1
10
123.715495
20
79.785104
11
132.759097
21
74.767639
0
LINE
8
Layer 1
10
132.759097
20
74.767639
11
143.739306
21
68.885069
0
LINE
8
Layer 1
10
143.739306
20
68.885069
11
145.044583
21
65.348472
0
LINE
8
Layer 1
10
145.044583
20
65.348472
11
146.721775
21
61.619063
0
LINE
8
Layer 1
10
146.721775
20
61.619063
11
148.916319
21
57.622639
0
LINE
8
Layer 1
10
148.916319
20
57.622639
11
150.720965
21
54.486052
0
LINE
8
Layer 1
10
150.720965
20
54.486052
11
152.310305
21
51.394973
0
LINE
8
Layer 1
10
152.310305
20
51.394973
11
153.441785
21
48.851268
0
LINE
8
Layer 1
10
153.441785
20
48.851268
11
153.872847
21
47.356806
0
LINE
8
Layer 1
10
153.872847
20
47.356806
11
153.003697
21
46.540171
0
LINE
8
Layer 1
10
153.003697
20
46.540171
11
150.637064
21
44.832246
0
LINE
8
Layer 1
10
150.637064
20
44.832246
11
142.856231
21
39.673248
0
LINE
8
Layer 1
10
142.856231
20
39.673248
11
133.420113
21
33.741254
0
LINE
8
Layer 1
10
133.420113
20
33.741254
11
125.218472
21
28.897708
0
LINE
8
Layer 1
10
125.218472
20
28.897708
11
120.394236
21
26.269514
0
LINE
8
Layer 1
10
120.394236
20
26.269514
11
118.917456
21
26.747202
0
LINE
8
Layer 1
10
118.917456
20
26.747202
11
115.774739
21
28.301618
0
LINE
8
Layer 1
10
115.774739
20
28.301618
11
111.596996
21
30.601666
0
LINE
8
Layer 1
10
111.596996
20
30.601666
11
107.015139
21
33.316250
0
LINE
8
Layer 1
10
107.015139
20
33.316250
11
99.142858
21
38.498595
0
LINE
8
Layer 1
10
99.142858
20
38.498595
11
89.267584
21
45.398796
0
LINE
8
Layer 1
10
89.267584
20
45.398796
11
80.421192
21
51.853662
0
LINE
8
Layer 1
10
80.421192
20
51.853662
11
77.331287
21
54.238096
0
LINE
8
Layer 1
10
77.331287
20
54.238096
11
75.635556
21
55.700000
0
LINE
8
Layer 1
10
75.635556
20
55.700000
11
73.818750
21
57.596181
0
LINE
8
Layer 1
10
73.818750
20
57.596181
11
77.946250
21
59.474722
0
LINE
8
Layer 1
10
77.946250
20
59.474722
11
81.662252
21
61.011788
0
LINE
8
Layer 1
10
81.662252
20
61.011788
11
84.790139
21
62.076458
0
LINE
8
Layer 1
10
84.790139
20
62.076458
11
86.828227
21
62.788599
0
LINE
8
Layer 1
10
86.828227
20
62.788599
11
87.921042
21
63.478750
0
LINE
8
Layer 1
10
87.921042
20
63.478750
11
87.933811
21
63.927946
0
LINE
8
Layer 1
10
87.933811
20
63.927946
11
87.660180
21
64.651579
0
LINE
8
Layer 1
10
87.660180
20
64.651579
11
86.448194
21
66.521458
0
LINE
8
Layer 1
10
86.448194
20
66.521458
11
83.795614
21
70.166758
0
LINE
8
Layer 1
10
83.795614
20
70.166758
11
82.844043
21
71.873262
0
LINE
8
Layer 1
10
82.844043
20
71.873262
11
82.077095
21
73.682665
0
LINE
8
Layer 1
10
82.077095
20
73.682665
11
81.445880
21
75.730216
0
LINE
8
Layer 1
10
81.445880
20
75.730216
11
80.901504
21
78.151163
0
LINE
8
Layer 1
10
80.901504
20
78.151163
11
79.877708
21
84.654236
0
LINE
8
Layer 1
10
79.877708
20
84.654236
11
77.575833
21
101.076042
0
LINE
8
Layer 1
10
77.575833
20
101.076042
11
76.208819
21
111.377153
0
LINE
8
Layer 1
10
76.208819
20
111.377153
11
75.745778
21
114.431829
0
LINE
8
Layer 1
10
75.745778
20
114.431829
11
75.221042
21
116.351319
0
LINE
8
Layer 1
10
75.221042
20
116.351319
11
75.012807
21
116.906675
0
LINE
8
Layer 1
10
75.012807
20
116.906675
11
75.072821
21
117.306193
0
LINE
8
Layer 1
10
75.072821
20
117.306193
11
75.429637
21
117.596485
0
LINE
8
Layer 1
10
75.429637
20
117.596485
11
76.111806
21
117.824167
0
LINE
8
Layer 1
10
76.111806
20
117.824167
11
77.608029
21
118.025567
0
LINE
8
Layer 1
10
77.608029
20
118.025567
11
79.145694
21
118.000556
0
LINE
8
Layer 1
10
79.145694
20
118.000556
11
79.915222
21
117.989499
0
LINE
8
Layer 1
10
79.915222
20
117.989499
11
80.470219
21
118.196023
0
LINE
8
Layer 1
10
80.470219
20
118.196023
11
80.867868
21
118.659795
0
LINE
8
Layer 1
10
80.867868
20
118.659795
11
81.165347
21
119.420486
0
LINE
8
Layer 1
10
81.165347
20
119.420486
11
81.596566
21
121.523616
0
LINE
8
Layer 1
10
81.596566
20
121.523616
11
81.677449
21
123.431021
0
LINE
8
Layer 1
10
81.677449
20
123.431021
11
81.420701
21
124.880971
0
LINE
8
Layer 1
10
81.420701
20
124.880971
11
81.169686
21
125.352610
0
LINE
8
Layer 1
10
81.169686
20
125.352610
11
80.839028
21
125.611736
0
LINE
8
Layer 1
10
80.839028
20
125.611736
11
79.875294
21
126.331141
0
LINE
8
Layer 1
10
79.875294
20
126.331141
11
78.863472
21
127.560833
0
LINE
8
Layer 1
10
78.863472
20
127.560833
11
78.324951
21
128.510549
0
LINE
8
Layer 1
10
78.324951
20
128.510549
11
78.143966
21
129.387103
0
LINE
8
Layer 1
10
78.143966
20
129.387103
11
78.318324
21
130.519099
0
LINE
8
Layer 1
10
78.318324
20
130.519099
11
78.845833
21
132.235139
0
LINE
8
Layer 1
10
78.845833
20
132.235139
11
79.980963
21
134.881235
0
LINE
8
Layer 1
10
79.980963
20
134.881235
11
81.613776
21
137.955413
0
LINE
8
Layer 1
10
81.613776
20
137.955413
11
83.203174
21
140.537474
0
LINE
8
Layer 1
10
83.203174
20
140.537474
11
83.812498
21
141.356399
0
LINE
8
Layer 1
10
83.812498
20
141.356399
11
84.208056
21
141.707222
0
LINE
8
Layer 1
10
84.208056
20
141.707222
11
84.260972
21
141.716042
0
LINE
8
Layer 1
10
84.260972
20
141.716042
11
84.260972
21
141.716042
0
LINE
8
Layer 1
10
161.748611
20
138.629236
11
160.993998
21
138.496704
0
LINE
8
Layer 1
10
160.993998
20
138.496704
11
160.317740
21
138.173155
0
LINE
8
Layer 1
10
160.317740
20
138.173155
11
159.739799
21
137.688459
0
LINE
8
Layer 1
10
159.739799
20
137.688459
11
159.280132
21
137.072484
0
LINE
8
Layer 1
10
159.280132
20
137.072484
11
158.958700
21
136.355101
0
LINE
8
Layer 1
10
158.958700
20
136.355101
11
158.795461
21
135.566178
0
LINE
8
Layer 1
10
158.795461
20
135.566178
11
158.810376
21
134.735586
0
LINE
8
Layer 1
10
158.810376
20
134.735586
11
159.023403
21
133.893194
0
LINE
8
Layer 1
10
159.023403
20
133.893194
11
159.627161
21
131.991261
0
LINE
8
Layer 1
10
159.627161
20
131.991261
11
159.689222
21
131.362643
0
LINE
8
Layer 1
10
159.689222
20
131.362643
11
159.576482
21
130.923293
0
LINE
8
Layer 1
10
159.576482
20
130.923293
11
159.277750
21
130.653986
0
LINE
8
Layer 1
10
159.277750
20
130.653986
11
158.781833
21
130.535501
0
LINE
8
Layer 1
10
158.781833
20
130.535501
11
157.153681
21
130.674097
0
LINE
8
Layer 1
10
157.153681
20
130.674097
11
155.565219
21
130.760724
0
LINE
8
Layer 1
10
155.565219
20
130.760724
11
154.385306
21
130.499181
0
LINE
8
Layer 1
10
154.385306
20
130.499181
11
154.012975
21
130.266493
0
LINE
8
Layer 1
10
154.012975
20
130.266493
11
153.820085
21
129.981138
0
LINE
8
Layer 1
10
153.820085
20
129.981138
11
153.832402
21
129.654575
0
LINE
8
Layer 1
10
153.832402
20
129.654575
11
154.075694
21
129.298264
0
LINE
8
Layer 1
10
154.075694
20
129.298264
11
155.320470
21
128.595588
0
LINE
8
Layer 1
10
155.320470
20
128.595588
11
157.182966
21
128.019507
0
LINE
8
Layer 1
10
157.182966
20
128.019507
11
158.995542
21
127.727822
0
LINE
8
Layer 1
10
158.995542
20
127.727822
11
159.674472
21
127.737941
0
LINE
8
Layer 1
10
159.674472
20
127.737941
11
160.090556
21
127.878333
0
LINE
8
Layer 1
10
160.090556
20
127.878333
11
160.503456
21
128.064880
0
LINE
8
Layer 1
10
160.503456
20
128.064880
11
160.984506
21
127.992556
0
LINE
8
Layer 1
10
160.984506
20
127.992556
11
161.541134
21
127.658069
0
LINE
8
Layer 1
10
161.541134
20
127.658069
11
162.180764
21
127.058125
0
LINE
8
Layer 1
10
162.180764
20
127.058125
11
163.152963
21
125.893900
0
LINE
8
Layer 1
10
163.152963
20
125.893900
11
163.369728
21
125.447209
0
LINE
8
Layer 1
10
163.369728
20
125.447209
11
163.398908
21
125.043275
0
LINE
8
Layer 1
10
163.398908
20
125.043275
11
163.234478
21
124.646459
0
LINE
8
Layer 1
10
163.234478
20
124.646459
11
162.870416
21
124.221117
0
LINE
8
Layer 1
10
162.870416
20
124.221117
11
161.519306
21
123.142292
0
LINE
8
Layer 1
10
161.519306
20
123.142292
11
159.241663
21
121.010562
0
LINE
8
Layer 1
10
159.241663
20
121.010562
11
156.268534
21
117.746934
0
LINE
8
Layer 1
10
156.268534
20
117.746934
11
153.687266
21
114.605707
0
LINE
8
Layer 1
10
153.687266
20
114.605707
11
152.883376
21
113.472962
0
LINE
8
Layer 1
10
152.883376
20
113.472962
11
152.585208
21
112.841181
0
LINE
8
Layer 1
10
152.585208
20
112.841181
11
152.671341
21
112.440313
0
LINE
8
Layer 1
10
152.671341
20
112.440313
11
152.917614
21
112.273365
0
LINE
8
Layer 1
10
152.917614
20
112.273365
11
153.305829
21
112.328521
0
LINE
8
Layer 1
10
153.305829
20
112.328521
11
153.817791
21
112.593964
0
LINE
8
Layer 1
10
153.817791
20
112.593964
11
155.140166
21
113.708449
0
LINE
8
Layer 1
10
155.140166
20
113.708449
11
156.739167
21
115.522292
0
LINE
8
Layer 1
10
156.739167
20
115.522292
11
159.126789
21
118.215188
0
LINE
8
Layer 1
10
159.126789
20
118.215188
11
161.791051
21
120.782760
0
LINE
8
Layer 1
10
161.791051
20
120.782760
11
164.048242
21
122.614074
0
LINE
8
Layer 1
10
164.048242
20
122.614074
11
164.810527
21
123.062717
0
LINE
8
Layer 1
10
164.810527
20
123.062717
11
165.214653
21
123.098194
0
LINE
8
Layer 1
10
165.214653
20
123.098194
11
165.155415
21
121.769310
0
LINE
8
Layer 1
10
165.155415
20
121.769310
11
164.570833
21
119.014792
0
LINE
8
Layer 1
10
164.570833
20
119.014792
11
163.536417
21
114.034272
0
LINE
8
Layer 1
10
163.536417
20
114.034272
11
162.597598
21
108.148872
0
LINE
8
Layer 1
10
162.597598
20
108.148872
11
161.999372
21
103.103706
0
LINE
8
Layer 1
10
161.999372
20
103.103706
11
161.904543
21
101.441559
0
LINE
8
Layer 1
10
161.904543
20
101.441559
11
161.986736
21
100.643889
0
LINE
8
Layer 1
10
161.986736
20
100.643889
11
162.327971
21
100.276900
0
LINE
8
Layer 1
10
162.327971
20
100.276900
11
162.665063
21
100.301837
0
LINE
8
Layer 1
10
162.665063
20
100.301837
11
163.002835
21
100.733283
0
LINE
8
Layer 1
10
163.002835
20
100.733283
11
163.346110
21
101.585823
0
LINE
8
Layer 1
10
163.346110
20
101.585823
11
164.068460
21
104.612523
0
LINE
8
Layer 1
10
164.068460
20
104.612523
11
164.870694
21
109.498611
0
LINE
8
Layer 1
10
164.870694
20
109.498611
11
166.252464
21
117.340974
0
LINE
8
Layer 1
10
166.252464
20
117.340974
11
166.988090
21
120.181395
0
LINE
8
Layer 1
10
166.988090
20
120.181395
11
167.787098
21
122.377403
0
LINE
8
Layer 1
10
167.787098
20
122.377403
11
168.674655
21
123.986067
0
LINE
8
Layer 1
10
168.674655
20
123.986067
11
169.675926
21
125.064455
0
LINE
8
Layer 1
10
169.675926
20
125.064455
11
170.816079
21
125.669636
0
LINE
8
Layer 1
10
170.816079
20
125.669636
11
172.120278
21
125.858681
0
LINE
8
Layer 1
10
172.120278
20
125.858681
11
172.723918
21
125.822535
0
LINE
8
Layer 1
10
172.723918
20
125.822535
11
172.971978
21
125.676306
0
LINE
8
Layer 1
10
172.971978
20
125.676306
11
172.884587
21
125.363296
0
LINE
8
Layer 1
10
172.884587
20
125.363296
11
172.481875
21
124.826806
0
LINE
8
Layer 1
10
172.481875
20
124.826806
11
172.085720
21
124.259866
0
LINE
8
Layer 1
10
172.085720
20
124.259866
11
172.007547
21
123.812443
0
LINE
8
Layer 1
10
172.007547
20
123.812443
11
172.267961
21
123.382722
0
LINE
8
Layer 1
10
172.267961
20
123.382722
11
172.887569
21
122.868889
0
LINE
8
Layer 1
10
172.887569
20
122.868889
11
173.580884
21
122.485719
0
LINE
8
Layer 1
10
173.580884
20
122.485719
11
174.380195
21
122.241740
0
LINE
8
Layer 1
10
174.380195
20
122.241740
11
176.068498
21
122.149093
0
LINE
8
Layer 1
10
176.068498
20
122.149093
11
177.495868
21
122.546432
0
LINE
8
Layer 1
10
177.495868
20
122.546432
11
177.969013
21
122.914933
0
LINE
8
Layer 1
10
177.969013
20
122.914933
11
178.205694
21
123.389236
0
LINE
8
Layer 1
10
178.205694
20
123.389236
11
178.177938
21
123.895512
0
LINE
8
Layer 1
10
178.177938
20
123.895512
11
177.873018
21
124.306012
0
LINE
8
Layer 1
10
177.873018
20
124.306012
11
177.275825
21
124.635156
0
LINE
8
Layer 1
10
177.275825
20
124.635156
11
176.371250
21
124.897361
0
LINE
8
Layer 1
10
176.371250
20
124.897361
11
175.089052
21
125.324607
0
LINE
8
Layer 1
10
175.089052
20
125.324607
11
174.895590
21
125.565901
0
LINE
8
Layer 1
10
174.895590
20
125.565901
11
175.012148
21
125.837996
0
LINE
8
Layer 1
10
175.012148
20
125.837996
11
176.210107
21
126.511657
0
LINE
8
Layer 1
10
176.210107
20
126.511657
11
178.752500
21
127.419722
0
LINE
8
Layer 1
10
178.752500
20
127.419722
11
181.977513
21
128.765016
0
LINE
8
Layer 1
10
181.977513
20
128.765016
11
185.076042
21
130.488889
0
LINE
8
Layer 1
10
185.076042
20
130.488889
11
186.644875
21
131.592589
0
LINE
8
Layer 1
10
186.644875
20
131.592589
11
187.496016
21
132.427046
0
LINE
8
Layer 1
10
187.496016
20
132.427046
11
187.783195
21
133.209646
0
LINE
8
Layer 1
10
187.783195
20
133.209646
11
187.660139
21
134.157778
0
LINE
8
Layer 1
10
187.660139
20
134.157778
11
186.998681
21
136.080417
0
LINE
8
Layer 1
10
186.998681
20
136.080417
11
186.448503
21
136.274346
0
LINE
8
Layer 1
10
186.448503
20
136.274346
11
185.490600
21
136.222742
0
LINE
8
Layer 1
10
185.490600
20
136.222742
11
182.617148
21
135.472772
0
LINE
8
Layer 1
10
182.617148
20
135.472772
11
178.909393
21
134.010184
0
LINE
8
Layer 1
10
178.909393
20
134.010184
11
174.898403
21
132.014653
0
LINE
8
Layer 1
10
174.898403
20
132.014653
11
168.636597
21
128.557431
0
LINE
8
Layer 1
10
168.636597
20
128.557431
11
166.237708
21
133.487500
0
LINE
8
Layer 1
10
166.237708
20
133.487500
11
164.962132
21
135.984167
0
LINE
8
Layer 1
10
164.962132
20
135.984167
11
163.981737
21
137.516942
0
LINE
8
Layer 1
10
163.981737
20
137.516942
11
163.112886
21
138.316020
0
LINE
8
Layer 1
10
163.112886
20
138.316020
11
162.171944
21
138.611597
0
LINE
8
Layer 1
10
162.171944
20
138.611597
11
161.748611
21
138.629236
0
LINE
8
Layer 1
10
161.748611
20
138.629236
11
161.748611
21
138.629236
0
LINE
8
Layer 1
10
162.030833
20
134.572292
11
162.595278
21
134.448819
0
LINE
8
Layer 1
10
162.595278
20
134.448819
11
163.617012
21
133.470486
0
LINE
8
Layer 1
10
163.617012
20
133.470486
11
165.003525
21
131.574570
0
LINE
8
Layer 1
10
165.003525
20
131.574570
11
166.224404
21
129.556942
0
LINE
8
Layer 1
10
166.224404
20
129.556942
11
166.749236
21
128.213472
0
LINE
8
Layer 1
10
166.749236
20
128.213472
11
166.676915
21
127.966622
0
LINE
8
Layer 1
10
166.676915
20
127.966622
11
166.474035
21
127.831002
0
LINE
8
Layer 1
10
166.474035
20
127.831002
11
165.761078
21
127.870638
0
LINE
8
Layer 1
10
165.761078
20
127.870638
11
164.779318
21
128.286742
0
LINE
8
Layer 1
10
164.779318
20
128.286742
11
163.697708
21
129.033681
0
LINE
8
Layer 1
10
163.697708
20
129.033681
11
162.891153
21
129.831157
0
LINE
8
Layer 1
10
162.891153
20
129.831157
11
162.230635
21
130.721685
0
LINE
8
Layer 1
10
162.230635
20
130.721685
11
161.397462
21
132.535709
0
LINE
8
Layer 1
10
161.397462
20
132.535709
11
161.249683
21
133.336110
0
LINE
8
Layer 1
10
161.249683
20
133.336110
11
161.297694
21
133.983372
0
LINE
8
Layer 1
10
161.297694
20
133.983372
11
161.553931
21
134.415948
0
LINE
8
Layer 1
10
161.553931
20
134.415948
11
162.030833
21
134.572292
0
LINE
8
Layer 1
10
162.030833
20
134.572292
11
162.030833
21
134.572292
0
LINE
8
Layer 1
10
210.705347
20
133.584514
11
211.430478
21
132.638888
0
LINE
8
Layer 1
10
211.430478
20
132.638888
11
212.716181
21
130.365417
0
LINE
8
Layer 1
10
212.716181
20
130.365417
11
213.590917
21
128.349905
0
LINE
8
Layer 1
10
213.590917
20
128.349905
11
213.751470
21
127.239788
0
LINE
8
Layer 1
10
213.751470
20
127.239788
11
213.584004
21
127.091203
0
LINE
8
Layer 1
10
213.584004
20
127.091203
11
213.262086
21
127.249308
0
LINE
8
Layer 1
10
213.262086
20
127.249308
11
212.187014
21
128.592708
0
LINE
8
Layer 1
10
212.187014
20
128.592708
11
211.457773
21
130.024729
0
LINE
8
Layer 1
10
211.457773
20
130.024729
11
210.868696
21
131.668211
0
LINE
8
Layer 1
10
210.868696
20
131.668211
11
210.568361
21
133.021892
0
LINE
8
Layer 1
10
210.568361
20
133.021892
11
210.572903
21
133.433415
0
LINE
8
Layer 1
10
210.572903
20
133.433415
11
210.705347
21
133.584514
0
LINE
8
Layer 1
10
210.705347
20
133.584514
11
210.705347
21
133.584514
0
LINE
8
Layer 1
10
181.054375
20
132.614375
11
181.689375
21
132.420347
0
LINE
8
Layer 1
10
181.689375
20
132.420347
11
181.989877
21
132.030184
0
LINE
8
Layer 1
10
181.989877
20
132.030184
11
182.088168
21
131.655168
0
LINE
8
Layer 1
10
182.088168
20
131.655168
11
181.977698
21
131.290232
0
LINE
8
Layer 1
10
181.977698
20
131.290232
11
181.651913
21
130.930308
0
LINE
8
Layer 1
10
181.651913
20
130.930308
11
180.328191
21
130.205224
0
LINE
8
Layer 1
10
180.328191
20
130.205224
11
178.064583
21
129.439375
0
LINE
8
Layer 1
10
178.064583
20
129.439375
11
175.444464
21
128.720402
0
LINE
8
Layer 1
10
175.444464
20
128.720402
11
174.178213
21
128.518584
0
LINE
8
Layer 1
10
174.178213
20
128.518584
11
174.006127
21
128.615919
0
LINE
8
Layer 1
10
174.006127
20
128.615919
11
174.116518
21
128.847717
0
LINE
8
Layer 1
10
174.116518
20
128.847717
11
175.110069
21
129.721597
0
LINE
8
Layer 1
10
175.110069
20
129.721597
11
176.799775
21
130.906277
0
LINE
8
Layer 1
10
176.799775
20
130.906277
11
178.448785
21
131.821482
0
LINE
8
Layer 1
10
178.448785
20
131.821482
11
179.914515
21
132.409938
0
LINE
8
Layer 1
10
179.914515
20
132.409938
11
181.054375
21
132.614375
0
LINE
8
Layer 1
10
181.054375
20
132.614375
11
181.054375
21
132.614375
0
LINE
8
Layer 1
10
21.748750
20
130.312500
11
23.387451
21
129.991599
0
LINE
8
Layer 1
10
23.387451
20
129.991599
11
25.914454
21
129.124978
0
LINE
8
Layer 1
10
25.914454
20
129.124978
11
28.281244
21
128.104670
0
LINE
8
Layer 1
10
28.281244
20
128.104670
11
29.076898
21
127.659394
0
LINE
8
Layer 1
10
29.076898
20
127.659394
11
29.439306
21
127.322708
0
LINE
8
Layer 1
10
29.439306
20
127.322708
11
29.480117
21
126.873958
0
LINE
8
Layer 1
10
29.480117
20
126.873958
11
29.355803
21
126.265438
0
LINE
8
Layer 1
10
29.355803
20
126.265438
11
28.707292
21
124.888542
0
LINE
8
Layer 1
10
28.707292
20
124.888542
11
27.824101
21
123.758150
0
LINE
8
Layer 1
10
27.824101
20
123.758150
11
27.181528
21
123.292222
0
LINE
8
Layer 1
10
27.181528
20
123.292222
11
25.696500
21
123.794268
0
LINE
8
Layer 1
10
25.696500
20
123.794268
11
23.253152
21
124.917952
0
LINE
8
Layer 1
10
23.253152
20
124.917952
11
20.968211
21
126.115126
0
LINE
8
Layer 1
10
20.968211
20
126.115126
11
19.958403
21
126.837639
0
LINE
8
Layer 1
10
19.958403
20
126.837639
11
20.626155
21
128.503966
0
LINE
8
Layer 1
10
20.626155
20
128.503966
11
21.598819
21
130.259583
0
LINE
8
Layer 1
10
21.598819
20
130.259583
11
21.748750
21
130.312500
0
LINE
8
Layer 1
10
21.748750
20
130.312500
11
21.748750
21
130.312500
0
LINE
8
Layer 1
10
53.728056
20
128.980764
11
53.860347
21
128.980764
0
LINE
8
Layer 1
10
53.860347
20
128.980764
11
54.304209
21
128.901682
0
LINE
8
Layer 1
10
54.304209
20
128.901682
11
54.678120
21
128.686917
0
LINE
8
Layer 1
10
54.678120
20
128.686917
11
55.159052
21
127.986091
0
LINE
8
Layer 1
10
55.159052
20
127.986091
11
55.189069
21
127.149807
0
LINE
8
Layer 1
10
55.189069
20
127.149807
11
54.999336
21
126.765718
0
LINE
8
Layer 1
10
54.999336
20
126.765718
11
54.654097
21
126.449583
0
LINE
8
Layer 1
10
54.654097
20
126.449583
11
53.770856
21
126.043225
0
LINE
8
Layer 1
10
53.770856
20
126.043225
11
52.907847
21
125.867500
0
LINE
8
Layer 1
10
52.907847
20
125.867500
11
52.516021
21
125.985853
0
LINE
8
Layer 1
10
52.516021
20
125.985853
11
52.289205
21
126.309262
0
LINE
8
Layer 1
10
52.289205
20
126.309262
11
52.273624
21
127.314625
0
LINE
8
Layer 1
10
52.273624
20
127.314625
11
52.747133
21
128.370331
0
LINE
8
Layer 1
10
52.747133
20
128.370331
11
53.131682
21
128.756671
0
LINE
8
Layer 1
10
53.131682
20
128.756671
11
53.595764
21
128.963125
0
LINE
8
Layer 1
10
53.595764
20
128.963125
11
53.728056
21
128.980764
0
LINE
8
Layer 1
10
53.728056
20
128.980764
11
53.728056
21
128.980764
0
LINE
8
Layer 1
10
152.338264
20
127.790139
11
151.406568
21
127.498144
0
LINE
8
Layer 1
10
151.406568
20
127.498144
11
150.643317
21
126.768220
0
LINE
8
Layer 1
10
150.643317
20
126.768220
11
150.204987
21
125.819447
0
LINE
8
Layer 1
10
150.204987
20
125.819447
11
150.248056
21
124.870903
0
LINE
8
Layer 1
10
150.248056
20
124.870903
11
150.493916
21
124.413993
0
LINE
8
Layer 1
10
150.493916
20
124.413993
11
150.816087
21
124.219673
0
LINE
8
Layer 1
10
150.816087
20
124.219673
11
151.273166
21
124.276002
0
LINE
8
Layer 1
10
151.273166
20
124.276002
11
151.923750
21
124.571042
0
LINE
8
Layer 1
10
151.923750
20
124.571042
11
152.417163
21
124.933990
0
LINE
8
Layer 1
10
152.417163
20
124.933990
11
152.796834
21
125.404091
0
LINE
8
Layer 1
10
152.796834
20
125.404091
11
153.190095
21
126.473984
0
LINE
8
Layer 1
10
153.190095
20
126.473984
11
153.191254
21
126.977890
0
LINE
8
Layer 1
10
153.191254
20
126.977890
11
153.053811
21
127.397179
0
LINE
8
Layer 1
10
153.053811
20
127.397179
11
152.771553
21
127.683910
0
LINE
8
Layer 1
10
152.771553
20
127.683910
11
152.338264
21
127.790139
0
LINE
8
Layer 1
10
152.338264
20
127.790139
11
152.338264
21
127.790139
0
LINE
8
Layer 1
10
205.845833
20
127.560833
11
206.268420
21
127.461513
0
LINE
8
Layer 1
10
206.268420
20
127.461513
11
206.791404
21
127.154356
0
LINE
8
Layer 1
10
206.791404
20
127.154356
11
208.271181
21
125.858681
0
LINE
8
Layer 1
10
208.271181
20
125.858681
11
209.860662
21
124.165343
0
LINE
8
Layer 1
10
209.860662
20
124.165343
11
210.520139
21
123.159931
0
LINE
8
Layer 1
10
210.520139
20
123.159931
11
210.335953
21
122.782845
0
LINE
8
Layer 1
10
210.335953
20
122.782845
11
209.840533
21
122.661744
0
LINE
8
Layer 1
10
209.840533
20
122.661744
11
209.119583
21
122.761721
0
LINE
8
Layer 1
10
209.119583
20
122.761721
11
208.258804
21
123.047866
0
LINE
8
Layer 1
10
208.258804
20
123.047866
11
206.460572
21
124.039030
0
LINE
8
Layer 1
10
206.460572
20
124.039030
11
205.694524
21
124.674233
0
LINE
8
Layer 1
10
205.694524
20
124.674233
11
205.131458
21
125.355972
0
LINE
8
Layer 1
10
205.131458
20
125.355972
11
204.851900
21
125.914531
0
LINE
8
Layer 1
10
204.851900
20
125.914531
11
204.773782
21
126.396171
0
LINE
8
Layer 1
10
204.773782
20
126.396171
11
204.898756
21
126.833961
0
LINE
8
Layer 1
10
204.898756
20
126.833961
11
205.228472
21
127.260972
0
LINE
8
Layer 1
10
205.228472
20
127.260972
11
205.522993
21
127.483939
0
LINE
8
Layer 1
10
205.522993
20
127.483939
11
205.845833
21
127.560833
0
LINE
8
Layer 1
10
205.845833
20
127.560833
11
205.845833
21
127.560833
0
LINE
8
Layer 1
10
35.277778
20
123.786111
11
37.067386
21
123.563927
0
LINE
8
Layer 1
10
37.067386
20
123.563927
11
39.281806
21
122.957083
0
LINE
8
Layer 1
10
39.281806
20
122.957083
11
41.463696
21
122.131876
0
LINE
8
Layer 1
10
41.463696
20
122.131876
11
42.650165
21
121.387962
0
LINE
8
Layer 1
10
42.650165
20
121.387962
11
42.903615
21
121.012702
0
LINE
8
Layer 1
10
42.903615
20
121.012702
11
42.948409
21
120.617220
0
LINE
8
Layer 1
10
42.948409
20
120.617220
11
42.465625
21
119.711528
0
LINE
8
Layer 1
10
42.465625
20
119.711528
11
41.902236
21
119.087271
0
LINE
8
Layer 1
10
41.902236
20
119.087271
11
41.603810
21
118.947172
0
LINE
8
Layer 1
10
41.603810
20
118.947172
11
41.190711
21
118.931471
0
LINE
8
Layer 1
10
41.190711
20
118.931471
11
39.709941
21
119.302401
0
LINE
8
Layer 1
10
39.709941
20
119.302401
11
36.838819
21
120.258333
0
LINE
8
Layer 1
10
36.838819
20
120.258333
11
35.002227
21
120.934606
0
LINE
8
Layer 1
10
35.002227
20
120.934606
11
33.777651
21
121.532753
0
LINE
8
Layer 1
10
33.777651
20
121.532753
11
33.117929
21
122.082388
0
LINE
8
Layer 1
10
33.117929
20
122.082388
11
32.975903
21
122.613125
0
LINE
8
Layer 1
10
32.975903
20
122.613125
11
33.212715
21
123.141061
0
LINE
8
Layer 1
10
33.212715
20
123.141061
11
33.683838
21
123.512461
0
LINE
8
Layer 1
10
33.683838
20
123.512461
11
34.376462
21
123.727440
0
LINE
8
Layer 1
10
34.376462
20
123.727440
11
35.277778
21
123.786111
0
LINE
8
Layer 1
10
35.277778
20
123.786111
11
35.277778
21
123.786111
0
LINE
8
Layer 1
10
181.901042
20
123.062917
11
181.098415
21
122.967247
0
LINE
8
Layer 1
10
181.098415
20
122.967247
11
180.454653
21
122.736597
0
LINE
8
Layer 1
10
180.454653
20
122.736597
11
180.093626
21
122.447183
0
LINE
8
Layer 1
10
180.093626
20
122.447183
11
179.979417
21
122.130916
0
LINE
8
Layer 1
10
179.979417
20
122.130916
11
180.100985
21
121.796265
0
LINE
8
Layer 1
10
180.100985
20
121.796265
11
180.447285
21
121.451700
0
LINE
8
Layer 1
10
180.447285
20
121.451700
11
181.769913
21
120.766703
0
LINE
8
Layer 1
10
181.769913
20
120.766703
11
183.858958
21
120.143681
0
LINE
8
Layer 1
10
183.858958
20
120.143681
11
185.658981
21
119.779979
0
LINE
8
Layer 1
10
185.658981
20
119.779979
11
186.808535
21
119.716084
0
LINE
8
Layer 1
10
186.808535
20
119.716084
11
187.475489
21
119.967411
0
LINE
8
Layer 1
10
187.475489
20
119.967411
11
187.827708
21
120.549375
0
LINE
8
Layer 1
10
187.827708
20
120.549375
11
187.793310
21
121.015132
0
LINE
8
Layer 1
10
187.793310
20
121.015132
11
187.426012
21
121.476160
0
LINE
8
Layer 1
10
187.426012
20
121.476160
11
185.954839
21
122.306880
0
LINE
8
Layer 1
10
185.954839
20
122.306880
11
183.938435
21
122.887233
0
LINE
8
Layer 1
10
183.938435
20
122.887233
11
181.901042
21
123.062917
0
LINE
8
Layer 1
10
181.901042
20
123.062917
11
181.901042
21
123.062917
0
LINE
8
Layer 1
10
49.988611
20
121.687083
11
52.114097
21
121.431319
0
LINE
8
Layer 1
10
52.114097
20
121.431319
11
54.597375
21
120.688317
0
LINE
8
Layer 1
10
54.597375
20
120.688317
11
55.334239
21
120.325217
0
LINE
8
Layer 1
10
55.334239
20
120.325217
11
55.711501
21
120.002919
0
LINE
8
Layer 1
10
55.711501
20
120.002919
11
55.711849
21
119.747826
0
LINE
8
Layer 1
10
55.711849
20
119.747826
11
55.317967
21
119.586339
0
LINE
8
Layer 1
10
55.317967
20
119.586339
11
53.278264
21
119.649792
0
LINE
8
Layer 1
10
53.278264
20
119.649792
11
51.519160
21
119.843890
0
LINE
8
Layer 1
10
51.519160
20
119.843890
11
50.609491
21
119.751239
0
LINE
8
Layer 1
10
50.609491
20
119.751239
11
50.385652
21
119.555386
0
LINE
8
Layer 1
10
50.385652
20
119.555386
11
50.269121
21
119.237448
0
LINE
8
Layer 1
10
50.269121
20
119.237448
11
50.217917
21
118.168125
0
LINE
8
Layer 1
10
50.217917
20
118.168125
11
50.303951
21
117.187427
0
LINE
8
Layer 1
10
50.303951
20
117.187427
11
50.634755
21
116.509389
0
LINE
8
Layer 1
10
50.634755
20
116.509389
11
51.319379
21
116.008080
0
LINE
8
Layer 1
10
51.319379
20
116.008080
11
52.466875
21
115.557569
0
LINE
8
Layer 1
10
52.466875
20
115.557569
11
54.060509
21
114.860803
0
LINE
8
Layer 1
10
54.060509
20
114.860803
11
54.546154
21
114.514193
0
LINE
8
Layer 1
10
54.546154
20
114.514193
11
54.724653
21
114.225833
0
LINE
8
Layer 1
10
54.724653
20
114.225833
11
54.577222
21
113.842406
0
LINE
8
Layer 1
10
54.577222
20
113.842406
11
53.936098
21
113.738830
0
LINE
8
Layer 1
10
53.936098
20
113.738830
11
49.979792
21
114.428681
0
LINE
8
Layer 1
10
49.979792
20
114.428681
11
46.848889
21
115.081319
0
LINE
8
Layer 1
10
46.848889
20
115.081319
11
47.192847
21
117.665417
0
LINE
8
Layer 1
10
47.192847
20
117.665417
11
47.543358
21
119.465596
0
LINE
8
Layer 1
10
47.543358
20
119.465596
11
48.078515
21
120.698506
0
LINE
8
Layer 1
10
48.078515
20
120.698506
11
48.869779
21
121.420288
0
LINE
8
Layer 1
10
48.869779
20
121.420288
11
49.988611
21
121.687083
0
LINE
8
Layer 1
10
49.988611
20
121.687083
11
49.988611
21
121.687083
0
LINE
8
Layer 1
10
194.997917
20
120.708125
11
195.567904
21
120.518996
0
LINE
8
Layer 1
10
195.567904
20
120.518996
11
196.038611
21
120.064306
0
LINE
8
Layer 1
10
196.038611
20
120.064306
11
196.441474
21
119.814324
0
LINE
8
Layer 1
10
196.441474
20
119.814324
11
197.244236
21
119.609608
0
LINE
8
Layer 1
10
197.244236
20
119.609608
11
199.584028
21
119.420486
0
LINE
8
Layer 1
10
199.584028
20
119.420486
11
202.732569
21
119.420486
0
LINE
8
Layer 1
10
202.732569
20
119.420486
11
202.926597
21
116.104375
0
LINE
8
Layer 1
10
202.926597
20
116.104375
11
203.302573
21
113.479135
0
LINE
8
Layer 1
10
203.302573
20
113.479135
11
203.649889
21
112.668396
0
LINE
8
Layer 1
10
203.649889
20
112.668396
11
204.124128
21
112.179356
0
LINE
8
Layer 1
10
204.124128
20
112.179356
11
204.740821
21
112.002350
0
LINE
8
Layer 1
10
204.740821
20
112.002350
11
205.515495
21
112.127712
0
LINE
8
Layer 1
10
205.515495
20
112.127712
11
206.463679
21
112.545775
0
LINE
8
Layer 1
10
206.463679
20
112.545775
11
207.600903
21
113.246875
0
LINE
8
Layer 1
10
207.600903
20
113.246875
11
210.096806
21
114.940208
0
LINE
8
Layer 1
10
210.096806
20
114.940208
11
211.534375
21
113.582014
0
LINE
8
Layer 1
10
211.534375
20
113.582014
11
213.384684
21
111.321343
0
LINE
8
Layer 1
10
213.384684
20
111.321343
11
216.164824
21
107.455818
0
LINE
8
Layer 1
10
216.164824
20
107.455818
11
218.931614
21
103.341690
0
LINE
8
Layer 1
10
218.931614
20
103.341690
11
220.741875
21
100.335208
0
LINE
8
Layer 1
10
220.741875
20
100.335208
11
221.004167
21
99.503287
0
LINE
8
Layer 1
10
221.004167
20
99.503287
11
220.755198
21
98.646393
0
LINE
8
Layer 1
10
220.755198
20
98.646393
11
219.833700
21
97.485174
0
LINE
8
Layer 1
10
219.833700
20
97.485174
11
218.078403
21
95.740278
0
LINE
8
Layer 1
10
218.078403
20
95.740278
11
214.613642
21
92.591803
0
LINE
8
Layer 1
10
214.613642
20
92.591803
11
211.014028
21
89.549028
0
LINE
8
Layer 1
10
211.014028
20
89.549028
11
208.311708
21
87.455976
0
LINE
8
Layer 1
10
208.311708
20
87.455976
11
207.001181
21
86.585694
0
LINE
8
Layer 1
10
207.001181
20
86.585694
11
206.689499
21
87.014532
0
LINE
8
Layer 1
10
206.689499
20
87.014532
11
206.383819
21
88.040903
0
LINE
8
Layer 1
10
206.383819
20
88.040903
11
205.298121
21
92.817133
0
LINE
8
Layer 1
10
205.298121
20
92.817133
11
204.062408
21
97.573718
0
LINE
8
Layer 1
10
204.062408
20
97.573718
11
201.314234
21
106.522040
0
LINE
8
Layer 1
10
201.314234
20
106.522040
11
199.888420
21
110.460822
0
LINE
8
Layer 1
10
199.888420
20
110.460822
11
198.485887
21
113.874048
0
LINE
8
Layer 1
10
198.485887
20
113.874048
11
197.149958
21
116.635238
0
LINE
8
Layer 1
10
197.149958
20
116.635238
11
195.923958
21
118.617917
0
LINE
8
Layer 1
10
195.923958
20
118.617917
11
195.007474
21
120.094566
0
LINE
8
Layer 1
10
195.007474
20
120.094566
11
194.873783
21
120.543358
0
LINE
8
Layer 1
10
194.873783
20
120.543358
11
194.997917
21
120.708125
0
LINE
8
Layer 1
10
194.997917
20
120.708125
11
194.997917
21
120.708125
0
LINE
8
Layer 1
10
145.441458
20
118.238681
11
144.487824
21
117.988767
0
LINE
8
Layer 1
10
144.487824
20
117.988767
11
143.218958
21
117.295000
0
LINE
8
Layer 1
10
143.218958
20
117.295000
11
141.910039
21
116.071050
0
LINE
8
Layer 1
10
141.910039
20
116.071050
11
140.977326
21
114.536711
0
LINE
8
Layer 1
10
140.977326
20
114.536711
11
140.583346
21
113.060805
0
LINE
8
Layer 1
10
140.583346
20
113.060805
11
140.639170
21
112.460021
0
LINE
8
Layer 1
10
140.639170
20
112.460021
11
140.890625
21
112.012153
0
LINE
8
Layer 1
10
140.890625
20
112.012153
11
141.490551
21
111.705524
0
LINE
8
Layer 1
10
141.490551
20
111.705524
11
142.239012
21
111.800874
0
LINE
8
Layer 1
10
142.239012
20
111.800874
11
143.096005
21
112.284086
0
LINE
8
Layer 1
10
143.096005
20
112.284086
11
144.021528
21
113.141042
0
LINE
8
Layer 1
10
144.021528
20
113.141042
11
145.583186
21
115.176347
0
LINE
8
Layer 1
10
145.583186
20
115.176347
11
146.319186
21
116.813884
0
LINE
8
Layer 1
10
146.319186
20
116.813884
11
146.387505
21
117.432164
0
LINE
8
Layer 1
10
146.387505
20
117.432164
11
146.261339
21
117.889410
0
LINE
8
Layer 1
10
146.261339
20
117.889410
11
145.944665
21
118.165093
0
LINE
8
Layer 1
10
145.944665
20
118.165093
11
145.441458
21
118.238681
0
LINE
8
Layer 1
10
145.441458
20
118.238681
11
145.441458
21
118.238681
0
LINE
8
Layer 1
10
23.327431
20
117.409653
11
23.540843
21
117.344030
0
LINE
8
Layer 1
10
23.540843
20
117.344030
11
23.407586
21
117.130731
0
LINE
8
Layer 1
10
23.407586
20
117.130731
11
22.145625
21
116.263125
0
LINE
8
Layer 1
10
22.145625
20
116.263125
11
20.975140
21
115.708776
0
LINE
8
Layer 1
10
20.975140
20
115.708776
11
19.265932
21
115.100172
0
LINE
8
Layer 1
10
19.265932
20
115.100172
11
15.151806
21
114.014167
0
LINE
8
Layer 1
10
15.151806
20
114.014167
11
11.242839
21
113.281616
0
LINE
8
Layer 1
10
11.242839
20
113.281616
11
8.763077
21
113.029119
0
LINE
8
Layer 1
10
8.763077
20
113.029119
11
7.980308
21
113.081964
0
LINE
8
Layer 1
10
7.980308
20
113.081964
11
7.460232
21
113.253712
0
LINE
8
Layer 1
10
7.460232
20
113.253712
11
7.171312
21
113.543991
0
LINE
8
Layer 1
10
7.171312
20
113.543991
11
7.082014
21
113.952431
0
LINE
8
Layer 1
10
7.082014
20
113.952431
11
7.260622
21
114.418823
0
LINE
8
Layer 1
10
7.260622
20
114.418823
11
7.875067
21
114.714147
0
LINE
8
Layer 1
10
7.875067
20
114.714147
11
9.043280
21
114.868942
0
LINE
8
Layer 1
10
9.043280
20
114.868942
11
10.883194
21
114.913750
0
LINE
8
Layer 1
10
10.883194
20
114.913750
11
12.683871
21
115.014618
0
LINE
8
Layer 1
10
12.683871
20
115.014618
11
14.773035
21
115.289303
0
LINE
8
Layer 1
10
14.773035
20
115.289303
11
18.776597
21
116.192569
0
LINE
8
Layer 1
10
18.776597
20
116.192569
11
21.815494
21
117.097440
0
LINE
8
Layer 1
10
21.815494
20
117.097440
11
23.327431
21
117.409653
0
LINE
8
Layer 1
10
23.327431
20
117.409653
11
23.327431
21
117.409653
0
LINE
8
Layer 1
10
63.076667
20
117.303819
11
64.999306
21
117.171528
0
LINE
8
Layer 1
10
64.999306
20
117.171528
11
66.569054
21
116.904387
0
LINE
8
Layer 1
10
66.569054
20
116.904387
11
67.556033
21
116.596921
0
LINE
8
Layer 1
10
67.556033
20
116.596921
11
68.042965
21
116.210751
0
LINE
8
Layer 1
10
68.042965
20
116.210751
11
68.112569
21
115.707500
0
LINE
8
Layer 1
10
68.112569
20
115.707500
11
67.810652
21
114.952747
0
LINE
8
Layer 1
10
67.810652
20
114.952747
11
67.259692
21
114.571907
0
LINE
8
Layer 1
10
67.259692
20
114.571907
11
66.442844
21
114.560426
0
LINE
8
Layer 1
10
66.442844
20
114.560426
11
65.343264
21
114.913750
0
LINE
8
Layer 1
10
65.343264
20
114.913750
11
62.194722
21
115.875069
0
LINE
8
Layer 1
10
62.194722
20
115.875069
11
60.853596
21
116.340115
0
LINE
8
Layer 1
10
60.853596
20
116.340115
11
60.641311
21
116.576892
0
LINE
8
Layer 1
10
60.641311
20
116.576892
11
60.698344
21
116.799856
0
LINE
8
Layer 1
10
60.698344
20
116.799856
11
61.511768
21
117.154391
0
LINE
8
Layer 1
10
61.511768
20
117.154391
11
63.076667
21
117.303819
0
LINE
8
Layer 1
10
63.076667
20
117.303819
11
63.076667
21
117.303819
0
LINE
8
Layer 1
10
189.485764
20
117.136250
11
188.806667
21
116.721736
0
LINE
8
Layer 1
10
188.806667
20
116.721736
11
187.954936
21
115.714273
0
LINE
8
Layer 1
10
187.954936
20
115.714273
11
187.299048
21
114.415883
0
LINE
8
Layer 1
10
187.299048
20
114.415883
11
186.964816
21
113.152555
0
LINE
8
Layer 1
10
186.964816
20
113.152555
11
187.078056
21
112.250278
0
LINE
8
Layer 1
10
187.078056
20
112.250278
11
187.528023
21
111.851304
0
LINE
8
Layer 1
10
187.528023
20
111.851304
11
188.067523
21
111.857080
0
LINE
8
Layer 1
10
188.067523
20
111.857080
11
188.641370
21
112.194043
0
LINE
8
Layer 1
10
188.641370
20
112.194043
11
189.194378
21
112.788629
0
LINE
8
Layer 1
10
189.194378
20
112.788629
11
189.671362
21
113.567275
0
LINE
8
Layer 1
10
189.671362
20
113.567275
11
190.017134
21
114.456419
0
LINE
8
Layer 1
10
190.017134
20
114.456419
11
190.176511
21
115.382496
0
LINE
8
Layer 1
10
190.176511
20
115.382496
11
190.094306
21
116.271944
0
LINE
8
Layer 1
10
190.094306
20
116.271944
11
189.833252
21
116.960082
0
LINE
8
Layer 1
10
189.833252
20
116.960082
11
189.485764
21
117.136250
0
LINE
8
Layer 1
10
189.485764
20
117.136250
11
189.485764
21
117.136250
0
LINE
8
Layer 1
10
62.794444
20
108.440278
11
63.296158
21
108.341683
0
LINE
8
Layer 1
10
63.296158
20
108.341683
11
64.031499
21
107.951809
0
LINE
8
Layer 1
10
64.031499
20
107.951809
11
66.242847
21
106.279514
0
LINE
8
Layer 1
10
66.242847
20
106.279514
11
68.666927
21
104.476944
0
LINE
8
Layer 1
10
68.666927
20
104.476944
11
70.802500
21
103.227986
0
LINE
8
Layer 1
10
70.802500
20
103.227986
11
72.256052
21
102.386150
0
LINE
8
Layer 1
10
72.256052
20
102.386150
11
73.042639
21
101.561111
0
LINE
8
Layer 1
10
73.042639
20
101.561111
11
73.210208
21
100.785000
0
LINE
8
Layer 1
10
73.210208
20
100.785000
11
71.800056
21
101.286530
0
LINE
8
Layer 1
10
71.800056
20
101.286530
11
70.136286
21
102.078693
0
LINE
8
Layer 1
10
70.136286
20
102.078693
11
66.592378
21
104.174812
0
LINE
8
Layer 1
10
66.592378
20
104.174812
11
63.667454
21
106.353143
0
LINE
8
Layer 1
10
63.667454
20
106.353143
11
62.777415
21
107.248071
0
LINE
8
Layer 1
10
62.777415
20
107.248071
11
62.450486
21
107.893472
0
LINE
8
Layer 1
10
62.450486
20
107.893472
11
62.534235
21
108.283901
0
LINE
8
Layer 1
10
62.534235
20
108.283901
11
62.794444
21
108.440278
0
LINE
8
Layer 1
10
62.794444
20
108.440278
11
62.794444
21
108.440278
0
LINE
8
Layer 1
10
182.853542
20
107.187917
11
182.241012
21
107.063523
0
LINE
8
Layer 1
10
182.241012
20
107.063523
11
181.632913
21
106.722685
0
LINE
8
Layer 1
10
181.632913
20
106.722685
11
180.561385
21
105.585707
0
LINE
8
Layer 1
10
180.561385
20
105.585707
11
179.901717
21
104.165042
0
LINE
8
Layer 1
10
179.901717
20
104.165042
11
179.808442
21
103.469595
0
LINE
8
Layer 1
10
179.808442
20
103.469595
11
179.916667
21
102.848750
0
LINE
8
Layer 1
10
179.916667
20
102.848750
11
180.210737
21
102.327336
0
LINE
8
Layer 1
10
180.210737
20
102.327336
11
180.608502
21
102.278012
0
LINE
8
Layer 1
10
180.608502
20
102.278012
11
181.242434
21
102.756592
0
LINE
8
Layer 1
10
181.242434
20
102.756592
11
182.245000
21
103.818889
0
LINE
8
Layer 1
10
182.245000
20
103.818889
11
183.518689
21
105.383640
0
LINE
8
Layer 1
10
183.518689
20
105.383640
11
184.036839
21
106.426371
0
LINE
8
Layer 1
10
184.036839
20
106.426371
11
184.016260
21
106.770897
0
LINE
8
Layer 1
10
184.016260
20
106.770897
11
183.811204
21
107.007618
0
LINE
8
Layer 1
10
183.811204
20
107.007618
11
182.853542
21
107.187917
0
LINE
8
Layer 1
10
182.853542
20
107.187917
11
182.853542
21
107.187917
0
LINE
8
Layer 1
10
141.816667
20
107.090903
11
141.292113
21
106.939083
0
LINE
8
Layer 1
10
141.292113
20
106.939083
11
140.844026
21
106.563960
0
LINE
8
Layer 1
10
140.844026
20
106.563960
11
140.483595
21
106.000601
0
LINE
8
Layer 1
10
140.483595
20
106.000601
11
140.222009
21
105.284072
0
LINE
8
Layer 1
10
140.222009
20
105.284072
11
140.040134
21
103.531765
0
LINE
8
Layer 1
10
140.040134
20
103.531765
11
140.387917
21
101.587569
0
LINE
8
Layer 1
10
140.387917
20
101.587569
11
140.773872
21
100.625605
0
LINE
8
Layer 1
10
140.773872
20
100.625605
11
141.196176
21
99.977805
0
LINE
8
Layer 1
10
141.196176
20
99.977805
11
141.661936
21
99.636588
0
LINE
8
Layer 1
10
141.661936
20
99.636588
11
142.178264
21
99.594375
0
LINE
8
Layer 1
10
142.178264
20
99.594375
11
142.701789
21
99.991228
0
LINE
8
Layer 1
10
142.701789
20
99.991228
11
143.071713
21
100.848195
0
LINE
8
Layer 1
10
143.071713
20
100.848195
11
143.289101
21
102.011920
0
LINE
8
Layer 1
10
143.289101
20
102.011920
11
143.355022
21
103.329047
0
LINE
8
Layer 1
10
143.355022
20
103.329047
11
143.270540
21
104.646219
0
LINE
8
Layer 1
10
143.270540
20
104.646219
11
143.036722
21
105.810080
0
LINE
8
Layer 1
10
143.036722
20
105.810080
11
142.654636
21
106.667274
0
LINE
8
Layer 1
10
142.654636
20
106.667274
11
142.125347
21
107.064444
0
LINE
8
Layer 1
10
142.125347
20
107.064444
11
141.816667
21
107.090903
0
LINE
8
Layer 1
10
141.816667
20
107.090903
11
141.816667
21
107.090903
0
LINE
8
Layer 1
10
175.321736
20
100.405764
11
174.131111
21
100.097083
0
LINE
8
Layer 1
10
174.131111
20
100.097083
11
172.182433
21
99.203227
0
LINE
8
Layer 1
10
172.182433
20
99.203227
11
170.660052
21
98.194986
0
LINE
8
Layer 1
10
170.660052
20
98.194986
11
169.669347
21
97.156630
0
LINE
8
Layer 1
10
169.669347
20
97.156630
11
169.406303
21
96.652494
0
LINE
8
Layer 1
10
169.406303
20
96.652494
11
169.315694
21
96.172431
0
LINE
8
Layer 1
10
169.315694
20
96.172431
11
169.416345
21
95.562006
0
LINE
8
Layer 1
10
169.416345
20
95.562006
11
169.704015
21
95.170654
0
LINE
8
Layer 1
10
169.704015
20
95.170654
11
170.157279
21
94.993994
0
LINE
8
Layer 1
10
170.157279
20
94.993994
11
170.754710
21
95.027649
0
LINE
8
Layer 1
10
170.754710
20
95.027649
11
172.296366
21
95.708390
0
LINE
8
Layer 1
10
172.296366
20
95.708390
11
174.157569
21
97.177847
0
LINE
8
Layer 1
10
174.157569
20
97.177847
11
175.410065
21
98.529885
0
LINE
8
Layer 1
10
175.410065
20
98.529885
11
176.021882
21
99.569036
0
LINE
8
Layer 1
10
176.021882
20
99.569036
11
176.087400
21
99.947614
0
LINE
8
Layer 1
10
176.087400
20
99.947614
11
175.992584
21
100.219571
0
LINE
8
Layer 1
10
175.992584
20
100.219571
11
175.737381
21
100.375444
0
LINE
8
Layer 1
10
175.737381
20
100.375444
11
175.321736
21
100.405764
0
LINE
8
Layer 1
10
175.321736
20
100.405764
11
175.321736
21
100.405764
0
LINE
8
Layer 1
10
145.538472
20
96.886806
11
144.984750
21
96.785320
0
LINE
8
Layer 1
10
144.984750
20
96.785320
11
144.574680
21
96.514132
0
LINE
8
Layer 1
10
144.574680
20
96.514132
11
144.311917
21
96.123138
0
LINE
8
Layer 1
10
144.311917
20
96.123138
11
144.200116
21
95.662237
0
LINE
8
Layer 1
10
144.200116
20
95.662237
11
144.242932
21
95.181326
0
LINE
8
Layer 1
10
144.242932
20
95.181326
11
144.444018
21
94.730301
0
LINE
8
Layer 1
10
144.444018
20
94.730301
11
144.807031
21
94.359060
0
LINE
8
Layer 1
10
144.807031
20
94.359060
11
145.335625
21
94.117500
0
LINE
8
Layer 1
10
145.335625
20
94.117500
11
146.980381
21
93.799027
0
LINE
8
Layer 1
10
146.980381
20
93.799027
11
148.253083
21
93.780950
0
LINE
8
Layer 1
10
148.253083
20
93.780950
11
149.074678
21
94.054620
0
LINE
8
Layer 1
10
149.074678
20
94.054620
11
149.291606
21
94.298158
0
LINE
8
Layer 1
10
149.291606
20
94.298158
11
149.366111
21
94.611389
0
LINE
8
Layer 1
10
149.366111
20
94.611389
11
149.278452
21
95.029468
0
LINE
8
Layer 1
10
149.278452
20
95.029468
11
149.031394
21
95.437578
0
LINE
8
Layer 1
10
149.031394
20
95.437578
11
148.154568
21
96.167458
0
LINE
8
Layer 1
10
148.154568
20
96.167458
11
146.926603
21
96.688158
0
LINE
8
Layer 1
10
146.926603
20
96.688158
11
145.538472
21
96.886806
0
LINE
8
Layer 1
10
145.538472
20
96.886806
11
145.538472
21
96.886806
0
LINE
8
Layer 1
10
156.853819
20
93.508958
11
155.610160
21
93.401859
0
LINE
8
Layer 1
10
155.610160
20
93.401859
11
154.560764
21
93.050347
0
LINE
8
Layer 1
10
154.560764
20
93.050347
11
153.624324
21
92.299542
0
LINE
8
Layer 1
10
153.624324
20
92.299542
11
153.267722
21
91.472038
0
LINE
8
Layer 1
10
153.267722
20
91.472038
11
153.311162
21
91.084440
0
LINE
8
Layer 1
10
153.311162
20
91.084440
11
153.504724
21
90.743567
0
LINE
8
Layer 1
10
153.504724
20
90.743567
11
153.850129
21
90.471385
0
LINE
8
Layer 1
10
153.850129
20
90.471385
11
154.349097
21
90.289861
0
LINE
8
Layer 1
10
154.349097
20
90.289861
11
155.977284
21
90.186019
0
LINE
8
Layer 1
10
155.977284
20
90.186019
11
158.095289
21
90.342604
0
LINE
8
Layer 1
10
158.095289
20
90.342604
11
160.048965
21
90.680075
0
LINE
8
Layer 1
10
160.048965
20
90.680075
11
161.184167
21
91.118889
0
LINE
8
Layer 1
10
161.184167
20
91.118889
11
161.462882
21
91.548061
0
LINE
8
Layer 1
10
161.462882
20
91.548061
11
161.398910
21
91.971612
0
LINE
8
Layer 1
10
161.398910
20
91.971612
11
161.046449
21
92.373723
0
LINE
8
Layer 1
10
161.046449
20
92.373723
11
160.459700
21
92.738572
0
LINE
8
Layer 1
10
160.459700
20
92.738572
11
158.800137
21
93.293209
0
LINE
8
Layer 1
10
158.800137
20
93.293209
11
156.853819
21
93.508958
0
LINE
8
Layer 1
10
156.853819
20
93.508958
11
156.853819
21
93.508958
0
LINE
8
Layer 1
10
172.622986
20
63.902083
11
172.952660
21
63.792453
0
LINE
8
Layer 1
10
172.952660
20
63.792453
11
173.267776
21
63.474438
0
LINE
8
Layer 1
10
173.267776
20
63.474438
11
173.531695
21
62.953527
0
LINE
8
Layer 1
10
173.531695
20
62.953527
11
173.707778
21
62.235208
0
LINE
8
Layer 1
10
173.707778
20
62.235208
11
173.734381
21
61.624388
0
LINE
8
Layer 1
10
173.734381
20
61.624388
11
173.609374
21
61.185875
0
LINE
8
Layer 1
10
173.609374
20
61.185875
11
173.332927
21
60.921456
0
LINE
8
Layer 1
10
173.332927
20
60.921456
11
172.905208
21
60.832917
0
LINE
8
Layer 1
10
172.905208
20
60.832917
11
172.469419
21
60.941221
0
LINE
8
Layer 1
10
172.469419
20
60.941221
11
172.151589
21
61.260639
0
LINE
8
Layer 1
10
172.151589
20
61.260639
11
171.957009
21
61.782914
0
LINE
8
Layer 1
10
171.957009
20
61.782914
11
171.890972
21
62.499792
0
LINE
8
Layer 1
10
171.890972
20
62.499792
11
172.081267
21
63.505270
0
LINE
8
Layer 1
10
172.081267
20
63.505270
11
172.534792
21
63.893264
0
LINE
8
Layer 1
10
172.534792
20
63.893264
11
172.622986
21
63.902083
0
LINE
8
Layer 1
10
172.622986
20
63.902083
11
172.622986
21
63.902083
0
LINE
8
Layer 1
10
173.090417
20
58.257639
11
173.385325
21
58.087811
0
LINE
8
Layer 1
10
173.385325
20
58.087811
11
173.688788
21
57.625441
0
LINE
8
Layer 1
10
173.688788
20
57.625441
11
174.175208
21
56.105694
0
LINE
8
Layer 1
10
174.175208
20
56.105694
11
174.390156
21
54.096414
0
LINE
8
Layer 1
10
174.390156
20
54.096414
11
174.359905
21
52.189229
0
LINE
8
Layer 1
10
174.359905
20
52.189229
11
174.129267
21
50.928383
0
LINE
8
Layer 1
10
174.129267
20
50.928383
11
173.952807
21
50.710416
0
LINE
8
Layer 1
10
173.952807
20
50.710416
11
173.743056
21
50.858125
0
LINE
8
Layer 1
10
173.743056
20
50.858125
11
173.202102
21
52.550631
0
LINE
8
Layer 1
10
173.202102
20
52.550631
11
172.852231
21
55.034622
0
LINE
8
Layer 1
10
172.852231
20
55.034622
11
172.784612
21
57.280243
0
LINE
8
Layer 1
10
172.784612
20
57.280243
11
172.885139
21
57.991835
0
LINE
8
Layer 1
10
172.885139
20
57.991835
11
173.090417
21
58.257639
0
LINE
8
Layer 1
10
173.090417
20
58.257639
11
173.090417
21
58.257639
0
LINE
8
Layer 1
10
60.871806
20
44.516944
11
62.121421
21
44.447087
0
LINE
8
Layer 1
10
62.121421
20
44.447087
11
62.303665
21
44.350317
0
LINE
8
Layer 1
10
62.303665
20
44.350317
11
62.124167
21
44.208264
0
LINE
8
Layer 1
10
62.124167
20
44.208264
11
59.420293
21
43.699792
0
LINE
8
Layer 1
10
59.420293
20
43.699792
11
54.724653
21
43.273403
0
LINE
8
Layer 1
10
54.724653
20
43.273403
11
50.663549
21
43.136163
0
LINE
8
Layer 1
10
50.663549
20
43.136163
11
50.236676
21
43.246079
0
LINE
8
Layer 1
10
50.236676
20
43.246079
11
50.861736
21
43.476250
0
LINE
8
Layer 1
10
50.861736
20
43.476250
11
52.993586
21
43.872329
0
LINE
8
Layer 1
10
52.993586
20
43.872329
11
55.733591
21
44.201735
0
LINE
8
Layer 1
10
55.733591
20
44.201735
11
60.871806
21
44.516944
0
LINE
8
Layer 1
10
60.871806
20
44.516944
11
60.871806
21
44.516944
0
LINE
8
Layer 1
10
-24.879653
20
43.820208
11
-26.484792
21
43.537986
0
LINE
8
Layer 1
10
-26.484792
20
43.537986
11
-27.321385
21
43.113521
0
LINE
8
Layer 1
10
-27.321385
20
43.113521
11
-28.185440
21
42.489323
0
LINE
8
Layer 1
10
-28.185440
20
42.489323
11
-29.824554
21
40.847811
0
LINE
8
Layer 1
10
-29.824554
20
40.847811
11
-31.059377
21
39.025624
0
LINE
8
Layer 1
10
-31.059377
20
39.025624
11
-31.418068
21
38.175580
0
LINE
8
Layer 1
10
-31.418068
20
38.175580
11
-31.547153
21
37.434931
0
LINE
8
Layer 1
10
-31.547153
20
37.434931
11
-31.270810
21
35.961934
0
LINE
8
Layer 1
10
-31.270810
20
35.961934
11
-30.490535
21
34.589594
0
LINE
8
Layer 1
10
-30.490535
20
34.589594
11
-29.279454
21
33.411814
0
LINE
8
Layer 1
10
-29.279454
20
33.411814
11
-27.710694
21
32.522500
0
LINE
8
Layer 1
10
-27.710694
20
32.522500
11
-26.557308
21
31.905772
0
LINE
8
Layer 1
10
-26.557308
20
31.905772
11
-25.854315
21
31.270457
0
LINE
8
Layer 1
10
-25.854315
20
31.270457
11
-25.717914
21
30.773890
0
LINE
8
Layer 1
10
-25.717914
20
30.773890
11
-25.898498
21
30.626803
0
LINE
8
Layer 1
10
-25.898498
20
30.626803
11
-26.264306
21
30.573403
0
LINE
8
Layer 1
10
-26.264306
20
30.573403
11
-27.716073
21
29.651067
0
LINE
8
Layer 1
10
-27.716073
20
29.651067
11
-30.488819
21
27.433681
0
LINE
8
Layer 1
10
-30.488819
20
27.433681
11
-35.007101
21
24.038896
0
LINE
8
Layer 1
10
-35.007101
20
24.038896
11
-40.657639
21
20.281111
0
LINE
8
Layer 1
10
-40.657639
20
20.281111
11
-45.979114
21
16.656338
0
LINE
8
Layer 1
10
-45.979114
20
16.656338
11
-50.667798
21
12.853387
0
LINE
8
Layer 1
10
-50.667798
20
12.853387
11
-52.681811
21
10.967922
0
LINE
8
Layer 1
10
-52.681811
20
10.967922
11
-54.425986
21
9.137305
0
LINE
8
Layer 1
10
-54.425986
20
9.137305
11
-55.863111
21
7.394667
0
LINE
8
Layer 1
10
-55.863111
20
7.394667
11
-56.955972
21
5.773139
0
LINE
8
Layer 1
10
-56.955972
20
5.773139
11
-58.493338
21
2.392660
0
LINE
8
Layer 1
10
-58.493338
20
2.392660
11
-59.857569
21
-1.749861
0
LINE
8
Layer 1
10
-59.857569
20
-1.749861
11
-61.930139
21
-9.255194
0
LINE
8
Layer 1
10
-61.930139
20
-9.255194
11
-62.759167
21
-12.068611
0
LINE
8
Layer 1
10
-62.759167
20
-12.068611
11
-59.240208
21
-15.296528
0
LINE
8
Layer 1
10
-59.240208
20
-15.296528
11
-55.730069
21
-18.524444
0
LINE
8
Layer 1
10
-55.730069
20
-18.524444
11
-96.925694
21
-18.833139
0
LINE
8
Layer 1
10
-96.925694
20
-18.833139
11
-96.925694
21
-47.566861
0
LINE
8
Layer 1
10
-96.925694
20
-47.566861
11
287.363972
21
-47.566861
0
LINE
8
Layer 1
10
287.363972
20
-47.566861
11
287.363972
21
-19.318194
0
LINE
8
Layer 1
10
287.363972
20
-19.318194
11
239.633125
21
-19.080084
0
LINE
8
Layer 1
10
239.633125
20
-19.080084
11
239.482887
21
-18.689708
0
LINE
8
Layer 1
10
239.482887
20
-18.689708
11
239.723773
21
-17.961376
0
LINE
8
Layer 1
10
239.723773
20
-17.961376
11
241.344097
21
-15.561111
0
LINE
8
Layer 1
10
241.344097
20
-15.561111
11
242.953514
21
-13.330752
0
LINE
8
Layer 1
10
242.953514
20
-13.330752
11
244.119707
21
-11.264278
0
LINE
8
Layer 1
10
244.119707
20
-11.264278
11
244.843665
21
-9.333942
0
LINE
8
Layer 1
10
244.843665
20
-9.333942
11
245.126372
21
-7.511999
0
LINE
8
Layer 1
10
245.126372
20
-7.511999
11
244.968818
21
-5.770704
0
LINE
8
Layer 1
10
244.968818
20
-5.770704
11
244.371987
21
-4.082311
0
LINE
8
Layer 1
10
244.371987
20
-4.082311
11
243.336867
21
-2.419075
0
LINE
8
Layer 1
10
243.336867
20
-2.419075
11
241.864444
21
-0.753250
0
LINE
8
Layer 1
10
241.864444
20
-0.753250
11
240.580437
21
0.371414
0
LINE
8
Layer 1
10
240.580437
20
0.371414
11
239.081865
21
1.452970
0
LINE
8
Layer 1
10
239.081865
20
1.452970
11
237.554652
21
2.368478
0
LINE
8
Layer 1
10
237.554652
20
2.368478
11
236.184722
21
2.995000
0
LINE
8
Layer 1
10
236.184722
20
2.995000
11
233.203750
21
4.062139
0
LINE
8
Layer 1
10
233.203750
20
4.062139
11
228.608819
21
1.786750
0
LINE
8
Layer 1
10
228.608819
20
1.786750
11
226.137981
21
0.414331
0
LINE
8
Layer 1
10
226.137981
20
0.414331
11
223.843786
21
-1.216073
0
LINE
8
Layer 1
10
223.843786
20
-1.216073
11
221.427386
21
-3.342677
0
LINE
8
Layer 1
10
221.427386
20
-3.342677
11
218.589931
21
-6.203695
0
LINE
8
Layer 1
10
218.589931
20
-6.203695
11
214.340333
21
-10.303928
0
LINE
8
Layer 1
10
214.340333
20
-10.303928
11
212.824029
21
-11.485954
0
LINE
8
Layer 1
10
212.824029
20
-11.485954
11
211.922431
21
-11.909861
0
LINE
8
Layer 1
10
211.922431
20
-11.909861
11
209.058700
21
-11.560080
0
LINE
8
Layer 1
10
209.058700
20
-11.560080
11
205.533503
21
-10.722817
0
LINE
8
Layer 1
10
205.533503
20
-10.722817
11
202.481972
21
-9.716194
0
LINE
8
Layer 1
10
202.481972
20
-9.716194
11
201.488559
21
-9.248786
0
LINE
8
Layer 1
10
201.488559
20
-9.248786
11
201.039236
21
-8.858333
0
LINE
8
Layer 1
10
201.039236
20
-8.858333
11
200.947965
21
-8.235542
0
LINE
8
Layer 1
10
200.947965
20
-8.235542
11
201.064710
21
-7.436274
0
LINE
8
Layer 1
10
201.064710
20
-7.436274
11
201.843898
21
-5.412129
0
LINE
8
Layer 1
10
201.843898
20
-5.412129
11
203.220097
21
-2.993538
0
LINE
8
Layer 1
10
203.220097
20
-2.993538
11
205.036604
21
-0.388142
0
LINE
8
Layer 1
10
205.036604
20
-0.388142
11
207.136717
21
2.196419
0
LINE
8
Layer 1
10
207.136717
20
2.196419
11
209.363733
21
4.552506
0
LINE
8
Layer 1
10
209.363733
20
4.552506
11
211.560951
21
6.472477
0
LINE
8
Layer 1
10
211.560951
20
6.472477
11
213.571667
21
7.748695
0
LINE
8
Layer 1
10
213.571667
20
7.748695
11
215.882361
21
8.851111
0
LINE
8
Layer 1
10
215.882361
20
8.851111
11
214.330139
21
10.041750
0
LINE
8
Layer 1
10
214.330139
20
10.041750
11
212.666403
21
10.886942
0
LINE
8
Layer 1
10
212.666403
20
10.886942
11
211.718835
21
11.145309
0
LINE
8
Layer 1
10
211.718835
20
11.145309
11
210.846458
21
11.241195
0
LINE
8
Layer 1
10
210.846458
20
11.241195
11
209.030995
21
10.919573
0
LINE
8
Layer 1
10
209.030995
20
10.919573
11
206.894644
21
10.005095
0
LINE
8
Layer 1
10
206.894644
20
10.005095
11
204.540174
21
8.581694
0
LINE
8
Layer 1
10
204.540174
20
8.581694
11
202.070353
21
6.733301
0
LINE
8
Layer 1
10
202.070353
20
6.733301
11
199.587948
21
4.543851
0
LINE
8
Layer 1
10
199.587948
20
4.543851
11
197.195729
21
2.097274
0
LINE
8
Layer 1
10
197.195729
20
2.097274
11
194.996462
21
-0.522496
0
LINE
8
Layer 1
10
194.996462
20
-0.522496
11
193.092917
21
-3.231528
0
LINE
8
Layer 1
10
193.092917
20
-3.231528
11
190.974938
21
-6.179335
0
LINE
8
Layer 1
10
190.974938
20
-6.179335
11
190.133749
21
-7.074576
0
LINE
8
Layer 1
10
190.133749
20
-7.074576
11
189.591597
21
-7.403139
0
LINE
8
Layer 1
10
189.591597
20
-7.403139
11
188.582443
21
-7.102011
0
LINE
8
Layer 1
10
188.582443
20
-7.102011
11
187.419772
21
-6.279924
0
LINE
8
Layer 1
10
187.419772
20
-6.279924
11
186.192375
21
-5.058789
0
LINE
8
Layer 1
10
186.192375
20
-5.058789
11
184.989040
21
-3.560518
0
LINE
8
Layer 1
10
184.989040
20
-3.560518
11
183.898554
21
-1.907022
0
LINE
8
Layer 1
10
183.898554
20
-1.907022
11
183.009707
21
-0.220214
0
LINE
8
Layer 1
10
183.009707
20
-0.220214
11
182.411287
21
1.377996
0
LINE
8
Layer 1
10
182.411287
20
1.377996
11
182.192083
21
2.765694
0
LINE
8
Layer 1
10
182.192083
20
2.765694
11
181.982687
21
4.050045
0
LINE
8
Layer 1
10
181.982687
20
4.050045
11
181.744071
21
4.358632
0
LINE
8
Layer 1
10
181.744071
20
4.358632
11
181.436731
21
4.446201
0
LINE
8
Layer 1
10
181.436731
20
4.446201
11
181.076085
21
4.313785
0
LINE
8
Layer 1
10
181.076085
20
4.313785
11
180.677548
21
3.962415
0
LINE
8
Layer 1
10
180.677548
20
3.962415
11
179.828472
21
2.606944
0
LINE
8
Layer 1
10
179.828472
20
2.606944
11
179.027218
21
1.076014
0
LINE
8
Layer 1
10
179.027218
20
1.076014
11
178.439780
21
0.451049
0
LINE
8
Layer 1
10
178.439780
20
0.451049
11
178.183483
21
0.463146
0
LINE
8
Layer 1
10
178.183483
20
0.463146
11
177.929328
21
0.683545
0
LINE
8
Layer 1
10
177.929328
20
0.683545
11
177.359028
21
1.725000
0
LINE
8
Layer 1
10
177.359028
20
1.725000
11
176.616231
21
2.915130
0
LINE
8
Layer 1
10
176.616231
20
2.915130
11
176.239491
21
3.219202
0
LINE
8
Layer 1
10
176.239491
20
3.219202
11
175.874648
21
3.328731
0
LINE
8
Layer 1
10
175.874648
20
3.328731
11
175.533294
21
3.243306
0
LINE
8
Layer 1
10
175.533294
20
3.243306
11
175.227025
21
2.962516
0
LINE
8
Layer 1
10
175.227025
20
2.962516
11
174.766111
21
1.813194
0
LINE
8
Layer 1
10
174.766111
20
1.813194
11
174.089863
21
-0.587350
0
LINE
8
Layer 1
10
174.089863
20
-0.587350
11
173.169791
21
-3.055213
0
LINE
8
Layer 1
10
173.169791
20
-3.055213
11
172.243104
21
-5.020330
0
LINE
8
Layer 1
10
172.243104
20
-5.020330
11
171.547014
21
-5.912639
0
LINE
8
Layer 1
10
171.547014
20
-5.912639
11
171.160309
21
-5.709495
0
LINE
8
Layer 1
10
171.160309
20
-5.709495
11
170.561719
21
-5.006455
0
LINE
8
Layer 1
10
170.561719
20
-5.006455
11
169.059931
21
-2.543611
0
LINE
8
Layer 1
10
169.059931
20
-2.543611
11
168.136439
21
-0.986879
0
LINE
8
Layer 1
10
168.136439
20
-0.986879
11
167.000961
21
0.612448
0
LINE
8
Layer 1
10
167.000961
20
0.612448
11
165.796947
21
2.066906
0
LINE
8
Layer 1
10
165.796947
20
2.066906
11
164.667847
21
3.189028
0
LINE
8
Layer 1
10
164.667847
20
3.189028
11
162.481147
21
4.726455
0
LINE
8
Layer 1
10
162.481147
20
4.726455
11
159.770429
21
6.128853
0
LINE
8
Layer 1
10
159.770429
20
6.128853
11
156.751483
21
7.339071
0
LINE
8
Layer 1
10
156.751483
20
7.339071
11
153.640099
21
8.299956
0
LINE
8
Layer 1
10
153.640099
20
8.299956
11
150.652066
21
8.954357
0
LINE
8
Layer 1
10
150.652066
20
8.954357
11
148.003174
21
9.245122
0
LINE
8
Layer 1
10
148.003174
20
9.245122
11
145.909213
21
9.115100
0
LINE
8
Layer 1
10
145.909213
20
9.115100
11
145.137766
21
8.874434
0
LINE
8
Layer 1
10
145.137766
20
8.874434
11
144.585972
21
8.507139
0
LINE
8
Layer 1
10
144.585972
20
8.507139
11
143.657671
21
7.728837
0
LINE
8
Layer 1
10
143.657671
20
7.728837
11
142.822083
21
7.254806
0
LINE
8
Layer 1
10
142.822083
20
7.254806
11
142.401949
21
7.036290
0
LINE
8
Layer 1
10
142.401949
20
7.036290
11
142.260426
21
6.767446
0
LINE
8
Layer 1
10
142.260426
20
6.767446
11
142.377760
21
6.462289
0
LINE
8
Layer 1
10
142.377760
20
6.462289
11
142.734194
21
6.134835
0
LINE
8
Layer 1
10
142.734194
20
6.134835
11
144.085344
21
5.469098
0
LINE
8
Layer 1
10
144.085344
20
5.469098
11
146.155833
21
4.882361
0
LINE
8
Layer 1
10
146.155833
20
4.882361
11
149.067544
21
4.132927
0
LINE
8
Layer 1
10
149.067544
20
4.132927
11
151.738236
21
3.181140
0
LINE
8
Layer 1
10
151.738236
20
3.181140
11
154.195210
21
2.015019
0
LINE
8
Layer 1
10
154.195210
20
2.015019
11
156.465764
21
0.622584
0
LINE
8
Layer 1
10
156.465764
20
0.622584
11
158.680076
21
-1.334635
0
LINE
8
Layer 1
10
158.680076
20
-1.334635
11
161.030850
21
-3.992244
0
LINE
8
Layer 1
10
161.030850
20
-3.992244
11
162.838716
21
-6.505411
0
LINE
8
Layer 1
10
162.838716
20
-6.505411
11
163.326756
21
-7.443819
0
LINE
8
Layer 1
10
163.326756
20
-7.443819
11
163.424306
21
-8.029306
0
LINE
8
Layer 1
10
163.424306
20
-8.029306
11
162.907826
21
-8.035436
0
LINE
8
Layer 1
10
162.907826
20
-8.035436
11
161.663462
21
-7.571432
0
LINE
8
Layer 1
10
161.663462
20
-7.571432
11
157.735764
21
-5.559861
0
LINE
8
Layer 1
10
157.735764
20
-5.559861
11
154.438572
21
-3.811214
0
LINE
8
Layer 1
10
154.438572
20
-3.811214
11
151.144182
21
-2.319114
0
LINE
8
Layer 1
10
151.144182
20
-2.319114
11
147.863608
21
-1.086189
0
LINE
8
Layer 1
10
147.863608
20
-1.086189
11
144.607868
21
-0.115068
0
LINE
8
Layer 1
10
144.607868
20
-0.115068
11
141.387975
21
0.591621
0
LINE
8
Layer 1
10
141.387975
20
0.591621
11
138.214946
21
1.031248
0
LINE
8
Layer 1
10
138.214946
20
1.031248
11
135.099797
21
1.201186
0
LINE
8
Layer 1
10
135.099797
20
1.201186
11
132.053542
21
1.098805
0
LINE
8
Layer 1
10
132.053542
20
1.098805
11
130.088763
21
0.856703
0
LINE
8
Layer 1
10
130.088763
20
0.856703
11
128.601986
21
0.342496
0
LINE
8
Layer 1
10
128.601986
20
0.342496
11
127.127811
21
-0.688724
0
LINE
8
Layer 1
10
127.127811
20
-0.688724
11
125.200833
21
-2.481861
0
LINE
8
Layer 1
10
125.200833
20
-2.481861
11
123.519612
21
-4.251212
0
LINE
8
Layer 1
10
123.519612
20
-4.251212
11
122.287198
21
-5.882244
0
LINE
8
Layer 1
10
122.287198
20
-5.882244
11
121.376098
21
-7.570362
0
LINE
8
Layer 1
10
121.376098
20
-7.570362
11
120.658819
21
-9.510972
0
LINE
8
Layer 1
10
120.658819
20
-9.510972
11
120.028815
21
-11.647005
0
LINE
8
Layer 1
10
120.028815
20
-11.647005
11
119.830057
21
-12.942752
0
LINE
8
Layer 1
10
119.830057
20
-12.942752
11
120.069934
21
-13.865374
0
LINE
8
Layer 1
10
120.069934
20
-13.865374
11
120.755833
21
-14.882028
0
LINE
8
Layer 1
10
120.755833
20
-14.882028
11
122.487994
21
-16.531850
0
LINE
8
Layer 1
10
122.487994
20
-16.531850
11
124.900972
21
-18.154028
0
LINE
8
Layer 1
10
124.900972
20
-18.154028
11
127.793750
21
-19.750361
0
LINE
8
Layer 1
10
127.793750
20
-19.750361
11
113.665000
21
-19.353472
0
LINE
8
Layer 1
10
113.665000
20
-19.353472
11
103.617190
21
-19.003555
0
LINE
8
Layer 1
10
103.617190
20
-19.003555
11
99.298125
21
-18.718472
0
LINE
8
Layer 1
10
99.298125
20
-18.718472
11
99.977744
21
-17.960141
0
LINE
8
Layer 1
10
99.977744
20
-17.960141
11
101.952778
21
-16.478333
0
LINE
8
Layer 1
10
101.952778
20
-16.478333
11
104.118657
21
-14.704881
0
LINE
8
Layer 1
10
104.118657
20
-14.704881
11
104.868585
21
-13.881441
0
LINE
8
Layer 1
10
104.868585
20
-13.881441
11
105.251250
21
-13.241583
0
LINE
8
Layer 1
10
105.251250
20
-13.241583
11
105.311130
21
-12.528632
0
LINE
8
Layer 1
10
105.311130
20
-12.528632
11
105.186842
21
-11.454536
0
LINE
8
Layer 1
10
105.186842
20
-11.454536
11
104.484275
21
-8.555699
0
LINE
8
Layer 1
10
104.484275
20
-8.555699
11
103.340578
21
-5.210659
0
LINE
8
Layer 1
10
103.340578
20
-5.210659
11
101.952778
21
-2.085000
0
LINE
8
Layer 1
10
101.952778
20
-2.085000
11
101.121501
21
-0.720872
0
LINE
8
Layer 1
10
101.121501
20
-0.720872
11
99.929041
21
0.922938
0
LINE
8
Layer 1
10
99.929041
20
0.922938
11
96.969405
21
4.480547
0
LINE
8
Layer 1
10
96.969405
20
4.480547
11
94.091542
21
7.449723
0
LINE
8
Layer 1
10
94.091542
20
7.449723
11
93.001298
21
8.357991
0
LINE
8
Layer 1
10
93.001298
20
8.357991
11
92.313125
21
8.692361
0
LINE
8
Layer 1
10
92.313125
20
8.692361
11
90.908195
21
9.023507
0
LINE
8
Layer 1
10
90.908195
20
9.023507
11
88.949380
21
9.971554
0
LINE
8
Layer 1
10
88.949380
20
9.971554
11
86.557976
21
11.468422
0
LINE
8
Layer 1
10
86.557976
20
11.468422
11
83.855278
21
13.446028
0
LINE
8
Layer 1
10
83.855278
20
13.446028
11
81.699242
21
15.244922
0
LINE
8
Layer 1
10
81.699242
20
15.244922
11
80.657257
21
16.413680
0
LINE
8
Layer 1
10
80.657257
20
16.413680
11
80.554688
21
16.760942
0
LINE
8
Layer 1
10
80.554688
20
16.760942
11
80.731418
21
16.949692
0
LINE
8
Layer 1
10
80.731418
20
16.949692
11
81.923819
21
16.850347
0
LINE
8
Layer 1
10
81.923819
20
16.850347
11
86.430556
21
16.065417
0
LINE
8
Layer 1
10
86.430556
20
16.065417
11
89.490903
21
15.624444
0
LINE
8
Layer 1
10
89.490903
20
15.624444
11
89.490903
21
17.626458
0
LINE
8
Layer 1
10
89.490903
20
17.626458
11
89.347956
21
19.055276
0
LINE
8
Layer 1
10
89.347956
20
19.055276
11
89.193661
21
19.499279
0
LINE
8
Layer 1
10
89.193661
20
19.499279
11
89.005833
21
19.672569
0
LINE
8
Layer 1
10
89.005833
20
19.672569
11
84.740251
21
20.168318
0
LINE
8
Layer 1
10
84.740251
20
20.168318
11
81.006597
21
20.951389
0
LINE
8
Layer 1
10
81.006597
20
20.951389
11
78.263750
21
21.692222
0
LINE
8
Layer 1
10
78.263750
20
21.692222
11
80.318681
21
22.556528
0
LINE
8
Layer 1
10
80.318681
20
22.556528
11
81.262669
21
23.064648
0
LINE
8
Layer 1
10
81.262669
20
23.064648
11
82.139107
21
23.752601
0
LINE
8
Layer 1
10
82.139107
20
23.752601
11
82.930069
21
24.591591
0
LINE
8
Layer 1
10
82.930069
20
24.591591
11
83.617629
21
25.552822
0
LINE
8
Layer 1
10
83.617629
20
25.552822
11
84.183863
21
26.607498
0
LINE
8
Layer 1
10
84.183863
20
26.607498
11
84.610844
21
27.726823
0
LINE
8
Layer 1
10
84.610844
20
27.726823
11
84.880647
21
28.882001
0
LINE
8
Layer 1
10
84.880647
20
28.882001
11
84.975347
21
30.044236
0
LINE
8
Layer 1
10
84.975347
20
30.044236
11
84.821928
21
31.686310
0
LINE
8
Layer 1
10
84.821928
20
31.686310
11
84.351712
21
32.923427
0
LINE
8
Layer 1
10
84.351712
20
32.923427
11
83.555397
21
33.757030
0
LINE
8
Layer 1
10
83.555397
20
33.757030
11
82.423681
21
34.188559
0
LINE
8
Layer 1
10
82.423681
20
34.188559
11
80.947259
21
34.219457
0
LINE
8
Layer 1
10
80.947259
20
34.219457
11
79.116830
21
33.851165
0
LINE
8
Layer 1
10
79.116830
20
33.851165
11
76.923090
21
33.085125
0
LINE
8
Layer 1
10
76.923090
20
33.085125
11
74.356736
21
31.922778
0
LINE
8
Layer 1
10
74.356736
20
31.922778
11
70.899278
21
30.452344
0
LINE
8
Layer 1
10
70.899278
20
30.452344
11
67.772746
21
29.657324
0
LINE
8
Layer 1
10
67.772746
20
29.657324
11
66.279126
21
29.505110
0
LINE
8
Layer 1
10
66.279126
20
29.505110
11
64.802896
21
29.512167
0
LINE
8
Layer 1
10
64.802896
20
29.512167
11
61.815486
21
29.991319
0
LINE
8
Layer 1
10
61.815486
20
29.991319
11
60.226677
21
30.320759
0
LINE
8
Layer 1
10
60.226677
20
30.320759
11
58.752180
21
30.467408
0
LINE
8
Layer 1
10
58.752180
20
30.467408
11
57.398021
21
30.432762
0
LINE
8
Layer 1
10
57.398021
20
30.432762
11
56.170229
21
30.218316
0
LINE
8
Layer 1
10
56.170229
20
30.218316
11
55.074830
21
29.825564
0
LINE
8
Layer 1
10
55.074830
20
29.825564
11
54.117851
21
29.256003
0
LINE
8
Layer 1
10
54.117851
20
29.256003
11
53.305320
21
28.511127
0
LINE
8
Layer 1
10
53.305320
20
28.511127
11
52.643264
21
27.592431
0
LINE
8
Layer 1
10
52.643264
20
27.592431
11
52.023329
21
26.407459
0
LINE
8
Layer 1
10
52.023329
20
26.407459
11
51.797627
21
25.429155
0
LINE
8
Layer 1
10
51.797627
20
25.429155
11
51.952851
21
24.286742
0
LINE
8
Layer 1
10
51.952851
20
24.286742
11
52.475694
21
22.609444
0
LINE
8
Layer 1
10
52.475694
20
22.609444
11
52.966227
21
21.011515
0
LINE
8
Layer 1
10
52.966227
20
21.011515
11
53.146299
21
19.861596
0
LINE
8
Layer 1
10
53.146299
20
19.861596
11
53.021937
21
18.901591
0
LINE
8
Layer 1
10
53.021937
20
18.901591
11
52.599167
21
17.873403
0
LINE
8
Layer 1
10
52.599167
20
17.873403
11
51.537324
21
15.047385
0
LINE
8
Layer 1
10
51.537324
20
15.047385
11
50.226736
21
10.756111
0
LINE
8
Layer 1
10
50.226736
20
10.756111
11
48.977838
21
7.056901
0
LINE
8
Layer 1
10
48.977838
20
7.056901
11
48.444028
21
5.983273
0
LINE
8
Layer 1
10
48.444028
20
5.983273
11
48.065972
21
5.649639
0
LINE
8
Layer 1
10
48.065972
20
5.649639
11
47.204849
21
6.329110
0
LINE
8
Layer 1
10
47.204849
20
6.329110
11
46.072778
21
7.651667
0
LINE
8
Layer 1
10
46.072778
20
7.651667
11
45.385445
21
8.809500
0
LINE
8
Layer 1
10
45.385445
20
8.809500
11
44.980910
21
10.289208
0
LINE
8
Layer 1
10
44.980910
20
10.289208
11
44.789376
21
12.533739
0
LINE
8
Layer 1
10
44.789376
20
12.533739
11
44.741042
21
15.986042
0
LINE
8
Layer 1
10
44.741042
20
15.986042
11
44.715904
21
19.763835
0
LINE
8
Layer 1
10
44.715904
20
19.763835
11
44.541717
21
21.707200
0
LINE
8
Layer 1
10
44.541717
20
21.707200
11
44.352429
21
22.181552
0
LINE
8
Layer 1
10
44.352429
20
22.181552
11
44.070317
21
22.425993
0
LINE
8
Layer 1
10
44.070317
20
22.425993
11
43.153542
21
22.530069
0
LINE
8
Layer 1
10
43.153542
20
22.530069
11
42.340539
21
22.429420
0
LINE
8
Layer 1
10
42.340539
20
22.429420
11
41.751664
21
22.069117
0
LINE
8
Layer 1
10
41.751664
20
22.069117
11
41.301488
21
21.361617
0
LINE
8
Layer 1
10
41.301488
20
21.361617
11
40.904583
21
20.219375
0
LINE
8
Layer 1
10
40.904583
20
20.219375
11
39.953506
21
17.940914
0
LINE
8
Layer 1
10
39.953506
20
17.940914
11
38.602708
21
15.712639
0
LINE
8
Layer 1
10
38.602708
20
15.712639
11
36.871532
21
13.279700
0
LINE
8
Layer 1
10
36.871532
20
13.279700
11
35.670872
21
11.269586
0
LINE
8
Layer 1
10
35.670872
20
11.269586
11
34.811652
21
9.322443
0
LINE
8
Layer 1
10
34.811652
20
9.322443
11
34.104792
21
7.078417
0
LINE
8
Layer 1
10
34.104792
20
7.078417
11
33.670968
21
5.165376
0
LINE
8
Layer 1
10
33.670968
20
5.165376
11
33.383675
21
3.133372
0
LINE
8
Layer 1
10
33.383675
20
3.133372
11
33.242577
21
-1.106112
0
LINE
8
Layer 1
10
33.242577
20
-1.106112
11
33.669288
21
-5.277207
0
LINE
8
Layer 1
10
33.669288
20
-5.277207
11
34.091756
21
-7.223724
0
LINE
8
Layer 1
10
34.091756
20
-7.223724
11
34.651597
21
-9.017083
0
LINE
8
Layer 1
10
34.651597
20
-9.017083
11
35.775184
21
-12.747895
0
LINE
8
Layer 1
10
35.775184
20
-12.747895
11
36.477222
21
-16.293139
0
LINE
8
Layer 1
10
36.477222
20
-16.293139
11
36.882917
21
-19.706250
0
LINE
8
Layer 1
10
36.882917
20
-19.706250
11
10.574514
21
-19.582778
0
LINE
8
Layer 1
10
10.574514
20
-19.582778
11
-8.456523
21
-19.369139
0
LINE
8
Layer 1
10
-8.456523
20
-19.369139
11
-17.277292
21
-19.035972
0
LINE
8
Layer 1
10
-17.277292
20
-19.035972
11
-18.052167
21
-18.742641
0
LINE
8
Layer 1
10
-18.052167
20
-18.742641
11
-18.167327
21
-18.549986
0
LINE
8
Layer 1
10
-18.167327
20
-18.549986
11
-18.074075
21
-18.285653
0
LINE
8
Layer 1
10
-18.074075
20
-18.285653
11
-17.181654
21
-17.418893
0
LINE
8
Layer 1
10
-17.181654
20
-17.418893
11
-15.213542
21
-15.896250
0
LINE
8
Layer 1
10
-15.213542
20
-15.896250
11
-12.351738
21
-13.849031
0
LINE
8
Layer 1
10
-12.351738
20
-13.849031
11
-10.556875
21
-12.765361
0
LINE
8
Layer 1
10
-10.556875
20
-12.765361
11
-10.045284
21
-12.603957
0
LINE
8
Layer 1
10
-10.045284
20
-12.603957
11
-9.854605
21
-12.675946
0
LINE
8
Layer 1
10
-9.854605
20
-12.675946
11
-10.389306
21
-13.744306
0
LINE
8
Layer 1
10
-10.389306
20
-13.744306
11
-10.792846
21
-14.492814
0
LINE
8
Layer 1
10
-10.792846
20
-14.492814
11
-10.895557
21
-15.064675
0
LINE
8
Layer 1
10
-10.895557
20
-15.064675
11
-10.685611
21
-15.591505
0
LINE
8
Layer 1
10
-10.685611
20
-15.591505
11
-10.151181
21
-16.204916
0
LINE
8
Layer 1
10
-10.151181
20
-16.204916
11
-9.670468
21
-16.597882
0
LINE
8
Layer 1
10
-9.670468
20
-16.597882
11
-9.143980
21
-16.819063
0
LINE
8
Layer 1
10
-9.143980
20
-16.819063
11
-8.523899
21
-16.853171
0
LINE
8
Layer 1
10
-8.523899
20
-16.853171
11
-7.762408
21
-16.684920
0
LINE
8
Layer 1
10
-7.762408
20
-16.684920
11
-5.623920
21
-15.680192
0
LINE
8
Layer 1
10
-5.623920
20
-15.680192
11
-2.345972
21
-13.682584
0
LINE
8
Layer 1
10
-2.345972
20
-13.682584
11
0.776111
21
-11.689361
0
LINE
8
Layer 1
10
0.776111
20
-11.689361
11
0.388056
21
-8.708417
0
LINE
8
Layer 1
10
0.388056
20
-8.708417
11
0.239942
21
-7.010153
0
LINE
8
Layer 1
10
0.239942
20
-7.010153
11
0.417605
21
-5.691631
0
LINE
8
Layer 1
10
0.417605
20
-5.691631
11
1.047923
21
-4.340300
0
LINE
8
Layer 1
10
1.047923
20
-4.340300
11
2.257778
21
-2.543611
0
LINE
8
Layer 1
10
2.257778
20
-2.543611
11
3.682448
21
-0.241928
0
LINE
8
Layer 1
10
3.682448
20
-0.241928
11
4.830455
21
2.245460
0
LINE
8
Layer 1
10
4.830455
20
2.245460
11
5.688421
21
4.832501
0
LINE
8
Layer 1
10
5.688421
20
4.832501
11
6.242967
21
7.433140
0
LINE
8
Layer 1
10
6.242967
20
7.433140
11
6.480714
21
9.961326
0
LINE
8
Layer 1
10
6.480714
20
9.961326
11
6.388284
21
12.331004
0
LINE
8
Layer 1
10
6.388284
20
12.331004
11
5.952297
21
14.456121
0
LINE
8
Layer 1
10
5.952297
20
14.456121
11
5.159375
21
16.250625
0
LINE
8
Layer 1
10
5.159375
20
16.250625
11
4.441320
21
17.322329
0
LINE
8
Layer 1
10
4.441320
20
17.322329
11
3.819166
21
18.015665
0
LINE
8
Layer 1
10
3.819166
20
18.015665
11
3.287066
21
18.326556
0
LINE
8
Layer 1
10
3.287066
20
18.326556
11
2.839172
21
18.250926
0
LINE
8
Layer 1
10
2.839172
20
18.250926
11
2.469637
21
17.784698
0
LINE
8
Layer 1
10
2.469637
20
17.784698
11
2.172613
21
16.923796
0
LINE
8
Layer 1
10
2.172613
20
16.923796
11
1.772708
21
14.001667
0
LINE
8
Layer 1
10
1.772708
20
14.001667
11
1.257607
21
10.562990
0
LINE
8
Layer 1
10
1.257607
20
10.562990
11
0.394840
21
7.195324
0
LINE
8
Layer 1
10
0.394840
20
7.195324
11
-0.504392
21
4.900295
0
LINE
8
Layer 1
10
-0.504392
20
4.900295
11
-0.870432
21
4.468027
0
LINE
8
Layer 1
10
-0.870432
20
4.468027
11
-1.015540
21
4.485481
0
LINE
8
Layer 1
10
-1.015540
20
4.485481
11
-1.128889
21
4.679528
0
LINE
8
Layer 1
10
-1.128889
20
4.679528
11
-0.990828
21
6.750161
0
LINE
8
Layer 1
10
-0.990828
20
6.750161
11
-0.308681
21
10.676750
0
LINE
8
Layer 1
10
-0.308681
20
10.676750
11
0.328998
21
15.000151
0
LINE
8
Layer 1
10
0.328998
20
15.000151
11
0.431707
21
16.797785
0
LINE
8
Layer 1
10
0.431707
20
16.797785
11
0.361597
21
18.032153
0
LINE
8
Layer 1
10
0.361597
20
18.032153
11
0.215044
21
19.209716
0
LINE
8
Layer 1
10
0.215044
20
19.209716
11
0.395808
21
20.035204
0
LINE
8
Layer 1
10
0.395808
20
20.035204
11
1.029102
21
20.741110
0
LINE
8
Layer 1
10
1.029102
20
20.741110
11
2.240139
21
21.559931
0
LINE
8
Layer 1
10
2.240139
20
21.559931
11
3.749912
21
22.631606
0
LINE
8
Layer 1
10
3.749912
20
22.631606
11
4.851128
21
23.730406
0
LINE
8
Layer 1
10
4.851128
20
23.730406
11
5.543881
21
24.860077
0
LINE
8
Layer 1
10
5.543881
20
24.860077
11
5.828264
21
26.024363
0
LINE
8
Layer 1
10
5.828264
20
26.024363
11
5.704370
21
27.227010
0
LINE
8
Layer 1
10
5.704370
20
27.227010
11
5.172293
21
28.471763
0
LINE
8
Layer 1
10
5.172293
20
28.471763
11
4.232124
21
29.762368
0
LINE
8
Layer 1
10
4.232124
20
29.762368
11
2.883958
21
31.102569
0
LINE
8
Layer 1
10
2.883958
20
31.102569
11
0.307879
21
33.041043
0
LINE
8
Layer 1
10
0.307879
20
33.041043
11
-0.878174
21
33.730077
0
LINE
8
Layer 1
10
-0.878174
20
33.730077
11
-1.790347
21
34.101181
0
LINE
8
Layer 1
10
-1.790347
20
34.101181
11
-4.118776
21
34.961966
0
LINE
8
Layer 1
10
-4.118776
20
34.961966
11
-7.258403
21
36.420694
0
LINE
8
Layer 1
10
-7.258403
20
36.420694
11
-10.164571
21
37.748605
0
LINE
8
Layer 1
10
-10.164571
20
37.748605
11
-11.923889
21
38.299236
0
LINE
8
Layer 1
10
-11.923889
20
38.299236
11
-12.514183
21
38.471239
0
LINE
8
Layer 1
10
-12.514183
20
38.471239
11
-13.425920
21
38.939449
0
LINE
8
Layer 1
10
-13.425920
20
38.939449
11
-15.716250
21
40.477639
0
LINE
8
Layer 1
10
-15.716250
20
40.477639
11
-17.930423
21
41.889163
0
LINE
8
Layer 1
10
-17.930423
20
41.889163
11
-20.336109
21
42.956814
0
LINE
8
Layer 1
10
-20.336109
20
42.956814
11
-22.722715
21
43.620520
0
LINE
8
Layer 1
10
-22.722715
20
43.620520
11
-24.879653
21
43.820208
0
LINE
8
Layer 1
10
-24.879653
20
43.820208
11
-24.879653
21
43.820208
0
LINE
8
Layer 1
10
-24.279931
20
38.898958
11
-23.935972
21
38.898958
0
LINE
8
Layer 1
10
-23.935972
20
38.898958
11
-22.049471
21
38.717372
0
LINE
8
Layer 1
10
-22.049471
20
38.717372
11
-19.870208
21
38.202222
0
LINE
8
Layer 1
10
-19.870208
20
38.202222
11
-18.187289
21
37.620122
0
LINE
8
Layer 1
10
-18.187289
20
37.620122
11
-17.732318
21
37.366706
0
LINE
8
Layer 1
10
-17.732318
20
37.366706
11
-17.528574
21
37.118899
0
LINE
8
Layer 1
10
-17.528574
20
37.118899
11
-17.571231
21
36.862089
0
LINE
8
Layer 1
10
-17.571231
20
36.862089
11
-17.855467
21
36.581664
0
LINE
8
Layer 1
10
-17.855467
20
36.581664
11
-19.129375
21
35.891528
0
LINE
8
Layer 1
10
-19.129375
20
35.891528
11
-20.331728
21
35.470991
0
LINE
8
Layer 1
10
-20.331728
20
35.470991
11
-21.632713
21
35.246514
0
LINE
8
Layer 1
10
-21.632713
20
35.246514
11
-22.952517
21
35.204398
0
LINE
8
Layer 1
10
-22.952517
20
35.204398
11
-24.211329
21
35.330942
0
LINE
8
Layer 1
10
-24.211329
20
35.330942
11
-25.329337
21
35.612447
0
LINE
8
Layer 1
10
-25.329337
20
35.612447
11
-26.226729
21
36.035212
0
LINE
8
Layer 1
10
-26.226729
20
36.035212
11
-26.823693
21
36.585537
0
LINE
8
Layer 1
10
-26.823693
20
36.585537
11
-27.040417
21
37.249722
0
LINE
8
Layer 1
10
-27.040417
20
37.249722
11
-26.847925
21
37.937273
0
LINE
8
Layer 1
10
-26.847925
20
37.937273
11
-26.297066
21
38.444570
0
LINE
8
Layer 1
10
-26.297066
20
38.444570
11
-25.427761
21
38.766752
0
LINE
8
Layer 1
10
-25.427761
20
38.766752
11
-24.279931
21
38.898958
0
LINE
8
Layer 1
10
-24.279931
20
38.898958
11
-24.279931
21
38.898958
0
LINE
8
Layer 1
10
156.994931
20
34.436319
11
156.626238
21
34.353998
0
LINE
8
Layer 1
10
156.626238
20
34.353998
11
156.342561
21
34.121399
0
LINE
8
Layer 1
10
156.342561
20
34.121399
11
156.040037
21
33.291530
0
LINE
8
Layer 1
10
156.040037
20
33.291530
11
156.106922
21
32.119039
0
LINE
8
Layer 1
10
156.106922
20
32.119039
11
156.562778
21
30.776250
0
LINE
8
Layer 1
10
156.562778
20
30.776250
11
157.077562
21
29.904935
0
LINE
8
Layer 1
10
157.077562
20
29.904935
11
157.677929
21
29.338928
0
LINE
8
Layer 1
10
157.677929
20
29.338928
11
158.446120
21
29.024152
0
LINE
8
Layer 1
10
158.446120
20
29.024152
11
159.464375
21
28.906528
0
LINE
8
Layer 1
10
159.464375
20
28.906528
11
161.208011
21
28.547895
0
LINE
8
Layer 1
10
161.208011
20
28.547895
11
161.979635
21
28.195526
0
LINE
8
Layer 1
10
161.979635
20
28.195526
11
162.551181
21
27.777639
0
LINE
8
Layer 1
10
162.551181
20
27.777639
11
163.524459
21
27.032963
0
LINE
8
Layer 1
10
163.524459
20
27.032963
11
164.563939
21
26.768430
0
LINE
8
Layer 1
10
164.563939
20
26.768430
11
165.805304
21
26.982044
0
LINE
8
Layer 1
10
165.805304
20
26.982044
11
167.384236
21
27.671806
0
LINE
8
Layer 1
10
167.384236
20
27.671806
11
168.985998
21
28.240103
0
LINE
8
Layer 1
10
168.985998
20
28.240103
11
169.699899
21
28.326175
0
LINE
8
Layer 1
10
169.699899
20
28.326175
11
170.232917
21
28.253889
0
LINE
8
Layer 1
10
170.232917
20
28.253889
11
171.501223
21
28.179038
0
LINE
8
Layer 1
10
171.501223
20
28.179038
11
173.143333
21
28.536111
0
LINE
8
Layer 1
10
173.143333
20
28.536111
11
174.219580
21
28.855223
0
LINE
8
Layer 1
10
174.219580
20
28.855223
11
174.876320
21
28.788953
0
LINE
8
Layer 1
10
174.876320
20
28.788953
11
175.321411
21
28.219231
0
LINE
8
Layer 1
10
175.321411
20
28.219231
11
175.762708
21
27.027986
0
LINE
8
Layer 1
10
175.762708
20
27.027986
11
176.492472
21
25.406583
0
LINE
8
Layer 1
10
176.492472
20
25.406583
11
176.889829
21
24.841963
0
LINE
8
Layer 1
10
176.889829
20
24.841963
11
177.244375
21
24.549722
0
LINE
8
Layer 1
10
177.244375
20
24.549722
11
178.312640
21
24.262108
0
LINE
8
Layer 1
10
178.312640
20
24.262108
11
179.451026
21
24.218002
0
LINE
8
Layer 1
10
179.451026
20
24.218002
11
180.590723
21
24.412517
0
LINE
8
Layer 1
10
180.590723
20
24.412517
11
181.662917
21
24.840764
0
LINE
8
Layer 1
10
181.662917
20
24.840764
11
182.838428
21
25.222307
0
LINE
8
Layer 1
10
182.838428
20
25.222307
11
183.286050
21
25.126922
0
LINE
8
Layer 1
10
183.286050
20
25.126922
11
183.682569
21
24.840764
0
LINE
8
Layer 1
10
183.682569
20
24.840764
11
184.125329
21
24.538150
0
LINE
8
Layer 1
10
184.125329
20
24.538150
11
184.730852
21
24.325273
0
LINE
8
Layer 1
10
184.730852
20
24.325273
11
186.265542
21
24.166588
0
LINE
8
Layer 1
10
186.265542
20
24.166588
11
187.957339
21
24.360426
0
LINE
8
Layer 1
10
187.957339
20
24.360426
11
189.476944
21
24.902500
0
LINE
8
Layer 1
10
189.476944
20
24.902500
11
191.110328
21
25.396805
0
LINE
8
Layer 1
10
191.110328
20
25.396805
11
193.057639
21
25.519861
0
LINE
8
Layer 1
10
193.057639
20
25.519861
11
195.290853
21
25.622246
0
LINE
8
Layer 1
10
195.290853
20
25.622246
11
197.435225
21
26.141380
0
LINE
8
Layer 1
10
197.435225
20
26.141380
11
199.183356
21
26.971525
0
LINE
8
Layer 1
10
199.183356
20
26.971525
11
199.812769
21
27.470184
0
LINE
8
Layer 1
10
199.812769
20
27.470184
11
200.227847
21
28.006944
0
LINE
8
Layer 1
10
200.227847
20
28.006944
11
200.643858
21
28.917490
0
LINE
8
Layer 1
10
200.643858
20
28.917490
11
200.833309
21
29.638806
0
LINE
8
Layer 1
10
200.833309
20
29.638806
11
200.815402
21
30.158266
0
LINE
8
Layer 1
10
200.815402
20
30.158266
11
200.609339
21
30.463243
0
LINE
8
Layer 1
10
200.609339
20
30.463243
11
200.234322
21
30.541108
0
LINE
8
Layer 1
10
200.234322
20
30.541108
11
199.709553
21
30.379235
0
LINE
8
Layer 1
10
199.709553
20
30.379235
11
198.287569
21
29.285764
0
LINE
8
Layer 1
10
198.287569
20
29.285764
11
196.998829
21
28.402982
0
LINE
8
Layer 1
10
196.998829
20
28.402982
11
195.563657
21
28.047160
0
LINE
8
Layer 1
10
195.563657
20
28.047160
11
194.202803
21
28.231265
0
LINE
8
Layer 1
10
194.202803
20
28.231265
11
193.619228
21
28.529843
0
LINE
8
Layer 1
10
193.619228
20
28.529843
11
193.137014
21
28.968264
0
LINE
8
Layer 1
10
193.137014
20
28.968264
11
192.394553
21
29.687260
0
LINE
8
Layer 1
10
192.394553
20
29.687260
11
191.689229
21
29.841876
0
LINE
8
Layer 1
10
191.689229
20
29.841876
11
190.839083
21
29.398731
0
LINE
8
Layer 1
10
190.839083
20
29.398731
11
189.662153
21
28.324444
0
LINE
8
Layer 1
10
189.662153
20
28.324444
11
188.209608
21
27.191589
0
LINE
8
Layer 1
10
188.209608
20
27.191589
11
187.520508
21
26.898386
0
LINE
8
Layer 1
10
187.520508
20
26.898386
11
186.859528
21
26.787369
0
LINE
8
Layer 1
10
186.859528
20
26.787369
11
186.229171
21
26.858564
0
LINE
8
Layer 1
10
186.229171
20
26.858564
11
185.631941
21
27.111999
0
LINE
8
Layer 1
10
185.631941
20
27.111999
11
185.070341
21
27.547700
0
LINE
8
Layer 1
10
185.070341
20
27.547700
11
184.546875
21
28.165694
0
LINE
8
Layer 1
10
184.546875
20
28.165694
11
183.965787
21
28.929191
0
LINE
8
Layer 1
10
183.965787
20
28.929191
11
183.569666
21
29.220303
0
LINE
8
Layer 1
10
183.569666
20
29.220303
11
183.232202
21
29.063486
0
LINE
8
Layer 1
10
183.232202
20
29.063486
11
182.827083
21
28.483194
0
LINE
8
Layer 1
10
182.827083
20
28.483194
11
182.367968
21
27.975703
0
LINE
8
Layer 1
10
182.367968
20
27.975703
11
181.744963
21
27.620451
0
LINE
8
Layer 1
10
181.744963
20
27.620451
11
181.014256
21
27.416021
0
LINE
8
Layer 1
10
181.014256
20
27.416021
11
180.232037
21
27.360998
0
LINE
8
Layer 1
10
180.232037
20
27.360998
11
179.454493
21
27.453968
0
LINE
8
Layer 1
10
179.454493
20
27.453968
11
178.737814
21
27.693512
0
LINE
8
Layer 1
10
178.737814
20
27.693512
11
178.138189
21
28.078217
0
LINE
8
Layer 1
10
178.138189
20
28.078217
11
177.711806
21
28.606667
0
LINE
8
Layer 1
10
177.711806
20
28.606667
11
177.239205
21
29.876845
0
LINE
8
Layer 1
10
177.239205
20
29.876845
11
177.041528
21
31.181944
0
LINE
8
Layer 1
10
177.041528
20
31.181944
11
176.801305
21
32.088840
0
LINE
8
Layer 1
10
176.801305
20
32.088840
11
176.530755
21
32.345016
0
LINE
8
Layer 1
10
176.530755
20
32.345016
11
176.186332
21
32.466023
0
LINE
8
Layer 1
10
176.186332
20
32.466023
11
175.355138
21
32.291566
0
LINE
8
Layer 1
10
175.355138
20
32.291566
11
174.466250
21
31.543542
0
LINE
8
Layer 1
10
174.466250
20
31.543542
11
173.598511
21
30.830529
0
LINE
8
Layer 1
10
173.598511
20
30.830529
11
172.655767
21
30.621605
0
LINE
8
Layer 1
10
172.655767
20
30.621605
11
171.723090
21
30.913337
0
LINE
8
Layer 1
10
171.723090
20
30.913337
11
170.885556
21
31.702292
0
LINE
8
Layer 1
10
170.885556
20
31.702292
11
170.384054
21
32.276551
0
LINE
8
Layer 1
10
170.384054
20
32.276551
11
169.903355
21
32.392668
0
LINE
8
Layer 1
10
169.903355
20
32.392668
11
169.243478
21
32.002642
0
LINE
8
Layer 1
10
169.243478
20
32.002642
11
168.204444
21
31.058472
0
LINE
8
Layer 1
10
168.204444
20
31.058472
11
166.744019
21
29.817026
0
LINE
8
Layer 1
10
166.744019
20
29.817026
11
166.168119
21
29.504090
0
LINE
8
Layer 1
10
166.168119
20
29.504090
11
165.652588
21
29.395954
0
LINE
8
Layer 1
10
165.652588
20
29.395954
11
165.165548
21
29.492326
0
LINE
8
Layer 1
10
165.165548
20
29.492326
11
164.675122
21
29.792913
0
LINE
8
Layer 1
10
164.675122
20
29.792913
11
163.556597
21
31.005556
0
LINE
8
Layer 1
10
163.556597
20
31.005556
11
162.872156
21
31.792614
0
LINE
8
Layer 1
10
162.872156
20
31.792614
11
162.331101
21
32.199558
0
LINE
8
Layer 1
10
162.331101
20
32.199558
11
161.875832
21
32.252035
0
LINE
8
Layer 1
10
161.875832
20
32.252035
11
161.448750
21
31.975694
0
LINE
8
Layer 1
10
161.448750
20
31.975694
11
160.425152
21
31.321895
0
LINE
8
Layer 1
10
160.425152
20
31.321895
11
159.401589
21
31.273316
0
LINE
8
Layer 1
10
159.401589
20
31.273316
11
158.940271
21
31.463435
0
LINE
8
Layer 1
10
158.940271
20
31.463435
11
158.539505
21
31.789799
0
LINE
8
Layer 1
10
158.539505
20
31.789799
11
158.219470
21
32.247387
0
LINE
8
Layer 1
10
158.219470
20
32.247387
11
158.000347
21
32.831181
0
LINE
8
Layer 1
10
158.000347
20
32.831181
11
157.536876
21
33.965711
0
LINE
8
Layer 1
10
157.536876
20
33.965711
11
157.258657
21
34.310003
0
LINE
8
Layer 1
10
157.258657
20
34.310003
11
156.994931
21
34.436319
0
LINE
8
Layer 1
10
156.994931
20
34.436319
11
156.994931
21
34.436319
0
LINE
8
Layer 1
10
-5.503333
20
30.555764
11
-3.944691
21
30.399937
0
LINE
8
Layer 1
10
-3.944691
20
30.399937
11
-2.010833
21
29.867847
0
LINE
8
Layer 1
10
-2.010833
20
29.867847
11
-0.391648
21
29.037553
0
LINE
8
Layer 1
10
-0.391648
20
29.037553
11
0.651167
21
27.960154
0
LINE
8
Layer 1
10
0.651167
20
27.960154
11
0.925252
21
27.378871
0
LINE
8
Layer 1
10
0.925252
20
27.378871
11
1.017825
21
26.795908
0
LINE
8
Layer 1
10
1.017825
20
26.795908
11
0.916413
21
26.231297
0
LINE
8
Layer 1
10
0.916413
20
26.231297
11
0.608542
21
25.705069
0
LINE
8
Layer 1
10
0.608542
20
25.705069
11
0.019474
21
25.197777
0
LINE
8
Layer 1
10
0.019474
20
25.197777
11
-0.718043
21
24.881473
0
LINE
8
Layer 1
10
-0.718043
20
24.881473
11
-1.565011
21
24.750458
0
LINE
8
Layer 1
10
-1.565011
20
24.750458
11
-2.482428
21
24.799032
0
LINE
8
Layer 1
10
-2.482428
20
24.799032
11
-3.431295
21
25.021494
0
LINE
8
Layer 1
10
-3.431295
20
25.021494
11
-4.372612
21
25.412144
0
LINE
8
Layer 1
10
-4.372612
20
25.412144
11
-5.267380
21
25.965282
0
LINE
8
Layer 1
10
-5.267380
20
25.965282
11
-6.076597
21
26.675208
0
LINE
8
Layer 1
10
-6.076597
20
26.675208
11
-6.784519
21
27.506499
0
LINE
8
Layer 1
10
-6.784519
20
27.506499
11
-7.248779
21
28.255426
0
LINE
8
Layer 1
10
-7.248779
20
28.255426
11
-7.479840
21
28.913709
0
LINE
8
Layer 1
10
-7.479840
20
28.913709
11
-7.488165
21
29.473073
0
LINE
8
Layer 1
10
-7.488165
20
29.473073
11
-7.284214
21
29.925238
0
LINE
8
Layer 1
10
-7.284214
20
29.925238
11
-6.878450
21
30.261926
0
LINE
8
Layer 1
10
-6.878450
20
30.261926
11
-6.281336
21
30.474861
0
LINE
8
Layer 1
10
-6.281336
20
30.474861
11
-5.503333
21
30.555764
0
LINE
8
Layer 1
10
-5.503333
20
30.555764
11
-5.503333
21
30.555764
0
LINE
8
Layer 1
10
79.666042
20
29.700278
11
80.076673
21
29.647138
0
LINE
8
Layer 1
10
80.076673
20
29.647138
11
80.348429
21
29.473082
0
LINE
8
Layer 1
10
80.348429
20
29.473082
11
80.481062
21
29.199227
0
LINE
8
Layer 1
10
80.481062
20
29.199227
11
80.474323
21
28.846691
0
LINE
8
Layer 1
10
80.474323
20
28.846691
11
80.041736
21
27.990045
0
LINE
8
Layer 1
10
80.041736
20
27.990045
11
79.048681
21
27.072083
0
LINE
8
Layer 1
10
79.048681
20
27.072083
11
77.695709
21
26.406831
0
LINE
8
Layer 1
10
77.695709
20
26.406831
11
76.269564
21
26.102547
0
LINE
8
Layer 1
10
76.269564
20
26.102547
11
75.141570
21
26.190427
0
LINE
8
Layer 1
10
75.141570
20
26.190427
11
74.805420
21
26.391178
0
LINE
8
Layer 1
10
74.805420
20
26.391178
11
74.683056
21
26.701667
0
LINE
8
Layer 1
10
74.683056
20
26.701667
11
75.075920
21
27.381524
0
LINE
8
Layer 1
10
75.075920
20
27.381524
11
76.093023
21
28.195400
0
LINE
8
Layer 1
10
76.093023
20
28.195400
11
77.492139
21
28.983399
0
LINE
8
Layer 1
10
77.492139
20
28.983399
11
79.031042
21
29.585625
0
LINE
8
Layer 1
10
79.031042
20
29.585625
11
79.666042
21
29.700278
0
LINE
8
Layer 1
10
79.666042
20
29.700278
11
79.666042
21
29.700278
0
LINE
8
Layer 1
10
-17.189097
20
29.268125
11
-17.023108
21
29.161932
0
LINE
8
Layer 1
10
-17.023108
20
29.161932
11
-17.138803
21
28.887525
0
LINE
8
Layer 1
10
-17.138803
20
28.887525
11
-18.097500
21
27.998125
0
LINE
8
Layer 1
10
-18.097500
20
27.998125
11
-23.212778
21
23.464931
0
LINE
8
Layer 1
10
-23.212778
20
23.464931
11
-26.024789
21
20.941842
0
LINE
8
Layer 1
10
-26.024789
20
20.941842
11
-27.966458
21
19.478542
0
LINE
8
Layer 1
10
-27.966458
20
19.478542
11
-28.612101
21
19.178321
0
LINE
8
Layer 1
10
-28.612101
20
19.178321
11
-28.759317
21
19.169416
0
LINE
8
Layer 1
10
-28.759317
20
19.169416
11
-28.785862
21
19.269344
0
LINE
8
Layer 1
10
-28.785862
20
19.269344
11
-27.631319
21
20.977847
0
LINE
8
Layer 1
10
-27.631319
20
20.977847
11
-25.382329
21
23.313532
0
LINE
8
Layer 1
10
-25.382329
20
23.313532
11
-22.159159
21
26.055634
0
LINE
8
Layer 1
10
-22.159159
20
26.055634
11
-19.061513
21
28.331412
0
LINE
8
Layer 1
10
-19.061513
20
28.331412
11
-17.903420
21
29.021698
0
LINE
8
Layer 1
10
-17.903420
20
29.021698
11
-17.189097
21
29.268125
0
LINE
8
Layer 1
10
-17.189097
20
29.268125
11
-17.189097
21
29.268125
0
LINE
8
Layer 1
10
-12.717639
20
28.006944
11
-12.561409
21
27.880074
0
LINE
8
Layer 1
10
-12.561409
20
27.880074
11
-12.490786
21
27.496568
0
LINE
8
Layer 1
10
-12.490786
20
27.496568
11
-12.664722
21
25.907917
0
LINE
8
Layer 1
10
-12.664722
20
25.907917
11
-13.827126
21
21.589787
0
LINE
8
Layer 1
10
-13.827126
20
21.589787
11
-15.701293
21
15.954247
0
LINE
8
Layer 1
10
-15.701293
20
15.954247
11
-17.589552
21
10.969604
0
LINE
8
Layer 1
10
-17.589552
20
10.969604
11
-18.320946
21
9.336466
0
LINE
8
Layer 1
10
-18.320946
20
9.336466
11
-18.794236
21
8.604167
0
LINE
8
Layer 1
10
-18.794236
20
8.604167
11
-19.651392
21
8.196863
0
LINE
8
Layer 1
10
-19.651392
20
8.196863
11
-20.440477
21
8.080853
0
LINE
8
Layer 1
10
-20.440477
20
8.080853
11
-21.105382
21
8.255159
0
LINE
8
Layer 1
10
-21.105382
20
8.255159
11
-21.590000
21
8.718805
0
LINE
8
Layer 1
10
-21.590000
20
8.718805
11
-21.499889
21
9.424545
0
LINE
8
Layer 1
10
-21.499889
20
9.424545
11
-20.944367
21
10.843969
0
LINE
8
Layer 1
10
-20.944367
20
10.843969
11
-18.803056
21
14.998264
0
LINE
8
Layer 1
10
-18.803056
20
14.998264
11
-16.229697
21
20.041630
0
LINE
8
Layer 1
10
-16.229697
20
20.041630
11
-15.205931
21
22.422980
0
LINE
8
Layer 1
10
-15.205931
20
22.422980
11
-14.543264
21
24.302778
0
LINE
8
Layer 1
10
-14.543264
20
24.302778
11
-13.522813
21
27.031568
0
LINE
8
Layer 1
10
-13.522813
20
27.031568
11
-13.068949
21
27.758500
0
LINE
8
Layer 1
10
-13.068949
20
27.758500
11
-12.717639
21
28.006944
0
LINE
8
Layer 1
10
-12.717639
20
28.006944
11
-12.717639
21
28.006944
0
LINE
8
Layer 1
10
58.490556
20
26.057847
11
58.746319
21
26.057847
0
LINE
8
Layer 1
10
58.746319
20
26.057847
11
60.324868
21
25.933106
0
LINE
8
Layer 1
10
60.324868
20
25.933106
11
61.719581
21
25.622465
0
LINE
8
Layer 1
10
61.719581
20
25.622465
11
62.714659
21
25.192171
0
LINE
8
Layer 1
10
62.714659
20
25.192171
11
62.994899
21
24.952857
0
LINE
8
Layer 1
10
62.994899
20
24.952857
11
63.094306
21
24.708472
0
LINE
8
Layer 1
10
63.094306
20
24.708472
11
62.889817
21
24.487230
0
LINE
8
Layer 1
10
62.889817
20
24.487230
11
62.345248
21
24.318717
0
LINE
8
Layer 1
10
62.345248
20
24.318717
11
60.649231
21
24.150767
0
LINE
8
Layer 1
10
60.649231
20
24.150767
11
58.832991
21
24.226392
0
LINE
8
Layer 1
10
58.832991
20
24.226392
11
58.138142
21
24.362348
0
LINE
8
Layer 1
10
58.138142
20
24.362348
11
57.723264
21
24.567361
0
LINE
8
Layer 1
10
57.723264
20
24.567361
11
57.336350
21
25.126311
0
LINE
8
Layer 1
10
57.336350
20
25.126311
11
57.352059
21
25.585486
0
LINE
8
Layer 1
10
57.352059
20
25.585486
11
57.745193
21
25.908220
0
LINE
8
Layer 1
10
57.745193
20
25.908220
11
58.490556
21
26.057847
0
LINE
8
Layer 1
10
58.490556
20
26.057847
11
58.490556
21
26.057847
0
LINE
8
Layer 1
10
67.865625
20
21.498194
11
67.969503
21
21.332063
0
LINE
8
Layer 1
10
67.969503
20
21.332063
11
67.893324
21
20.864817
0
LINE
8
Layer 1
10
67.893324
20
20.864817
11
67.209251
21
19.089140
0
LINE
8
Layer 1
10
67.209251
20
19.089140
11
65.830308
21
16.295490
0
LINE
8
Layer 1
10
65.830308
20
16.295490
11
63.773403
21
12.608194
0
LINE
8
Layer 1
10
63.773403
20
12.608194
11
62.087413
21
9.853004
0
LINE
8
Layer 1
10
62.087413
20
9.853004
11
60.867064
21
8.153207
0
LINE
8
Layer 1
10
60.867064
20
8.153207
11
60.125337
21
7.523349
0
LINE
8
Layer 1
10
60.125337
20
7.523349
11
59.938011
21
7.614191
0
LINE
8
Layer 1
10
59.938011
20
7.614191
11
59.875208
21
7.977972
0
LINE
8
Layer 1
10
59.875208
20
7.977972
11
60.157899
21
9.239644
0
LINE
8
Layer 1
10
60.157899
20
9.239644
11
61.000201
21
11.155792
0
LINE
8
Layer 1
10
61.000201
20
11.155792
11
62.393462
21
13.709944
0
LINE
8
Layer 1
10
62.393462
20
13.709944
11
64.329028
21
16.885625
0
LINE
8
Layer 1
10
64.329028
20
16.885625
11
66.640963
21
20.286756
0
LINE
8
Layer 1
10
66.640963
20
20.286756
11
67.364174
21
21.148907
0
LINE
8
Layer 1
10
67.364174
20
21.148907
11
67.803889
21
21.489375
0
LINE
8
Layer 1
10
67.803889
20
21.489375
11
67.865625
21
21.498194
0
LINE
8
Layer 1
10
67.865625
20
21.498194
11
67.865625
21
21.498194
0
LINE
8
Layer 1
10
235.232222
20
-3.540194
11
236.088944
21
-3.918924
0
LINE
8
Layer 1
10
236.088944
20
-3.918924
11
237.067030
21
-4.830895
0
LINE
8
Layer 1
10
237.067030
20
-4.830895
11
237.870750
21
-5.939780
0
LINE
8
Layer 1
10
237.870750
20
-5.939780
11
238.204375
21
-6.909250
0
LINE
8
Layer 1
10
238.204375
20
-6.909250
11
238.147010
21
-7.238941
0
LINE
8
Layer 1
10
238.147010
20
-7.238941
11
237.984705
21
-7.406468
0
LINE
8
Layer 1
10
237.984705
20
-7.406468
11
237.403986
21
-7.288278
0
LINE
8
Layer 1
10
237.403986
20
-7.288278
11
236.579643
21
-6.621179
0
LINE
8
Layer 1
10
236.579643
20
-6.621179
11
235.629097
21
-5.471667
0
LINE
8
Layer 1
10
235.629097
20
-5.471667
11
234.725834
21
-3.926239
0
LINE
8
Layer 1
10
234.725834
20
-3.926239
11
234.810890
21
-3.624602
0
LINE
8
Layer 1
10
234.810890
20
-3.624602
11
235.232222
21
-3.540194
0
LINE
8
Layer 1
10
235.232222
20
-3.540194
11
235.232222
21
-3.540194
0
LINE
8
Layer 1
10
129.354792
20
-4.836667
11
129.434167
21
-4.836667
0
LINE
8
Layer 1
10
129.434167
20
-4.836667
11
129.609100
21
-5.035632
0
LINE
8
Layer 1
10
129.609100
20
-5.035632
11
129.510096
21
-5.559607
0
LINE
8
Layer 1
10
129.510096
20
-5.559607
11
128.490486
21
-7.561861
0
LINE
8
Layer 1
10
128.490486
20
-7.561861
11
127.361199
21
-9.302758
0
LINE
8
Layer 1
10
127.361199
20
-9.302758
11
126.487332
21
-10.276973
0
LINE
8
Layer 1
10
126.487332
20
-10.276973
11
126.129241
21
-10.489676
0
LINE
8
Layer 1
10
126.129241
20
-10.489676
11
125.814678
21
-10.526430
0
LINE
8
Layer 1
10
125.814678
20
-10.526430
11
125.289028
21
-10.093056
0
LINE
8
Layer 1
10
125.289028
20
-10.093056
11
125.264310
21
-9.762207
0
LINE
8
Layer 1
10
125.264310
20
-9.762207
11
125.433296
21
-9.241427
0
LINE
8
Layer 1
10
125.433296
20
-9.241427
11
126.202729
21
-7.858184
0
LINE
8
Layer 1
10
126.202729
20
-7.858184
11
127.298037
21
-6.399550
0
LINE
8
Layer 1
10
127.298037
20
-6.399550
11
128.419931
21
-5.321750
0
LINE
8
Layer 1
10
128.419931
20
-5.321750
11
129.354792
21
-4.836667
0
LINE
8
Layer 1
10
129.354792
20
-4.836667
11
129.354792
21
-4.836667
0
LINE
8
Layer 1
10
178.179236
20
-13.523805
11
178.920069
21
-15.384722
0
LINE
8
Layer 1
10
178.920069
20
-15.384722
11
179.996042
21
-17.801250
0
LINE
8
Layer 1
10
179.996042
20
-17.801250
11
180.002487
21
-18.014554
0
LINE
8
Layer 1
10
180.002487
20
-18.014554
11
179.767650
21
-18.188318
0
LINE
8
Layer 1
10
179.767650
20
-18.188318
11
178.734861
21
-18.348056
0
LINE
8
Layer 1
10
178.734861
20
-18.348056
11
177.488586
21
-18.224390
0
LINE
8
Layer 1
10
177.488586
20
-18.224390
11
177.107112
21
-18.048383
0
LINE
8
Layer 1
10
177.107112
20
-18.048383
11
176.877876
21
-17.777215
0
LINE
8
Layer 1
10
176.877876
20
-17.777215
11
176.849496
21
-16.892266
0
LINE
8
Layer 1
10
176.849496
20
-16.892266
11
177.350208
21
-15.455278
0
LINE
8
Layer 1
10
177.350208
20
-15.455278
11
178.179236
21
-13.523805
0
LINE
8
Layer 1
10
178.179236
20
-13.523805
11
178.179236
21
-13.523805
0
LINE
8
Layer 1
10
162.948056
20
-17.316195
11
163.142083
21
-17.316195
0
LINE
8
Layer 1
10
163.142083
20
-17.316195
11
163.450764
21
-17.413194
0
LINE
8
Layer 1
10
163.450764
20
-17.413194
11
163.506166
21
-17.640396
0
LINE
8
Layer 1
10
163.506166
20
-17.640396
11
163.362778
21
-17.964131
0
LINE
8
Layer 1
10
163.362778
20
-17.964131
11
162.595278
21
-18.727306
0
LINE
8
Layer 1
10
162.595278
20
-18.727306
11
161.553920
21
-19.329676
0
LINE
8
Layer 1
10
161.553920
20
-19.329676
11
160.612274
21
-19.605560
0
LINE
8
Layer 1
10
160.612274
20
-19.605560
11
159.930116
21
-19.534915
0
LINE
8
Layer 1
10
159.930116
20
-19.534915
11
159.736275
21
-19.363379
0
LINE
8
Layer 1
10
159.736275
20
-19.363379
11
159.667222
21
-19.097694
0
LINE
8
Layer 1
10
159.667222
20
-19.097694
11
160.029248
21
-18.580900
0
LINE
8
Layer 1
10
160.029248
20
-18.580900
11
160.906032
21
-18.018519
0
LINE
8
Layer 1
10
160.906032
20
-18.018519
11
161.983619
21
-17.550350
0
LINE
8
Layer 1
10
161.983619
20
-17.550350
11
162.948056
21
-17.316195
0
LINE
8
Layer 1
10
162.948056
20
-17.316195
11
162.948056
21
-17.316195
0
LINE
8
Layer 1
10
54.080833
20
-17.704250
11
54.535527
21
-17.893364
0
LINE
8
Layer 1
10
54.535527
20
-17.893364
11
54.724653
21
-18.348056
0
LINE
8
Layer 1
10
54.724653
20
-18.348056
11
54.535527
21
-18.802758
0
LINE
8
Layer 1
10
54.535527
20
-18.802758
11
54.080833
21
-18.991861
0
LINE
8
Layer 1
10
54.080833
20
-18.991861
11
53.626140
21
-18.802747
0
LINE
8
Layer 1
10
53.626140
20
-18.802747
11
53.437014
21
-18.348056
0
LINE
8
Layer 1
10
53.437014
20
-18.348056
11
53.626139
21
-17.893343
0
LINE
8
Layer 1
10
53.626139
20
-17.893343
11
54.080833
21
-17.704250
0
LINE
8
Layer 1
10
54.080833
20
-17.704250
11
54.080833
21
-17.704250
0
LINE
8
Layer 1
10
196.955833
20
-17.721861
11
197.114583
21
-17.721861
0
LINE
8
Layer 1
10
197.114583
20
-17.721861
11
198.132647
21
-17.978771
0
LINE
8
Layer 1
10
198.132647
20
-17.978771
11
199.292986
21
-18.656750
0
LINE
8
Layer 1
10
199.292986
20
-18.656750
11
199.961027
21
-19.188125
0
LINE
8
Layer 1
10
199.961027
20
-19.188125
11
200.137448
21
-19.471296
0
LINE
8
Layer 1
10
200.137448
20
-19.471296
11
199.788010
21
-19.587521
0
LINE
8
Layer 1
10
199.788010
20
-19.587521
11
198.878472
21
-19.618056
0
LINE
8
Layer 1
10
198.878472
20
-19.618056
11
197.765769
21
-19.545433
0
LINE
8
Layer 1
10
197.765769
20
-19.545433
11
196.978550
21
-19.294015
0
LINE
8
Layer 1
10
196.978550
20
-19.294015
11
196.510702
21
-18.860659
0
LINE
8
Layer 1
10
196.510702
20
-18.860659
11
196.356111
21
-18.242222
0
LINE
8
Layer 1
10
196.356111
20
-18.242222
11
196.520465
21
-17.870419
0
LINE
8
Layer 1
10
196.520465
20
-17.870419
11
196.955833
21
-17.721861
0
LINE
8
Layer 1
10
196.955833
20
-17.721861
11
196.955833
21
-17.721861
 0 
ENDSEC
 0 
EOF
