999
"DXF R12 Output" (www.mydxf.blogspot.com)
 0 
SECTION
 2 
HEADER
 9 
$ACADVER
 1 
AC1009
 9 
$EXTMIN
 10 
 0 
 20 
 0 
 9 
$EXTMAX
 10 
 8.5 
 20 
 11 
 0 
ENDSEC
 0 
SECTION
 2 
ENTITIES
0
LINE
8
Layer 1
10
34.951402
20
208.685611
11
33.577283
21
208.452778
0
LINE
8
Layer 1
10
33.577283
20
208.452778
11
32.393763
21
207.812486
0
LINE
8
Layer 1
10
32.393763
20
207.812486
11
31.300936
21
206.800917
0
LINE
8
Layer 1
10
31.300936
20
206.800917
11
31.046492
21
206.511060
0
LINE
8
Layer 1
10
31.046492
20
206.511060
11
30.903277
21
206.198528
0
LINE
8
Layer 1
10
30.903277
20
206.198528
11
31.398161
21
205.857379
0
LINE
8
Layer 1
10
31.398161
20
205.857379
11
32.420221
21
205.589986
0
LINE
8
Layer 1
10
32.420221
20
205.589986
11
34.638173
21
205.145793
0
LINE
8
Layer 1
10
34.638173
20
205.145793
11
34.999856
21
204.911570
0
LINE
8
Layer 1
10
34.999856
20
204.911570
11
35.083694
21
204.584569
0
LINE
8
Layer 1
10
35.083694
20
204.584569
11
34.794557
21
203.951664
0
LINE
8
Layer 1
10
34.794557
20
203.951664
11
34.104735
21
203.138181
0
LINE
8
Layer 1
10
34.104735
20
203.138181
11
33.134596
21
202.194500
0
LINE
8
Layer 1
10
33.134596
20
202.194500
11
31.635291
21
202.785403
0
LINE
8
Layer 1
10
31.635291
20
202.785403
11
28.049230
21
204.002029
0
LINE
8
Layer 1
10
28.049230
20
204.002029
11
26.818085
21
204.193224
0
LINE
8
Layer 1
10
26.818085
20
204.193224
11
25.717443
21
204.161236
0
LINE
8
Layer 1
10
25.717443
20
204.161236
11
24.596135
21
203.942406
0
LINE
8
Layer 1
10
24.596135
20
203.942406
11
23.900637
21
203.658528
0
LINE
8
Layer 1
10
23.900637
20
203.658528
11
23.610247
21
202.978185
0
LINE
8
Layer 1
10
23.610247
20
202.978185
11
23.511375
21
201.805832
0
LINE
8
Layer 1
10
23.511375
20
201.805832
11
23.604930
21
200.483855
0
LINE
8
Layer 1
10
23.604930
20
200.483855
11
23.891818
21
199.354639
0
LINE
8
Layer 1
10
23.891818
20
199.354639
11
24.569807
21
198.302617
0
LINE
8
Layer 1
10
24.569807
20
198.302617
11
25.642384
21
197.286932
0
LINE
8
Layer 1
10
25.642384
20
197.286932
11
26.959747
21
196.425360
0
LINE
8
Layer 1
10
26.959747
20
196.425360
11
28.372096
21
195.835681
0
LINE
8
Layer 1
10
28.372096
20
195.835681
11
29.994874
21
195.359431
0
LINE
8
Layer 1
10
29.994874
20
195.359431
11
29.836124
21
194.371653
0
LINE
8
Layer 1
10
29.836124
20
194.371653
11
29.368521
21
192.722410
0
LINE
8
Layer 1
10
29.368521
20
192.722410
11
28.410648
21
191.000136
0
LINE
8
Layer 1
10
28.410648
20
191.000136
11
26.774245
21
188.928533
0
LINE
8
Layer 1
10
26.774245
20
188.928533
11
24.271054
21
186.231306
0
LINE
8
Layer 1
10
24.271054
20
186.231306
11
20.328762
21
182.156722
0
LINE
8
Layer 1
10
20.328762
20
182.156722
11
20.513971
21
180.436931
0
LINE
8
Layer 1
10
20.513971
20
180.436931
11
20.772392
21
179.003901
0
LINE
8
Layer 1
10
20.772392
20
179.003901
11
21.275808
21
177.995193
0
LINE
8
Layer 1
10
21.275808
20
177.995193
11
22.141345
21
177.263674
0
LINE
8
Layer 1
10
22.141345
20
177.263674
11
23.486124
21
176.662208
0
LINE
8
Layer 1
10
23.486124
20
176.662208
11
24.849634
21
176.090206
0
LINE
8
Layer 1
10
24.849634
20
176.090206
11
25.664526
21
175.603875
0
LINE
8
Layer 1
10
25.664526
20
175.603875
11
26.458276
21
175.180542
0
LINE
8
Layer 1
10
26.458276
20
175.180542
11
26.776327
21
175.046839
0
LINE
8
Layer 1
10
26.776327
20
175.046839
11
27.013901
21
174.721931
0
LINE
8
Layer 1
10
27.013901
20
174.721931
11
27.171781
21
174.491784
0
LINE
8
Layer 1
10
27.171781
20
174.491784
11
27.484300
21
174.373956
0
LINE
8
Layer 1
10
27.484300
20
174.373956
11
28.945360
21
174.422069
0
LINE
8
Layer 1
10
28.945360
20
174.422069
11
30.674296
21
174.709244
0
LINE
8
Layer 1
10
30.674296
20
174.709244
11
32.358485
21
175.162903
0
LINE
8
Layer 1
10
32.358485
20
175.162903
11
33.852496
21
175.568278
0
LINE
8
Layer 1
10
33.852496
20
175.568278
11
34.308646
21
175.530550
0
LINE
8
Layer 1
10
34.308646
20
175.530550
11
34.757374
21
175.348111
0
LINE
8
Layer 1
10
34.757374
20
175.348111
11
35.938035
21
174.904786
0
LINE
8
Layer 1
10
35.938035
20
174.904786
11
37.493409
21
174.587792
0
LINE
8
Layer 1
10
37.493409
20
174.587792
11
41.715916
21
174.333875
0
LINE
8
Layer 1
10
41.715916
20
174.333875
11
44.935013
21
174.333875
0
LINE
8
Layer 1
10
44.935013
20
174.333875
11
45.984527
21
173.416653
0
LINE
8
Layer 1
10
45.984527
20
173.416653
11
47.152845
21
172.169194
0
LINE
8
Layer 1
10
47.152845
20
172.169194
11
48.280433
21
170.499444
0
LINE
8
Layer 1
10
48.280433
20
170.499444
11
49.384547
21
168.378890
0
LINE
8
Layer 1
10
49.384547
20
168.378890
11
50.482444
21
165.779014
0
LINE
8
Layer 1
10
50.482444
20
165.779014
11
52.660846
21
160.646097
0
LINE
8
Layer 1
10
52.660846
20
160.646097
11
54.488358
21
156.008875
0
LINE
8
Layer 1
10
54.488358
20
156.008875
11
56.409110
21
150.124500
0
LINE
8
Layer 1
10
56.409110
20
150.124500
11
57.291388
21
147.438206
0
LINE
8
Layer 1
10
57.291388
20
147.438206
11
58.487352
21
144.320092
0
LINE
8
Layer 1
10
58.487352
20
144.320092
11
59.766470
21
141.337082
0
LINE
8
Layer 1
10
59.766470
20
141.337082
11
60.898207
21
139.056097
0
LINE
8
Layer 1
10
60.898207
20
139.056097
11
63.278795
21
135.250224
0
LINE
8
Layer 1
10
63.278795
20
135.250224
11
65.619196
21
132.411020
0
LINE
8
Layer 1
10
65.619196
20
132.411020
11
66.809908
21
131.318428
0
LINE
8
Layer 1
10
66.809908
20
131.318428
11
68.033270
21
130.424911
0
LINE
8
Layer 1
10
68.033270
20
130.424911
11
69.303515
21
129.716274
0
LINE
8
Layer 1
10
69.303515
20
129.716274
11
70.634874
21
129.178319
0
LINE
8
Layer 1
10
70.634874
20
129.178319
11
71.904874
21
128.754986
0
LINE
8
Layer 1
10
71.904874
20
128.754986
11
72.839735
21
125.994500
0
LINE
8
Layer 1
10
72.839735
20
125.994500
11
75.097513
21
117.668944
0
LINE
8
Layer 1
10
75.097513
20
117.668944
11
76.225180
21
112.334833
0
LINE
8
Layer 1
10
76.225180
20
112.334833
11
76.376986
21
110.481866
0
LINE
8
Layer 1
10
76.376986
20
110.481866
11
76.393971
21
108.152764
0
LINE
8
Layer 1
10
76.393971
20
108.152764
11
76.266069
21
104.716326
0
LINE
8
Layer 1
10
76.266069
20
104.716326
11
75.882444
21
102.508319
0
LINE
8
Layer 1
10
75.882444
20
102.508319
11
75.343292
21
100.974481
0
LINE
8
Layer 1
10
75.343292
20
100.974481
11
74.708715
21
99.675780
0
LINE
8
Layer 1
10
74.708715
20
99.675780
11
74.050256
21
98.735016
0
LINE
8
Layer 1
10
74.050256
20
98.735016
11
73.439457
21
98.274986
0
LINE
8
Layer 1
10
73.439457
20
98.274986
11
72.694418
21
97.871042
0
LINE
8
Layer 1
10
72.694418
20
97.871042
11
71.829607
21
97.168709
0
LINE
8
Layer 1
10
71.829607
20
97.168709
11
71.028887
21
96.338213
0
LINE
8
Layer 1
10
71.028887
20
96.338213
11
70.476124
21
95.549778
0
LINE
8
Layer 1
10
70.476124
20
95.549778
11
70.242517
21
94.857139
0
LINE
8
Layer 1
10
70.242517
20
94.857139
11
70.308467
21
94.260221
0
LINE
8
Layer 1
10
70.308467
20
94.260221
11
70.675057
21
93.758456
0
LINE
8
Layer 1
10
70.675057
20
93.758456
11
71.343366
21
93.351274
0
LINE
8
Layer 1
10
71.343366
20
93.351274
11
72.314477
21
93.038106
0
LINE
8
Layer 1
10
72.314477
20
93.038106
11
73.589470
21
92.818384
0
LINE
8
Layer 1
10
73.589470
20
92.818384
11
77.055430
21
92.657000
0
LINE
8
Layer 1
10
77.055430
20
92.657000
11
80.935985
21
92.815750
0
LINE
8
Layer 1
10
80.935985
20
92.815750
11
81.394596
21
95.117625
0
LINE
8
Layer 1
10
81.394596
20
95.117625
11
81.629232
21
96.507432
0
LINE
8
Layer 1
10
81.629232
20
96.507432
11
81.982308
21
97.144725
0
LINE
8
Layer 1
10
81.982308
20
97.144725
11
82.742674
21
97.211645
0
LINE
8
Layer 1
10
82.742674
20
97.211645
11
84.199180
21
96.890333
0
LINE
8
Layer 1
10
84.199180
20
96.890333
11
85.650233
21
96.659599
0
LINE
8
Layer 1
10
85.650233
20
96.659599
11
86.060318
21
96.805923
0
LINE
8
Layer 1
10
86.060318
20
96.805923
11
86.509874
21
97.154917
0
LINE
8
Layer 1
10
86.509874
20
97.154917
11
87.582485
21
97.720715
0
LINE
8
Layer 1
10
87.582485
20
97.720715
11
89.252721
21
98.151514
0
LINE
8
Layer 1
10
89.252721
20
98.151514
11
90.894958
21
98.546946
0
LINE
8
Layer 1
10
90.894958
20
98.546946
11
92.048485
21
98.998181
0
LINE
8
Layer 1
10
92.048485
20
98.998181
11
92.859874
21
99.492069
0
LINE
8
Layer 1
10
92.859874
20
99.492069
11
92.339527
21
101.564639
0
LINE
8
Layer 1
10
92.339527
20
101.564639
11
91.968580
21
103.386492
0
LINE
8
Layer 1
10
91.968580
20
103.386492
11
91.810360
21
104.854292
0
LINE
8
Layer 1
10
91.810360
20
104.854292
11
91.201819
21
108.946514
0
LINE
8
Layer 1
10
91.201819
20
108.946514
11
90.761828
21
111.601328
0
LINE
8
Layer 1
10
90.761828
20
111.601328
11
90.790254
21
112.459723
0
LINE
8
Layer 1
10
90.790254
20
112.459723
11
90.963694
21
113.373875
0
LINE
8
Layer 1
10
90.963694
20
113.373875
11
91.273603
21
116.837845
0
LINE
8
Layer 1
10
91.273603
20
116.837845
11
91.492860
21
123.736722
0
LINE
8
Layer 1
10
91.492860
20
123.736722
11
91.703906
21
130.562556
0
LINE
8
Layer 1
10
91.703906
20
130.562556
11
91.840169
21
132.225104
0
LINE
8
Layer 1
10
91.840169
20
132.225104
11
92.004388
21
132.873667
0
LINE
8
Layer 1
10
92.004388
20
132.873667
11
92.941466
21
133.207874
0
LINE
8
Layer 1
10
92.941466
20
133.207874
11
94.601525
21
133.351494
0
LINE
8
Layer 1
10
94.601525
20
133.351494
11
96.537287
21
133.293683
0
LINE
8
Layer 1
10
96.537287
20
133.293683
11
98.301471
21
133.023597
0
LINE
8
Layer 1
10
98.301471
20
133.023597
11
101.088135
21
131.965606
0
LINE
8
Layer 1
10
101.088135
20
131.965606
11
105.215916
21
130.060264
0
LINE
8
Layer 1
10
105.215916
20
130.060264
11
110.239799
21
127.730041
0
LINE
8
Layer 1
10
110.239799
20
127.730041
11
114.227586
21
126.327782
0
LINE
8
Layer 1
10
114.227586
20
126.327782
11
116.075701
21
125.908872
0
LINE
8
Layer 1
10
116.075701
20
125.908872
11
117.956100
21
125.643032
0
LINE
8
Layer 1
10
117.956100
20
125.643032
11
122.202166
21
125.465333
0
LINE
8
Layer 1
10
122.202166
20
125.465333
11
125.004565
21
125.527846
0
LINE
8
Layer 1
10
125.004565
20
125.527846
11
127.553458
21
125.730588
0
LINE
8
Layer 1
10
127.553458
20
125.730588
11
130.145299
21
126.107179
0
LINE
8
Layer 1
10
130.145299
20
126.107179
11
133.076541
21
126.691236
0
LINE
8
Layer 1
10
133.076541
20
126.691236
11
135.819388
21
127.290958
0
LINE
8
Layer 1
10
135.819388
20
127.290958
11
136.965916
21
126.532486
0
LINE
8
Layer 1
10
136.965916
20
126.532486
11
137.824701
21
125.879090
0
LINE
8
Layer 1
10
137.824701
20
125.879090
11
138.271194
21
125.377139
0
LINE
8
Layer 1
10
138.271194
20
125.377139
11
138.955047
21
124.579851
0
LINE
8
Layer 1
10
138.955047
20
124.579851
11
140.347278
21
123.557794
0
LINE
8
Layer 1
10
140.347278
20
123.557794
11
142.180929
21
122.484090
0
LINE
8
Layer 1
10
142.180929
20
122.484090
11
144.189041
21
121.531861
0
LINE
8
Layer 1
10
144.189041
20
121.531861
11
147.119975
21
120.188153
0
LINE
8
Layer 1
10
147.119975
20
120.188153
11
147.570609
21
119.791678
0
LINE
8
Layer 1
10
147.570609
20
119.791678
11
147.584527
21
119.432833
0
LINE
8
Layer 1
10
147.584527
20
119.432833
11
147.523546
21
118.451794
0
LINE
8
Layer 1
10
147.523546
20
118.451794
11
147.708832
21
117.001776
0
LINE
8
Layer 1
10
147.708832
20
117.001776
11
148.041427
21
115.625168
0
LINE
8
Layer 1
10
148.041427
20
115.625168
11
148.422374
21
114.864361
0
LINE
8
Layer 1
10
148.422374
20
114.864361
11
148.979938
21
114.607819
0
LINE
8
Layer 1
10
148.979938
20
114.607819
11
149.637883
21
114.515434
0
LINE
8
Layer 1
10
149.637883
20
114.515434
11
150.261338
21
114.588693
0
LINE
8
Layer 1
10
150.261338
20
114.588693
11
150.715430
21
114.829083
0
LINE
8
Layer 1
10
150.715430
20
114.829083
11
151.259346
21
115.066249
0
LINE
8
Layer 1
10
151.259346
20
115.066249
11
152.108902
21
115.181861
0
LINE
8
Layer 1
10
152.108902
20
115.181861
11
152.933712
21
115.350012
0
LINE
8
Layer 1
10
152.933712
20
115.350012
11
153.483847
21
115.835223
0
LINE
8
Layer 1
10
153.483847
20
115.835223
11
153.791891
21
116.688284
0
LINE
8
Layer 1
10
153.791891
20
116.688284
11
153.890430
21
117.959986
0
LINE
8
Layer 1
10
153.890430
20
117.959986
11
153.899249
21
119.300542
0
LINE
8
Layer 1
10
153.899249
20
119.300542
11
155.733694
21
119.300542
0
LINE
8
Layer 1
10
155.733694
20
119.300542
11
156.900028
21
119.282712
0
LINE
8
Layer 1
10
156.900028
20
119.282712
11
157.460413
21
119.038389
0
LINE
8
Layer 1
10
157.460413
20
119.038389
11
157.622663
21
118.281323
0
LINE
8
Layer 1
10
157.622663
20
118.281323
11
157.594596
21
116.725264
0
LINE
8
Layer 1
10
157.594596
20
116.725264
11
157.694607
21
115.575290
0
LINE
8
Layer 1
10
157.694607
20
115.575290
11
157.901273
21
115.244526
0
LINE
8
Layer 1
10
157.901273
20
115.244526
11
158.256055
21
114.961375
0
LINE
8
Layer 1
10
158.256055
20
114.961375
11
159.384944
21
114.502764
0
LINE
8
Layer 1
10
159.384944
20
114.502764
11
159.694312
21
114.358549
0
LINE
8
Layer 1
10
159.694312
20
114.358549
11
159.798708
21
113.800692
0
LINE
8
Layer 1
10
159.798708
20
113.800692
11
159.384944
21
110.692764
0
LINE
8
Layer 1
10
159.384944
20
110.692764
11
158.797852
21
108.045515
0
LINE
8
Layer 1
10
158.797852
20
108.045515
11
157.942073
21
105.202347
0
LINE
8
Layer 1
10
157.942073
20
105.202347
11
156.888303
21
102.370360
0
LINE
8
Layer 1
10
156.888303
20
102.370360
11
155.707235
21
99.756653
0
LINE
8
Layer 1
10
155.707235
20
99.756653
11
153.942195
21
96.554769
0
LINE
8
Layer 1
10
153.942195
20
96.554769
11
151.729666
21
93.812347
0
LINE
8
Layer 1
10
151.729666
20
93.812347
11
150.106909
21
91.740116
0
LINE
8
Layer 1
10
150.106909
20
91.740116
11
149.235958
21
90.095126
0
LINE
8
Layer 1
10
149.235958
20
90.095126
11
149.092419
21
89.461916
0
LINE
8
Layer 1
10
149.092419
20
89.461916
11
149.148840
21
88.970397
0
LINE
8
Layer 1
10
149.148840
20
88.970397
11
149.409227
21
88.632197
0
LINE
8
Layer 1
10
149.409227
20
88.632197
11
149.877582
21
88.458944
0
LINE
8
Layer 1
10
149.877582
20
88.458944
11
152.585252
21
88.313760
0
LINE
8
Layer 1
10
152.585252
20
88.313760
11
157.003694
21
88.564778
0
LINE
8
Layer 1
10
157.003694
20
88.564778
11
161.309013
21
88.994199
0
LINE
8
Layer 1
10
161.309013
20
88.994199
11
161.951939
21
89.217493
0
LINE
8
Layer 1
10
161.951939
20
89.217493
11
162.083694
21
89.543736
0
LINE
8
Layer 1
10
162.083694
20
89.543736
11
162.455836
21
90.246595
0
LINE
8
Layer 1
10
162.455836
20
90.246595
11
163.353694
21
91.334083
0
LINE
8
Layer 1
10
163.353694
20
91.334083
11
164.632513
21
92.701097
0
LINE
8
Layer 1
10
164.632513
20
92.701097
11
164.447305
21
95.073528
0
LINE
8
Layer 1
10
164.447305
20
95.073528
11
164.424662
21
98.004854
0
LINE
8
Layer 1
10
164.424662
20
98.004854
11
164.909852
21
101.163471
0
LINE
8
Layer 1
10
164.909852
20
101.163471
11
166.036894
21
105.146647
0
LINE
8
Layer 1
10
166.036894
20
105.146647
11
167.939805
21
110.551653
0
LINE
8
Layer 1
10
167.939805
20
110.551653
11
169.255741
21
114.339235
0
LINE
8
Layer 1
10
169.255741
20
114.339235
11
170.357968
21
117.936422
0
LINE
8
Layer 1
10
170.357968
20
117.936422
11
171.115419
21
120.881727
0
LINE
8
Layer 1
10
171.115419
20
120.881727
11
171.397027
21
122.713667
0
LINE
8
Layer 1
10
171.397027
20
122.713667
11
171.534348
21
123.362298
0
LINE
8
Layer 1
10
171.534348
20
123.362298
11
171.888894
21
123.788082
0
LINE
8
Layer 1
10
171.888894
20
123.788082
11
172.374537
21
123.932422
0
LINE
8
Layer 1
10
172.374537
20
123.932422
11
172.905152
21
123.736722
0
LINE
8
Layer 1
10
172.905152
20
123.736722
11
173.388076
21
123.078339
0
LINE
8
Layer 1
10
173.388076
20
123.078339
11
174.019068
21
121.787364
0
LINE
8
Layer 1
10
174.019068
20
121.787364
11
175.490824
21
117.980161
0
LINE
8
Layer 1
10
175.490824
20
117.980161
11
176.851549
21
113.660162
0
LINE
8
Layer 1
10
176.851549
20
113.660162
11
177.632374
21
110.172417
0
LINE
8
Layer 1
10
177.632374
20
110.172417
11
177.781275
21
108.312259
0
LINE
8
Layer 1
10
177.781275
20
108.312259
11
177.772469
21
106.163910
0
LINE
8
Layer 1
10
177.772469
20
106.163910
11
177.253138
21
100.391653
0
LINE
8
Layer 1
10
177.253138
20
100.391653
11
176.917999
21
97.710542
0
LINE
8
Layer 1
10
176.917999
20
97.710542
11
174.757235
21
95.417486
0
LINE
8
Layer 1
10
174.757235
20
95.417486
11
173.030425
21
93.395108
0
LINE
8
Layer 1
10
173.030425
20
93.395108
11
172.605935
21
92.681419
0
LINE
8
Layer 1
10
172.605935
20
92.681419
11
172.402444
21
92.066097
0
LINE
8
Layer 1
10
172.402444
20
92.066097
11
172.327069
21
91.251831
0
LINE
8
Layer 1
10
172.327069
20
91.251831
11
172.428902
21
90.778458
0
LINE
8
Layer 1
10
172.428902
20
90.778458
11
173.619469
21
90.536731
0
LINE
8
Layer 1
10
173.619469
20
90.536731
11
176.043812
21
90.353323
0
LINE
8
Layer 1
10
176.043812
20
90.353323
11
178.748704
21
90.276648
0
LINE
8
Layer 1
10
178.748704
20
90.276648
11
180.780916
21
90.355125
0
LINE
8
Layer 1
10
180.780916
20
90.355125
11
181.676760
21
90.487960
0
LINE
8
Layer 1
10
181.676760
20
90.487960
11
182.191611
21
90.670005
0
LINE
8
Layer 1
10
182.191611
20
90.670005
11
182.481774
21
91.003291
0
LINE
8
Layer 1
10
182.481774
20
91.003291
11
182.703555
21
91.589847
0
LINE
8
Layer 1
10
182.703555
20
91.589847
11
183.585499
21
93.856444
0
LINE
8
Layer 1
10
183.585499
20
93.856444
11
183.922492
21
94.853709
0
LINE
8
Layer 1
10
183.922492
20
94.853709
11
183.964735
21
95.523319
0
LINE
8
Layer 1
10
183.964735
20
95.523319
11
184.043482
21
96.083649
0
LINE
8
Layer 1
10
184.043482
20
96.083649
11
184.467444
21
96.828597
0
LINE
8
Layer 1
10
184.467444
20
96.828597
11
185.410606
21
98.293394
0
LINE
8
Layer 1
10
185.410606
20
98.293394
11
186.243256
21
100.177101
0
LINE
8
Layer 1
10
186.243256
20
100.177101
11
187.083173
21
102.798674
0
LINE
8
Layer 1
10
187.083173
20
102.798674
11
188.048138
21
106.477069
0
LINE
8
Layer 1
10
188.048138
20
106.477069
11
189.512166
21
112.386097
0
LINE
8
Layer 1
10
189.512166
20
112.386097
11
189.371055
21
117.166236
0
LINE
8
Layer 1
10
189.371055
20
117.166236
11
189.346272
21
120.839945
0
LINE
8
Layer 1
10
189.346272
20
120.839945
11
189.520985
21
122.581375
0
LINE
8
Layer 1
10
189.520985
20
122.581375
11
189.665710
21
123.180122
0
LINE
8
Layer 1
10
189.665710
20
123.180122
11
189.609180
21
123.727903
0
LINE
8
Layer 1
10
189.609180
20
123.727903
11
189.468069
21
126.373736
0
LINE
8
Layer 1
10
189.468069
20
126.373736
11
189.379874
21
128.058250
0
LINE
8
Layer 1
10
189.379874
20
128.058250
11
188.567959
21
132.390434
0
LINE
8
Layer 1
10
188.567959
20
132.390434
11
186.795777
21
139.549986
0
LINE
8
Layer 1
10
186.795777
20
139.549986
11
185.687073
21
144.004665
0
LINE
8
Layer 1
10
185.687073
20
144.004665
11
185.153418
21
147.797497
0
LINE
8
Layer 1
10
185.153418
20
147.797497
11
185.050682
21
152.952268
0
LINE
8
Layer 1
10
185.050682
20
152.952268
11
185.234735
21
161.492764
0
LINE
8
Layer 1
10
185.234735
20
161.492764
11
185.464041
21
178.064500
0
LINE
8
Layer 1
10
185.464041
20
178.064500
11
185.367027
21
181.654014
0
LINE
8
Layer 1
10
185.367027
20
181.654014
11
184.211680
21
182.862278
0
LINE
8
Layer 1
10
184.211680
20
182.862278
11
181.848069
21
185.569847
0
LINE
8
Layer 1
10
181.848069
20
185.569847
11
181.000843
21
186.525824
0
LINE
8
Layer 1
10
181.000843
20
186.525824
11
180.119298
21
187.267447
0
LINE
8
Layer 1
10
180.119298
20
187.267447
11
179.075310
21
187.821864
0
LINE
8
Layer 1
10
179.075310
20
187.821864
11
177.740756
21
188.216223
0
LINE
8
Layer 1
10
177.740756
20
188.216223
11
175.987511
21
188.477671
0
LINE
8
Layer 1
10
175.987511
20
188.477671
11
173.687450
21
188.633356
0
LINE
8
Layer 1
10
173.687450
20
188.633356
11
166.934388
21
188.736028
0
LINE
8
Layer 1
10
166.934388
20
188.736028
11
159.816251
21
188.652604
0
LINE
8
Layer 1
10
159.816251
20
188.652604
11
156.157027
21
188.303875
0
LINE
8
Layer 1
10
156.157027
20
188.303875
11
150.794805
21
187.554222
0
LINE
8
Layer 1
10
150.794805
20
187.554222
11
146.981789
21
187.149577
0
LINE
8
Layer 1
10
146.981789
20
187.149577
11
143.155385
21
187.003462
0
LINE
8
Layer 1
10
143.155385
20
187.003462
11
135.484249
21
187.025056
0
LINE
8
Layer 1
10
135.484249
20
187.025056
11
123.560360
21
187.324917
0
LINE
8
Layer 1
10
123.560360
20
187.324917
11
109.025916
21
187.748250
0
LINE
8
Layer 1
10
109.025916
20
187.748250
11
102.466895
21
187.982652
0
LINE
8
Layer 1
10
102.466895
20
187.982652
11
97.595916
21
188.321514
0
LINE
8
Layer 1
10
97.595916
20
188.321514
11
87.153694
21
189.150542
0
LINE
8
Layer 1
10
87.153694
20
189.150542
11
79.853176
21
189.633756
0
LINE
8
Layer 1
10
79.853176
20
189.633756
11
75.554839
21
190.100212
0
LINE
8
Layer 1
10
75.554839
20
190.100212
11
72.681485
21
190.810618
0
LINE
8
Layer 1
10
72.681485
20
190.810618
11
69.655916
21
192.025681
0
LINE
8
Layer 1
10
69.655916
20
192.025681
11
66.312601
21
193.545315
0
LINE
8
Layer 1
10
66.312601
20
193.545315
11
64.205499
21
194.653875
0
LINE
8
Layer 1
10
64.205499
20
194.653875
11
60.810013
21
196.364847
0
LINE
8
Layer 1
10
60.810013
20
196.364847
11
56.576680
21
198.216931
0
LINE
8
Layer 1
10
56.576680
20
198.216931
11
54.151332
21
199.169431
0
LINE
8
Layer 1
10
54.151332
20
199.169431
11
53.551103
21
199.583943
0
LINE
8
Layer 1
10
53.551103
20
199.583943
11
52.607930
21
200.580542
0
LINE
8
Layer 1
10
52.607930
20
200.580542
11
51.620850
21
201.577138
0
LINE
8
Layer 1
10
51.620850
20
201.577138
11
50.923416
21
201.991653
0
LINE
8
Layer 1
10
50.923416
20
201.991653
11
50.181478
21
202.399419
0
LINE
8
Layer 1
10
50.181478
20
202.399419
11
49.080152
21
203.376306
0
LINE
8
Layer 1
10
49.080152
20
203.376306
11
48.033512
21
204.600900
0
LINE
8
Layer 1
10
48.033512
20
204.600900
11
47.879814
21
205.005357
0
LINE
8
Layer 1
10
47.879814
20
205.005357
11
47.915985
21
205.369500
0
LINE
8
Layer 1
10
47.915985
20
205.369500
11
47.995738
21
206.186177
0
LINE
8
Layer 1
10
47.995738
20
206.186177
11
47.710678
21
206.909672
0
LINE
8
Layer 1
10
47.710678
20
206.909672
11
47.085094
21
207.504697
0
LINE
8
Layer 1
10
47.085094
20
207.504697
11
46.143277
21
207.935958
0
LINE
8
Layer 1
10
46.143277
20
207.935958
11
44.397027
21
208.271097
0
LINE
8
Layer 1
10
44.397027
20
208.271097
11
40.406528
21
208.216530
0
LINE
8
Layer 1
10
40.406528
20
208.216530
11
36.433069
21
208.535681
0
LINE
8
Layer 1
10
36.433069
20
208.535681
11
35.357096
21
208.685611
0
LINE
8
Layer 1
10
35.357096
20
208.685611
11
34.951402
21
208.685611
0
LINE
8
Layer 1
10
34.951402
20
208.685611
11
34.951402
21
208.685611
0
LINE
8
Layer 1
10
35.224805
20
207.918319
11
36.521263
21
207.918319
0
LINE
8
Layer 1
10
36.521263
20
207.918319
11
35.753971
21
206.912903
0
LINE
8
Layer 1
10
35.753971
20
206.912903
11
35.023302
21
206.159674
0
LINE
8
Layer 1
10
35.023302
20
206.159674
11
34.395777
21
206.066236
0
LINE
8
Layer 1
10
34.395777
20
206.066236
11
33.002449
21
206.317806
0
LINE
8
Layer 1
10
33.002449
20
206.317806
11
31.749944
21
206.463111
0
LINE
8
Layer 1
10
31.749944
20
206.463111
11
33.064041
21
207.477347
0
LINE
8
Layer 1
10
33.064041
20
207.477347
11
34.052535
21
207.791800
0
LINE
8
Layer 1
10
34.052535
20
207.791800
11
35.224805
21
207.918319
0
LINE
8
Layer 1
10
35.224805
20
207.918319
11
35.224805
21
207.918319
0
LINE
8
Layer 1
10
44.388207
20
207.883042
11
45.864973
21
207.534548
0
LINE
8
Layer 1
10
45.864973
20
207.534548
11
46.651717
21
207.187563
0
LINE
8
Layer 1
10
46.651717
20
207.187563
11
47.148694
21
206.833528
0
LINE
8
Layer 1
10
47.148694
20
206.833528
11
47.426604
21
206.354415
0
LINE
8
Layer 1
10
47.426604
20
206.354415
11
47.460330
21
205.866786
0
LINE
8
Layer 1
10
47.460330
20
205.866786
11
47.245634
21
205.339976
0
LINE
8
Layer 1
10
47.245634
20
205.339976
11
46.778277
21
204.743319
0
LINE
8
Layer 1
10
46.778277
20
204.743319
11
45.946335
21
204.122470
0
LINE
8
Layer 1
10
45.946335
20
204.122470
11
44.732166
21
204.002486
0
LINE
8
Layer 1
10
44.732166
20
204.002486
11
42.666902
21
204.220511
0
LINE
8
Layer 1
10
42.666902
20
204.220511
11
41.133832
21
204.752139
0
LINE
8
Layer 1
10
41.133832
20
204.752139
11
40.778536
21
205.059394
0
LINE
8
Layer 1
10
40.778536
20
205.059394
11
41.380777
21
205.360681
0
LINE
8
Layer 1
10
41.380777
20
205.360681
11
42.589041
21
205.660542
0
LINE
8
Layer 1
10
42.589041
20
205.660542
11
43.367736
21
205.799550
0
LINE
8
Layer 1
10
43.367736
20
205.799550
11
44.137925
21
206.148089
0
LINE
8
Layer 1
10
44.137925
20
206.148089
11
44.726779
21
206.603427
0
LINE
8
Layer 1
10
44.726779
20
206.603427
11
44.961471
21
207.062833
0
LINE
8
Layer 1
10
44.961471
20
207.062833
11
44.830640
21
207.481505
0
LINE
8
Layer 1
10
44.830640
20
207.481505
11
44.485221
21
207.636097
0
LINE
8
Layer 1
10
44.485221
20
207.636097
11
44.208579
21
207.690185
0
LINE
8
Layer 1
10
44.208579
20
207.690185
11
44.202999
21
207.821306
0
LINE
8
Layer 1
10
44.202999
20
207.821306
11
44.388207
21
207.883042
0
LINE
8
Layer 1
10
44.388207
20
207.883042
11
44.388207
21
207.883042
0
LINE
8
Layer 1
10
39.775638
20
207.812486
11
42.143308
21
207.616931
0
LINE
8
Layer 1
10
42.143308
20
207.616931
11
42.936361
21
207.402300
0
LINE
8
Layer 1
10
42.936361
20
207.402300
11
43.206402
21
207.133389
0
LINE
8
Layer 1
10
43.206402
20
207.133389
11
42.716331
21
206.699606
0
LINE
8
Layer 1
10
42.716331
20
206.699606
11
41.728798
21
206.297243
0
LINE
8
Layer 1
10
41.728798
20
206.297243
11
40.732619
21
206.079238
0
LINE
8
Layer 1
10
40.732619
20
206.079238
11
40.384043
21
206.087162
0
LINE
8
Layer 1
10
40.384043
20
206.087162
11
40.216610
21
206.198528
0
LINE
8
Layer 1
10
40.216610
20
206.198528
11
40.025294
21
206.411286
0
LINE
8
Layer 1
10
40.025294
20
206.411286
11
39.721701
21
206.501037
0
LINE
8
Layer 1
10
39.721701
20
206.501037
11
39.440667
21
206.457172
0
LINE
8
Layer 1
10
39.440667
20
206.457172
11
39.317027
21
206.269083
0
LINE
8
Layer 1
10
39.317027
20
206.269083
11
39.476612
21
205.683562
0
LINE
8
Layer 1
10
39.476612
20
205.683562
11
39.863121
21
204.973742
0
LINE
8
Layer 1
10
39.863121
20
204.973742
11
40.338180
21
204.353763
0
LINE
8
Layer 1
10
40.338180
20
204.353763
11
40.763416
21
204.037764
0
LINE
8
Layer 1
10
40.763416
20
204.037764
11
41.157959
21
203.867576
0
LINE
8
Layer 1
10
41.157959
20
203.867576
11
41.206439
21
203.529591
0
LINE
8
Layer 1
10
41.206439
20
203.529591
11
40.066680
21
201.656514
0
LINE
8
Layer 1
10
40.066680
20
201.656514
11
38.049256
21
198.474754
0
LINE
8
Layer 1
10
38.049256
20
198.474754
11
37.173902
21
196.488319
0
LINE
8
Layer 1
10
37.173902
20
196.488319
11
36.932971
21
194.990000
0
LINE
8
Layer 1
10
36.932971
20
194.990000
11
36.852180
21
193.330852
0
LINE
8
Layer 1
10
36.852180
20
193.330852
11
36.932250
21
191.698216
0
LINE
8
Layer 1
10
36.932250
20
191.698216
11
37.173902
21
190.279431
0
LINE
8
Layer 1
10
37.173902
20
190.279431
11
37.768879
21
188.701732
0
LINE
8
Layer 1
10
37.768879
20
188.701732
11
38.884874
21
187.501306
0
LINE
8
Layer 1
10
38.884874
20
187.501306
11
39.786962
21
186.596665
0
LINE
8
Layer 1
10
39.786962
20
186.596665
11
40.163694
21
185.949083
0
LINE
8
Layer 1
10
40.163694
20
185.949083
11
40.405912
21
185.163595
0
LINE
8
Layer 1
10
40.405912
20
185.163595
11
40.992721
21
183.929431
0
LINE
8
Layer 1
10
40.992721
20
183.929431
11
41.651036
21
182.369627
0
LINE
8
Layer 1
10
41.651036
20
182.369627
11
41.839388
21
180.789708
0
LINE
8
Layer 1
10
41.839388
20
180.789708
11
42.024596
21
178.329083
0
LINE
8
Layer 1
10
42.024596
20
178.329083
11
42.264906
21
177.657089
0
LINE
8
Layer 1
10
42.264906
20
177.657089
11
42.756610
21
177.755819
0
LINE
8
Layer 1
10
42.756610
20
177.755819
11
43.361047
21
177.915558
0
LINE
8
Layer 1
10
43.361047
20
177.915558
11
44.026610
21
177.879292
0
LINE
8
Layer 1
10
44.026610
20
177.879292
11
44.428167
21
177.841506
0
LINE
8
Layer 1
10
44.428167
20
177.841506
11
44.836087
21
177.963895
0
LINE
8
Layer 1
10
44.836087
20
177.963895
11
45.958069
21
178.831792
0
LINE
8
Layer 1
10
45.958069
20
178.831792
11
46.989710
21
179.669423
0
LINE
8
Layer 1
10
46.989710
20
179.669423
11
47.858265
21
180.102790
0
LINE
8
Layer 1
10
47.858265
20
180.102790
11
48.630003
21
180.152011
0
LINE
8
Layer 1
10
48.630003
20
180.152011
11
49.371194
21
179.837208
0
LINE
8
Layer 1
10
49.371194
20
179.837208
11
49.792727
21
179.515356
0
LINE
8
Layer 1
10
49.792727
20
179.515356
11
49.998185
21
179.085301
0
LINE
8
Layer 1
10
49.998185
20
179.085301
11
49.970916
21
176.812139
0
LINE
8
Layer 1
10
49.970916
20
176.812139
11
49.952523
21
174.502644
0
LINE
8
Layer 1
10
49.952523
20
174.502644
11
50.136676
21
173.876694
0
LINE
8
Layer 1
10
50.136676
20
173.876694
11
50.500082
21
173.266722
0
LINE
8
Layer 1
10
50.500082
20
173.266722
11
51.058157
21
172.238202
0
LINE
8
Layer 1
10
51.058157
20
172.238202
11
51.543933
21
170.978497
0
LINE
8
Layer 1
10
51.543933
20
170.978497
11
51.887020
21
169.703147
0
LINE
8
Layer 1
10
51.887020
20
169.703147
11
52.017027
21
168.627694
0
LINE
8
Layer 1
10
52.017027
20
168.627694
11
52.139663
21
168.004975
0
LINE
8
Layer 1
10
52.139663
20
168.004975
11
52.449180
21
167.657556
0
LINE
8
Layer 1
10
52.449180
20
167.657556
11
53.010453
21
167.156338
0
LINE
8
Layer 1
10
53.010453
20
167.156338
11
53.754457
21
166.184708
0
LINE
8
Layer 1
10
53.754457
20
166.184708
11
55.068555
21
164.535472
0
LINE
8
Layer 1
10
55.068555
20
164.535472
11
55.387360
21
163.885621
0
LINE
8
Layer 1
10
55.387360
20
163.885621
11
55.430152
21
162.507000
0
LINE
8
Layer 1
10
55.430152
20
162.507000
11
55.496580
21
161.017082
0
LINE
8
Layer 1
10
55.496580
20
161.017082
11
55.835846
21
159.896444
0
LINE
8
Layer 1
10
55.835846
20
159.896444
11
56.414966
21
158.975165
0
LINE
8
Layer 1
10
56.414966
20
158.975165
11
57.158061
21
158.074317
0
LINE
8
Layer 1
10
57.158061
20
158.074317
11
57.883868
21
157.390002
0
LINE
8
Layer 1
10
57.883868
20
157.390002
11
58.411124
21
157.118319
0
LINE
8
Layer 1
10
58.411124
20
157.118319
11
58.852674
21
157.341611
0
LINE
8
Layer 1
10
58.852674
20
157.341611
11
59.340672
21
158.066543
0
LINE
8
Layer 1
10
59.340672
20
158.066543
11
60.624805
21
161.351653
0
LINE
8
Layer 1
10
60.624805
20
161.351653
11
61.399714
21
163.525026
0
LINE
8
Layer 1
10
61.399714
20
163.525026
11
62.003944
21
164.814011
0
LINE
8
Layer 1
10
62.003944
20
164.814011
11
62.571242
21
165.432355
0
LINE
8
Layer 1
10
62.571242
20
165.432355
11
63.235360
21
165.593806
0
LINE
8
Layer 1
10
63.235360
20
165.593806
11
64.337791
21
165.805472
0
LINE
8
Layer 1
10
64.337791
20
165.805472
11
64.926496
21
166.820512
0
LINE
8
Layer 1
10
64.926496
20
166.820512
11
65.881194
21
168.971653
0
LINE
8
Layer 1
10
65.881194
20
168.971653
11
66.906867
21
171.879641
0
LINE
8
Layer 1
10
66.906867
20
171.879641
11
67.061841
21
173.036203
0
LINE
8
Layer 1
10
67.061841
20
173.036203
11
67.098277
21
174.527903
0
LINE
8
Layer 1
10
67.098277
20
174.527903
11
66.980368
21
176.923692
0
LINE
8
Layer 1
10
66.980368
20
176.923692
11
66.717293
21
177.614668
0
LINE
8
Layer 1
10
66.717293
20
177.614668
11
66.225152
21
178.373181
0
LINE
8
Layer 1
10
66.225152
20
178.373181
11
65.031144
21
180.531534
0
LINE
8
Layer 1
10
65.031144
20
180.531534
11
64.770359
21
181.412862
0
LINE
8
Layer 1
10
64.770359
20
181.412862
11
64.787582
21
182.024431
0
LINE
8
Layer 1
10
64.787582
20
182.024431
11
65.136109
21
182.364374
0
LINE
8
Layer 1
10
65.136109
20
182.364374
11
65.748902
21
182.597694
0
LINE
8
Layer 1
10
65.748902
20
182.597694
11
66.170942
21
182.750646
0
LINE
8
Layer 1
10
66.170942
20
182.750646
11
66.562891
21
183.054548
0
LINE
8
Layer 1
10
66.562891
20
183.054548
11
67.406957
21
184.264569
0
LINE
8
Layer 1
10
67.406957
20
184.264569
11
68.321191
21
185.552634
0
LINE
8
Layer 1
10
68.321191
20
185.552634
11
68.807492
21
185.893149
0
LINE
8
Layer 1
10
68.807492
20
185.893149
11
69.435430
21
186.143111
0
LINE
8
Layer 1
10
69.435430
20
186.143111
11
70.244306
21
186.518994
0
LINE
8
Layer 1
10
70.244306
20
186.518994
11
71.073622
21
187.148013
0
LINE
8
Layer 1
10
71.073622
20
187.148013
11
72.901471
21
189.265194
0
LINE
8
Layer 1
10
72.901471
20
189.265194
11
73.184141
21
189.576195
0
LINE
8
Layer 1
10
73.184141
20
189.576195
11
73.560263
21
189.715175
0
LINE
8
Layer 1
10
73.560263
20
189.715175
11
75.300360
21
189.573875
0
LINE
8
Layer 1
10
75.300360
20
189.573875
11
85.742582
21
188.736028
0
LINE
8
Layer 1
10
85.742582
20
188.736028
11
95.595121
21
187.985856
0
LINE
8
Layer 1
10
95.595121
20
187.985856
11
100.047721
21
187.430750
0
LINE
8
Layer 1
10
100.047721
20
187.430750
11
100.296443
21
187.282654
0
LINE
8
Layer 1
10
100.296443
20
187.282654
11
100.420350
21
186.933518
0
LINE
8
Layer 1
10
100.420350
20
186.933518
11
100.365221
21
185.093597
0
LINE
8
Layer 1
10
100.365221
20
185.093597
11
100.323308
21
183.334217
0
LINE
8
Layer 1
10
100.323308
20
183.334217
11
100.506332
21
182.333111
0
LINE
8
Layer 1
10
100.506332
20
182.333111
11
100.637203
21
181.649430
0
LINE
8
Layer 1
10
100.637203
20
181.649430
11
100.259388
21
180.666236
0
LINE
8
Layer 1
10
100.259388
20
180.666236
11
99.712582
21
179.069917
0
LINE
8
Layer 1
10
99.712582
20
179.069917
11
99.523334
21
178.607573
0
LINE
8
Layer 1
10
99.523334
20
178.607573
11
98.843384
21
178.290111
0
LINE
8
Layer 1
10
98.843384
20
178.290111
11
97.504422
21
178.073715
0
LINE
8
Layer 1
10
97.504422
20
178.073715
11
95.338138
21
177.914569
0
LINE
8
Layer 1
10
95.338138
20
177.914569
11
93.117607
21
177.741827
0
LINE
8
Layer 1
10
93.117607
20
177.741827
11
91.445187
21
177.478446
0
LINE
8
Layer 1
10
91.445187
20
177.478446
11
90.140561
21
177.084759
0
LINE
8
Layer 1
10
90.140561
20
177.084759
11
89.023416
21
176.521097
0
LINE
8
Layer 1
10
89.023416
20
176.521097
11
88.487521
21
176.163566
0
LINE
8
Layer 1
10
88.487521
20
176.163566
11
88.219957
21
175.822376
0
LINE
8
Layer 1
10
88.219957
20
175.822376
11
88.153480
21
175.325634
0
LINE
8
Layer 1
10
88.153480
20
175.325634
11
88.220846
21
174.501444
0
LINE
8
Layer 1
10
88.220846
20
174.501444
11
88.551725
21
172.991563
0
LINE
8
Layer 1
10
88.551725
20
172.991563
11
89.129249
21
171.379361
0
LINE
8
Layer 1
10
89.129249
20
171.379361
11
89.704494
21
169.830518
0
LINE
8
Layer 1
10
89.704494
20
169.830518
11
89.661087
21
169.397357
0
LINE
8
Layer 1
10
89.661087
20
169.397357
11
89.429110
21
168.936375
0
LINE
8
Layer 1
10
89.429110
20
168.936375
11
89.170574
21
168.310217
0
LINE
8
Layer 1
10
89.170574
20
168.310217
11
89.210134
21
167.638869
0
LINE
8
Layer 1
10
89.210134
20
167.638869
11
89.595102
21
166.743148
0
LINE
8
Layer 1
10
89.595102
20
166.743148
11
90.372791
21
165.443875
0
LINE
8
Layer 1
10
90.372791
20
165.443875
11
90.989494
21
164.283010
0
LINE
8
Layer 1
10
90.989494
20
164.283010
11
91.245916
21
163.424222
0
LINE
8
Layer 1
10
91.245916
20
163.424222
11
91.408544
21
162.891095
0
LINE
8
Layer 1
10
91.408544
20
162.891095
11
91.925013
21
162.604014
0
LINE
8
Layer 1
10
91.925013
20
162.604014
11
92.316068
21
162.364350
0
LINE
8
Layer 1
10
92.316068
20
162.364350
11
92.699175
21
161.869629
0
LINE
8
Layer 1
10
92.699175
20
161.869629
11
93.387063
21
160.284574
0
LINE
8
Layer 1
10
93.387063
20
160.284574
11
93.879708
21
158.187954
0
LINE
8
Layer 1
10
93.879708
20
158.187954
11
94.068138
21
155.918875
0
LINE
8
Layer 1
10
94.068138
20
155.918875
11
94.205599
21
154.423422
0
LINE
8
Layer 1
10
94.205599
20
154.423422
11
94.606124
21
153.211306
0
LINE
8
Layer 1
10
94.606124
20
153.211306
11
95.350069
21
152.056410
0
LINE
8
Layer 1
10
95.350069
20
152.056410
11
96.396455
21
150.776846
0
LINE
8
Layer 1
10
96.396455
20
150.776846
11
97.497971
21
149.649563
0
LINE
8
Layer 1
10
97.497971
20
149.649563
11
98.407305
21
148.951514
0
LINE
8
Layer 1
10
98.407305
20
148.951514
11
98.947362
21
148.496381
0
LINE
8
Layer 1
10
98.947362
20
148.496381
11
99.148138
21
147.937278
0
LINE
8
Layer 1
10
99.148138
20
147.937278
11
99.360474
21
147.458937
0
LINE
8
Layer 1
10
99.360474
20
147.458937
11
100.121532
21
147.162854
0
LINE
8
Layer 1
10
100.121532
20
147.162854
11
101.617386
21
147.011448
0
LINE
8
Layer 1
10
101.617386
20
147.011448
11
104.034110
21
146.967139
0
LINE
8
Layer 1
10
104.034110
20
146.967139
11
106.607314
21
147.094704
0
LINE
8
Layer 1
10
106.607314
20
147.094704
11
108.549666
21
147.637417
0
LINE
8
Layer 1
10
108.549666
20
147.637417
11
110.237934
21
148.156749
0
LINE
8
Layer 1
10
110.237934
20
148.156749
11
111.848138
21
148.457625
0
LINE
8
Layer 1
10
111.848138
20
148.457625
11
113.515427
21
148.824895
0
LINE
8
Layer 1
10
113.515427
20
148.824895
11
115.367096
21
149.533597
0
LINE
8
Layer 1
10
115.367096
20
149.533597
11
116.756829
21
150.108580
0
LINE
8
Layer 1
10
116.756829
20
150.108580
11
117.952591
21
150.383766
0
LINE
8
Layer 1
10
117.952591
20
150.383766
11
119.163089
21
150.381593
0
LINE
8
Layer 1
10
119.163089
20
150.381593
11
120.597027
21
150.124500
0
LINE
8
Layer 1
10
120.597027
20
150.124500
11
122.334654
21
149.966432
0
LINE
8
Layer 1
10
122.334654
20
149.966432
11
125.112582
21
150.124500
0
LINE
8
Layer 1
10
125.112582
20
150.124500
11
128.358138
21
150.433181
0
LINE
8
Layer 1
10
128.358138
20
150.433181
11
129.381194
21
151.597347
0
LINE
8
Layer 1
10
129.381194
20
151.597347
11
130.390076
21
152.575003
0
LINE
8
Layer 1
10
130.390076
20
152.575003
11
131.365569
21
153.281861
0
LINE
8
Layer 1
10
131.365569
20
153.281861
11
132.181654
21
153.939233
0
LINE
8
Layer 1
10
132.181654
20
153.939233
11
132.803138
21
154.816444
0
LINE
8
Layer 1
10
132.803138
20
154.816444
11
133.984944
21
157.118319
0
LINE
8
Layer 1
10
133.984944
20
157.118319
11
134.593179
21
158.443897
0
LINE
8
Layer 1
10
134.593179
20
158.443897
11
134.686018
21
158.981503
0
LINE
8
Layer 1
10
134.686018
20
158.981503
11
134.622844
21
159.488835
0
LINE
8
Layer 1
10
134.622844
20
159.488835
11
133.982987
21
160.572213
0
LINE
8
Layer 1
10
133.982987
20
160.572213
11
132.582652
21
162.013111
0
LINE
8
Layer 1
10
132.582652
20
162.013111
11
131.205955
21
163.422388
0
LINE
8
Layer 1
10
131.205955
20
163.422388
11
130.553493
21
164.534599
0
LINE
8
Layer 1
10
130.553493
20
164.534599
11
130.494482
21
165.772924
0
LINE
8
Layer 1
10
130.494482
20
165.772924
11
130.898138
21
167.560542
0
LINE
8
Layer 1
10
130.898138
20
167.560542
11
131.218860
21
169.019365
0
LINE
8
Layer 1
10
131.218860
20
169.019365
11
131.266635
21
170.170694
0
LINE
8
Layer 1
10
131.266635
20
170.170694
11
131.024328
21
171.223006
0
LINE
8
Layer 1
10
131.024328
20
171.223006
11
130.474805
21
172.384778
0
LINE
8
Layer 1
10
130.474805
20
172.384778
11
129.792251
21
174.046971
0
LINE
8
Layer 1
10
129.792251
20
174.046971
11
129.700358
21
175.382157
0
LINE
8
Layer 1
10
129.700358
20
175.382157
11
129.869523
21
175.890323
0
LINE
8
Layer 1
10
129.869523
20
175.890323
11
130.178691
21
176.272578
0
LINE
8
Layer 1
10
130.178691
20
176.272578
11
130.625308
21
176.514201
0
LINE
8
Layer 1
10
130.625308
20
176.514201
11
131.206819
21
176.600472
0
LINE
8
Layer 1
10
131.206819
20
176.600472
11
132.084210
21
176.788919
0
LINE
8
Layer 1
10
132.084210
20
176.788919
11
133.050082
21
177.235472
0
LINE
8
Layer 1
10
133.050082
20
177.235472
11
135.042299
21
178.463234
0
LINE
8
Layer 1
10
135.042299
20
178.463234
11
136.040814
21
179.203053
0
LINE
8
Layer 1
10
136.040814
20
179.203053
11
136.445751
21
179.854255
0
LINE
8
Layer 1
10
136.445751
20
179.854255
11
136.657235
21
180.816167
0
LINE
8
Layer 1
10
136.657235
20
180.816167
11
137.386921
21
183.177699
0
LINE
8
Layer 1
10
137.386921
20
183.177699
11
138.456402
21
185.102417
0
LINE
8
Layer 1
10
138.456402
20
185.102417
11
139.402760
21
186.100995
0
LINE
8
Layer 1
10
139.402760
20
186.100995
11
139.873986
21
186.373986
0
LINE
8
Layer 1
10
139.873986
20
186.373986
11
140.326124
21
186.469431
0
LINE
8
Layer 1
10
140.326124
20
186.469431
11
142.072374
21
186.539986
0
LINE
8
Layer 1
10
142.072374
20
186.539986
11
144.303694
21
186.637000
0
LINE
8
Layer 1
10
144.303694
20
186.637000
11
146.684944
21
186.654639
0
LINE
8
Layer 1
10
146.684944
20
186.654639
11
148.078416
21
186.610542
0
LINE
8
Layer 1
10
148.078416
20
186.610542
11
149.604180
21
183.223875
0
LINE
8
Layer 1
10
149.604180
20
183.223875
11
151.129944
21
179.837208
0
LINE
8
Layer 1
10
151.129944
20
179.837208
11
150.821263
21
178.143875
0
LINE
8
Layer 1
10
150.821263
20
178.143875
11
150.345013
21
175.709708
0
LINE
8
Layer 1
10
150.345013
20
175.709708
11
150.384192
21
174.927569
0
LINE
8
Layer 1
10
150.384192
20
174.927569
11
151.006471
21
174.034014
0
LINE
8
Layer 1
10
151.006471
20
174.034014
11
151.844319
21
173.099153
0
LINE
8
Layer 1
10
151.844319
20
173.099153
11
155.336819
21
173.407833
0
LINE
8
Layer 1
10
155.336819
20
173.407833
11
159.473138
21
173.919361
0
LINE
8
Layer 1
10
159.473138
20
173.919361
11
159.831718
21
173.996285
0
LINE
8
Layer 1
10
159.831718
20
173.996285
11
160.021182
21
173.839217
0
LINE
8
Layer 1
10
160.021182
20
173.839217
11
160.108138
21
172.261306
0
LINE
8
Layer 1
10
160.108138
20
172.261306
11
160.221496
21
170.611197
0
LINE
8
Layer 1
10
160.221496
20
170.611197
11
160.458908
21
170.259232
0
LINE
8
Layer 1
10
160.458908
20
170.259232
11
160.901888
21
169.985889
0
LINE
8
Layer 1
10
160.901888
20
169.985889
11
161.532854
21
169.483745
0
LINE
8
Layer 1
10
161.532854
20
169.483745
11
161.572166
21
168.680611
0
LINE
8
Layer 1
10
161.572166
20
168.680611
11
161.614604
21
167.820508
0
LINE
8
Layer 1
10
161.614604
20
167.820508
11
162.021957
21
167.013736
0
LINE
8
Layer 1
10
162.021957
20
167.013736
11
162.604041
21
166.228806
0
LINE
8
Layer 1
10
162.604041
20
166.228806
11
161.898485
21
164.288528
0
LINE
8
Layer 1
10
161.898485
20
164.288528
11
161.431033
21
162.691079
0
LINE
8
Layer 1
10
161.431033
20
162.691079
11
161.227451
21
161.219494
0
LINE
8
Layer 1
10
161.227451
20
161.219494
11
161.291036
21
159.930846
0
LINE
8
Layer 1
10
161.291036
20
159.930846
11
161.625082
21
158.882208
0
LINE
8
Layer 1
10
161.625082
20
158.882208
11
161.951805
21
158.422176
0
LINE
8
Layer 1
10
161.951805
20
158.422176
11
162.516054
21
158.037376
0
LINE
8
Layer 1
10
162.516054
20
158.037376
11
165.152860
21
157.100681
0
LINE
8
Layer 1
10
165.152860
20
157.100681
11
167.819407
21
156.177138
0
LINE
8
Layer 1
10
167.819407
20
156.177138
11
168.117894
21
155.855752
0
LINE
8
Layer 1
10
168.117894
20
155.855752
11
168.063277
21
155.433806
0
LINE
8
Layer 1
10
168.063277
20
155.433806
11
167.933968
21
154.022046
0
LINE
8
Layer 1
10
167.933968
20
154.022046
11
167.929487
21
151.748170
0
LINE
8
Layer 1
10
167.929487
20
151.748170
11
168.031588
21
149.451800
0
LINE
8
Layer 1
10
168.031588
20
149.451800
11
168.222027
21
147.972556
0
LINE
8
Layer 1
10
168.222027
20
147.972556
11
168.647358
21
147.248160
0
LINE
8
Layer 1
10
168.647358
20
147.248160
11
169.544944
21
146.773111
0
LINE
8
Layer 1
10
169.544944
20
146.773111
11
170.941078
21
146.115514
0
LINE
8
Layer 1
10
170.941078
20
146.115514
11
171.283924
21
145.775865
0
LINE
8
Layer 1
10
171.283924
20
145.775865
11
171.397027
21
145.423736
0
LINE
8
Layer 1
10
171.397027
20
145.423736
11
170.259319
21
143.571653
0
LINE
8
Layer 1
10
170.259319
20
143.571653
11
169.523684
21
142.427597
0
LINE
8
Layer 1
10
169.523684
20
142.427597
11
169.421471
21
141.878319
0
LINE
8
Layer 1
10
169.421471
20
141.878319
11
169.434666
21
141.384241
0
LINE
8
Layer 1
10
169.434666
20
141.384241
11
168.954041
21
140.334917
0
LINE
8
Layer 1
10
168.954041
20
140.334917
11
168.290972
21
139.317262
0
LINE
8
Layer 1
10
168.290972
20
139.317262
11
168.116358
21
139.280950
0
LINE
8
Layer 1
10
168.116358
20
139.280950
11
167.983902
21
139.505889
0
LINE
8
Layer 1
10
167.983902
20
139.505889
11
167.763893
21
139.821408
0
LINE
8
Layer 1
10
167.763893
20
139.821408
11
167.463555
21
139.232486
0
LINE
8
Layer 1
10
167.463555
20
139.232486
11
167.299362
21
138.650297
0
LINE
8
Layer 1
10
167.299362
20
138.650297
11
167.309769
21
138.282144
0
LINE
8
Layer 1
10
167.309769
20
138.282144
11
167.465419
21
138.206158
0
LINE
8
Layer 1
10
167.465419
20
138.206158
11
167.736957
21
138.500472
0
LINE
8
Layer 1
10
167.736957
20
138.500472
11
167.944415
21
138.685494
0
LINE
8
Layer 1
10
167.944415
20
138.685494
11
168.001541
21
138.227069
0
LINE
8
Layer 1
10
168.001541
20
138.227069
11
167.783115
21
137.510628
0
LINE
8
Layer 1
10
167.783115
20
137.510628
11
167.251888
21
136.754222
0
LINE
8
Layer 1
10
167.251888
20
136.754222
11
166.502235
21
135.960472
0
LINE
8
Layer 1
10
166.502235
20
135.960472
11
167.110777
21
135.431306
0
LINE
8
Layer 1
10
167.110777
20
135.431306
11
167.424843
21
135.087308
0
LINE
8
Layer 1
10
167.424843
20
135.087308
11
167.612884
21
134.646648
0
LINE
8
Layer 1
10
167.612884
20
134.646648
11
167.728138
21
132.997139
0
LINE
8
Layer 1
10
167.728138
20
132.997139
11
167.841235
21
131.217661
0
LINE
8
Layer 1
10
167.841235
20
131.217661
11
168.184071
21
129.414855
0
LINE
8
Layer 1
10
168.184071
20
129.414855
11
168.761961
21
127.570952
0
LINE
8
Layer 1
10
168.761961
20
127.570952
11
169.580221
21
125.668181
0
LINE
8
Layer 1
10
169.580221
20
125.668181
11
170.264645
21
124.012289
0
LINE
8
Layer 1
10
170.264645
20
124.012289
11
170.550360
21
122.828319
0
LINE
8
Layer 1
10
170.550360
20
122.828319
11
170.300602
21
121.027977
0
LINE
8
Layer 1
10
170.300602
20
121.027977
11
169.606317
21
118.255668
0
LINE
8
Layer 1
10
169.606317
20
118.255668
11
167.207791
21
110.939708
0
LINE
8
Layer 1
10
167.207791
20
110.939708
11
165.450055
21
105.922137
0
LINE
8
Layer 1
10
165.450055
20
105.922137
11
164.304786
21
102.037408
0
LINE
8
Layer 1
10
164.304786
20
102.037408
11
163.682772
21
98.932736
0
LINE
8
Layer 1
10
163.682772
20
98.932736
11
163.494805
21
96.255333
0
LINE
8
Layer 1
10
163.494805
20
96.255333
11
163.494805
21
94.791306
0
LINE
8
Layer 1
10
163.494805
20
94.791306
11
161.933763
21
94.597278
0
LINE
8
Layer 1
10
161.933763
20
94.597278
11
160.795398
21
94.392789
0
LINE
8
Layer 1
10
160.795398
20
94.392789
11
160.240430
21
94.173944
0
LINE
8
Layer 1
10
160.240430
20
94.173944
11
160.434457
21
92.665819
0
LINE
8
Layer 1
10
160.434457
20
92.665819
11
160.634686
21
91.505956
0
LINE
8
Layer 1
10
160.634686
20
91.505956
11
160.524555
21
91.159938
0
LINE
8
Layer 1
10
160.524555
20
91.159938
11
160.258069
21
90.813736
0
LINE
8
Layer 1
10
160.258069
20
90.813736
11
159.801316
21
90.418412
0
LINE
8
Layer 1
10
159.801316
20
90.418412
11
159.380198
21
90.256968
0
LINE
8
Layer 1
10
159.380198
20
90.256968
11
159.032009
21
90.334221
0
LINE
8
Layer 1
10
159.032009
20
90.334221
11
158.794041
21
90.654986
0
LINE
8
Layer 1
10
158.794041
20
90.654986
11
158.576511
21
90.953964
0
LINE
8
Layer 1
10
158.576511
20
90.953964
11
158.282513
21
91.078319
0
LINE
8
Layer 1
10
158.282513
20
91.078319
11
157.941936
21
91.285575
0
LINE
8
Layer 1
10
157.941936
20
91.285575
11
157.612235
21
91.783875
0
LINE
8
Layer 1
10
157.612235
20
91.783875
11
157.237686
21
92.282173
0
LINE
8
Layer 1
10
157.237686
20
92.282173
11
156.783207
21
92.489431
0
LINE
8
Layer 1
10
156.783207
20
92.489431
11
156.054355
21
92.736593
0
LINE
8
Layer 1
10
156.054355
20
92.736593
11
154.991996
21
93.305075
0
LINE
8
Layer 1
10
154.991996
20
93.305075
11
154.033698
21
93.935371
0
LINE
8
Layer 1
10
154.033698
20
93.935371
11
153.617027
21
94.367972
0
LINE
8
Layer 1
10
153.617027
20
94.367972
11
155.151610
21
97.269569
0
LINE
8
Layer 1
10
155.151610
20
97.269569
11
157.204560
21
101.394904
0
LINE
8
Layer 1
10
157.204560
20
101.394904
11
158.837109
21
105.823063
0
LINE
8
Layer 1
10
158.837109
20
105.823063
11
160.053454
21
110.564996
0
LINE
8
Layer 1
10
160.053454
20
110.564996
11
160.857791
21
115.631653
0
LINE
8
Layer 1
10
160.857791
20
115.631653
11
160.838842
21
116.955444
0
LINE
8
Layer 1
10
160.838842
20
116.955444
11
160.554290
21
118.587640
0
LINE
8
Layer 1
10
160.554290
20
118.587640
11
160.044457
21
120.351391
0
LINE
8
Layer 1
10
160.044457
20
120.351391
11
159.349666
21
122.069847
0
LINE
8
Layer 1
10
159.349666
20
122.069847
11
157.034471
21
128.249426
0
LINE
8
Layer 1
10
157.034471
20
128.249426
11
154.745916
21
135.616514
0
LINE
8
Layer 1
10
154.745916
20
135.616514
11
153.941784
21
138.248976
0
LINE
8
Layer 1
10
153.941784
20
138.248976
11
153.052570
21
140.038330
0
LINE
8
Layer 1
10
153.052570
20
140.038330
11
151.881140
21
141.270421
0
LINE
8
Layer 1
10
151.881140
20
141.270421
11
150.230360
21
142.231097
0
LINE
8
Layer 1
10
150.230360
20
142.231097
11
148.636174
21
142.712749
0
LINE
8
Layer 1
10
148.636174
20
142.712749
11
145.997027
21
142.822000
0
LINE
8
Layer 1
10
145.997027
20
142.822000
11
143.521666
21
142.691779
0
LINE
8
Layer 1
10
143.521666
20
142.691779
11
141.499790
21
142.237913
0
LINE
8
Layer 1
10
141.499790
20
142.237913
11
139.601046
21
141.348487
0
LINE
8
Layer 1
10
139.601046
20
141.348487
11
137.495082
21
139.911583
0
LINE
8
Layer 1
10
137.495082
20
139.911583
11
135.507231
21
138.569667
0
LINE
8
Layer 1
10
135.507231
20
138.569667
11
134.839444
21
138.291327
0
LINE
8
Layer 1
10
134.839444
20
138.291327
11
134.267166
21
138.209431
0
LINE
8
Layer 1
10
134.267166
20
138.209431
11
133.409420
21
138.047334
0
LINE
8
Layer 1
10
133.409420
20
138.047334
11
132.873694
21
137.371583
0
LINE
8
Layer 1
10
132.873694
20
137.371583
11
132.338857
21
136.662002
0
LINE
8
Layer 1
10
132.338857
20
136.662002
11
131.665430
21
136.136861
0
LINE
8
Layer 1
10
131.665430
20
136.136861
11
128.057753
21
134.779801
0
LINE
8
Layer 1
10
128.057753
20
134.779801
11
126.099793
21
134.209962
0
LINE
8
Layer 1
10
126.099793
20
134.209962
11
124.865638
21
133.976097
0
LINE
8
Layer 1
10
124.865638
20
133.976097
11
124.188081
21
133.870693
0
LINE
8
Layer 1
10
124.188081
20
133.870693
11
123.983694
21
133.517486
0
LINE
8
Layer 1
10
123.983694
20
133.517486
11
124.095352
21
133.303450
0
LINE
8
Layer 1
10
124.095352
20
133.303450
11
124.414006
21
133.183676
0
LINE
8
Layer 1
10
124.414006
20
133.183676
11
125.574372
21
133.213615
0
LINE
8
Layer 1
10
125.574372
20
133.213615
11
127.268929
21
133.580698
0
LINE
8
Layer 1
10
127.268929
20
133.580698
11
129.301819
21
134.258319
0
LINE
8
Layer 1
10
129.301819
20
134.258319
11
131.430644
21
134.970194
0
LINE
8
Layer 1
10
131.430644
20
134.970194
11
131.976052
21
134.945769
0
LINE
8
Layer 1
10
131.976052
20
134.945769
11
132.529735
21
134.716931
0
LINE
8
Layer 1
10
132.529735
20
134.716931
11
133.112197
21
134.401795
0
LINE
8
Layer 1
10
133.112197
20
134.401795
11
133.244110
21
134.267139
0
LINE
8
Layer 1
10
133.244110
20
134.267139
11
133.177739
21
134.021545
0
LINE
8
Layer 1
10
133.177739
20
134.021545
11
133.288207
21
133.438111
0
LINE
8
Layer 1
10
133.288207
20
133.438111
11
133.416407
21
132.814623
0
LINE
8
Layer 1
10
133.416407
20
132.814623
11
133.352721
21
132.490073
0
LINE
8
Layer 1
10
133.352721
20
132.490073
11
133.091415
21
132.458744
0
LINE
8
Layer 1
10
133.091415
20
132.458744
11
132.626749
21
132.714917
0
LINE
8
Layer 1
10
132.626749
20
132.714917
11
131.755251
21
133.094078
0
LINE
8
Layer 1
10
131.755251
20
133.094078
11
131.058841
21
133.052178
0
LINE
8
Layer 1
10
131.058841
20
133.052178
11
130.758329
21
132.680693
0
LINE
8
Layer 1
10
130.758329
20
132.680693
11
131.074527
21
132.071097
0
LINE
8
Layer 1
10
131.074527
20
132.071097
11
131.168878
21
131.741439
0
LINE
8
Layer 1
10
131.168878
20
131.741439
11
130.651194
21
131.400819
0
LINE
8
Layer 1
10
130.651194
20
131.400819
11
129.996477
21
131.209376
0
LINE
8
Layer 1
10
129.996477
20
131.209376
11
129.584041
21
131.365542
0
LINE
8
Layer 1
10
129.584041
20
131.365542
11
129.082296
21
131.415205
0
LINE
8
Layer 1
10
129.082296
20
131.415205
11
128.338660
21
131.121677
0
LINE
8
Layer 1
10
128.338660
20
131.121677
11
127.664295
21
130.652426
0
LINE
8
Layer 1
10
127.664295
20
130.652426
11
127.370360
21
130.174917
0
LINE
8
Layer 1
10
127.370360
20
130.174917
11
127.251505
21
129.866759
0
LINE
8
Layer 1
10
127.251505
20
129.866759
11
126.898338
21
129.643030
0
LINE
8
Layer 1
10
126.898338
20
129.643030
11
125.509457
21
129.460542
0
LINE
8
Layer 1
10
125.509457
20
129.460542
11
124.829830
21
129.388492
0
LINE
8
Layer 1
10
124.829830
20
129.388492
11
124.548138
21
129.213597
0
LINE
8
Layer 1
10
124.548138
20
129.213597
11
124.761973
21
128.975333
0
LINE
8
Layer 1
10
124.761973
20
128.975333
11
125.354284
21
128.825824
0
LINE
8
Layer 1
10
125.354284
20
128.825824
11
127.379180
21
128.834361
0
LINE
8
Layer 1
10
127.379180
20
128.834361
11
128.598804
21
129.079114
0
LINE
8
Layer 1
10
128.598804
20
129.079114
11
128.913101
21
129.306270
0
LINE
8
Layer 1
10
128.913101
20
129.306270
11
129.125430
21
129.645750
0
LINE
8
Layer 1
10
129.125430
20
129.645750
11
129.430744
21
130.081841
0
LINE
8
Layer 1
10
129.430744
20
130.081841
11
129.782181
21
130.290761
0
LINE
8
Layer 1
10
129.782181
20
130.290761
11
130.072031
21
130.245527
0
LINE
8
Layer 1
10
130.072031
20
130.245527
11
130.192582
21
129.919153
0
LINE
8
Layer 1
10
130.192582
20
129.919153
11
130.068228
21
129.541015
0
LINE
8
Layer 1
10
130.068228
20
129.541015
11
129.769249
21
129.178319
0
LINE
8
Layer 1
10
129.769249
20
129.178319
11
129.360116
21
128.584584
0
LINE
8
Layer 1
10
129.360116
20
128.584584
11
129.465446
21
128.400044
0
LINE
8
Layer 1
10
129.465446
20
128.400044
11
129.778069
21
128.331653
0
LINE
8
Layer 1
10
129.778069
20
128.331653
11
130.210970
21
128.621812
0
LINE
8
Layer 1
10
130.210970
20
128.621812
11
130.633555
21
129.319431
0
LINE
8
Layer 1
10
130.633555
20
129.319431
11
130.893291
21
129.867763
0
LINE
8
Layer 1
10
130.893291
20
129.867763
11
131.178951
21
130.162570
0
LINE
8
Layer 1
10
131.178951
20
130.162570
11
131.628475
21
130.280546
0
LINE
8
Layer 1
10
131.628475
20
130.280546
11
132.379805
21
130.298389
0
LINE
8
Layer 1
10
132.379805
20
130.298389
11
133.720360
21
130.289569
0
LINE
8
Layer 1
10
133.720360
20
130.289569
11
133.085360
21
129.760403
0
LINE
8
Layer 1
10
133.085360
20
129.760403
11
132.659428
21
129.327403
0
LINE
8
Layer 1
10
132.659428
20
129.327403
11
132.470669
21
128.961491
0
LINE
8
Layer 1
10
132.470669
20
128.961491
11
132.529724
21
128.708402
0
LINE
8
Layer 1
10
132.529724
20
128.708402
11
132.847235
21
128.613875
0
LINE
8
Layer 1
10
132.847235
20
128.613875
11
134.171641
21
128.976384
0
LINE
8
Layer 1
10
134.171641
20
128.976384
11
135.457791
21
129.786861
0
LINE
8
Layer 1
10
135.457791
20
129.786861
11
136.066332
21
130.360125
0
LINE
8
Layer 1
10
136.066332
20
130.360125
11
136.251541
21
129.698667
0
LINE
8
Layer 1
10
136.251541
20
129.698667
11
136.724016
21
128.933956
0
LINE
8
Layer 1
10
136.724016
20
128.933956
11
137.592096
21
128.022972
0
LINE
8
Layer 1
10
137.592096
20
128.022972
11
138.304037
21
127.275821
0
LINE
8
Layer 1
10
138.304037
20
127.275821
11
138.440806
21
126.869409
0
LINE
8
Layer 1
10
138.440806
20
126.869409
11
138.047386
21
126.874414
0
LINE
8
Layer 1
10
138.047386
20
126.874414
11
137.168763
21
127.361514
0
LINE
8
Layer 1
10
137.168763
20
127.361514
11
136.399759
21
127.822907
0
LINE
8
Layer 1
10
136.399759
20
127.822907
11
135.709664
21
128.008695
0
LINE
8
Layer 1
10
135.709664
20
128.008695
11
134.851740
21
127.937039
0
LINE
8
Layer 1
10
134.851740
20
127.937039
11
133.579249
21
127.626097
0
LINE
8
Layer 1
10
133.579249
20
127.626097
11
129.304058
21
126.797560
0
LINE
8
Layer 1
10
129.304058
20
126.797560
11
124.398368
21
126.345794
0
LINE
8
Layer 1
10
124.398368
20
126.345794
11
119.666781
21
126.311488
0
LINE
8
Layer 1
10
119.666781
20
126.311488
11
117.617715
21
126.463599
0
LINE
8
Layer 1
10
117.617715
20
126.463599
11
115.913902
21
126.735333
0
LINE
8
Layer 1
10
115.913902
20
126.735333
11
113.599019
21
127.353800
0
LINE
8
Layer 1
10
113.599019
20
127.353800
11
111.161154
21
128.211468
0
LINE
8
Layer 1
10
111.161154
20
128.211468
11
108.557457
21
129.325460
0
LINE
8
Layer 1
10
108.557457
20
129.325460
11
105.745082
21
130.712903
0
LINE
8
Layer 1
10
105.745082
20
130.712903
11
101.693430
21
132.646495
0
LINE
8
Layer 1
10
101.693430
20
132.646495
11
98.361786
21
133.802087
0
LINE
8
Layer 1
10
98.361786
20
133.802087
11
96.895528
21
134.106266
0
LINE
8
Layer 1
10
96.895528
20
134.106266
11
95.524742
21
134.237705
0
LINE
8
Layer 1
10
95.524742
20
134.237705
11
94.221255
21
134.203657
0
LINE
8
Layer 1
10
94.221255
20
134.203657
11
92.956888
21
134.011375
0
LINE
8
Layer 1
10
92.956888
20
134.011375
11
88.123832
21
133.508667
0
LINE
8
Layer 1
10
88.123832
20
133.508667
11
85.282019
21
133.263335
0
LINE
8
Layer 1
10
85.282019
20
133.263335
11
84.804061
21
133.060736
0
LINE
8
Layer 1
10
84.804061
20
133.060736
11
84.622513
21
132.732556
0
LINE
8
Layer 1
10
84.622513
20
132.732556
11
84.305013
21
128.190542
0
LINE
8
Layer 1
10
84.305013
20
128.190542
11
84.080623
21
124.411813
0
LINE
8
Layer 1
10
84.080623
20
124.411813
11
83.730690
21
120.919608
0
LINE
8
Layer 1
10
83.730690
20
120.919608
11
83.306322
21
118.134814
0
LINE
8
Layer 1
10
83.306322
20
118.134814
11
82.858624
21
116.478319
0
LINE
8
Layer 1
10
82.858624
20
116.478319
11
82.512440
21
115.006560
0
LINE
8
Layer 1
10
82.512440
20
115.006560
11
82.429957
21
112.849152
0
LINE
8
Layer 1
10
82.429957
20
112.849152
11
82.605905
21
110.294852
0
LINE
8
Layer 1
10
82.605905
20
110.294852
11
83.035013
21
107.632417
0
LINE
8
Layer 1
10
83.035013
20
107.632417
11
83.594041
21
104.168907
0
LINE
8
Layer 1
10
83.594041
20
104.168907
11
83.569461
21
103.231668
0
LINE
8
Layer 1
10
83.569461
20
103.231668
11
83.343694
21
102.790542
0
LINE
8
Layer 1
10
83.343694
20
102.790542
11
83.130475
21
102.578295
0
LINE
8
Layer 1
10
83.130475
20
102.578295
11
83.067962
21
102.350809
0
LINE
8
Layer 1
10
83.067962
20
102.350809
11
83.152135
21
102.184440
0
LINE
8
Layer 1
10
83.152135
20
102.184440
11
83.378971
21
102.155542
0
LINE
8
Layer 1
10
83.378971
20
102.155542
11
83.664224
21
101.956842
0
LINE
8
Layer 1
10
83.664224
20
101.956842
11
83.925050
21
101.401560
0
LINE
8
Layer 1
10
83.925050
20
101.401560
11
84.080405
21
100.729380
0
LINE
8
Layer 1
10
84.080405
20
100.729380
11
84.049249
21
100.179986
0
LINE
8
Layer 1
10
84.049249
20
100.179986
11
83.768591
21
99.930836
0
LINE
8
Layer 1
10
83.768591
20
99.930836
11
83.273138
21
99.827208
0
LINE
8
Layer 1
10
83.273138
20
99.827208
11
82.638056
21
99.703837
0
LINE
8
Layer 1
10
82.638056
20
99.703837
11
82.020704
21
99.392384
0
LINE
8
Layer 1
10
82.020704
20
99.392384
11
81.553319
21
98.980843
0
LINE
8
Layer 1
10
81.553319
20
98.980843
11
81.368138
21
98.557208
0
LINE
8
Layer 1
10
81.368138
20
98.557208
11
81.059457
21
96.740403
0
LINE
8
Layer 1
10
81.059457
20
96.740403
11
80.675597
21
95.555230
0
LINE
8
Layer 1
10
80.675597
20
95.555230
11
80.412662
21
95.283439
0
LINE
8
Layer 1
10
80.412662
20
95.283439
11
80.045221
21
95.135264
0
LINE
8
Layer 1
10
80.045221
20
95.135264
11
79.375721
21
95.126700
0
LINE
8
Layer 1
10
79.375721
20
95.126700
11
78.792860
21
95.496861
0
LINE
8
Layer 1
10
78.792860
20
95.496861
11
78.503591
21
95.830684
0
LINE
8
Layer 1
10
78.503591
20
95.830684
11
78.393287
21
96.165910
0
LINE
8
Layer 1
10
78.393287
20
96.165910
11
78.669388
21
97.428319
0
LINE
8
Layer 1
10
78.669388
20
97.428319
11
78.978069
21
98.927625
0
LINE
8
Layer 1
10
78.978069
20
98.927625
11
78.749523
21
98.976572
0
LINE
8
Layer 1
10
78.749523
20
98.976572
11
78.498346
21
98.722633
0
LINE
8
Layer 1
10
78.498346
20
98.722633
11
78.007930
21
97.428319
0
LINE
8
Layer 1
10
78.007930
20
97.428319
11
77.681610
21
96.158319
0
LINE
8
Layer 1
10
77.681610
20
96.158319
11
76.614457
21
96.705125
0
LINE
8
Layer 1
10
76.614457
20
96.705125
11
75.623045
21
97.274157
0
LINE
8
Layer 1
10
75.623045
20
97.274157
11
75.135699
21
97.771252
0
LINE
8
Layer 1
10
75.135699
20
97.771252
11
75.092280
21
98.315162
0
LINE
8
Layer 1
10
75.092280
20
98.315162
11
75.432652
21
99.024639
0
LINE
8
Layer 1
10
75.432652
20
99.024639
11
76.193229
21
100.571514
0
LINE
8
Layer 1
10
76.193229
20
100.571514
11
76.746601
21
102.438521
0
LINE
8
Layer 1
10
76.746601
20
102.438521
11
77.110429
21
104.704229
0
LINE
8
Layer 1
10
77.110429
20
104.704229
11
77.302374
21
107.447208
0
LINE
8
Layer 1
10
77.302374
20
107.447208
11
77.606039
21
112.085921
0
LINE
8
Layer 1
10
77.606039
20
112.085921
11
77.902596
21
113.060935
0
LINE
8
Layer 1
10
77.902596
20
113.060935
11
78.404805
21
113.770750
0
LINE
8
Layer 1
10
78.404805
20
113.770750
11
79.089762
21
114.844220
0
LINE
8
Layer 1
10
79.089762
20
114.844220
11
78.997863
21
114.969491
0
LINE
8
Layer 1
10
78.997863
20
114.969491
11
78.590013
21
114.687972
0
LINE
8
Layer 1
10
78.590013
20
114.687972
11
78.207355
21
114.418666
0
LINE
8
Layer 1
10
78.207355
20
114.418666
11
77.902704
21
114.444477
0
LINE
8
Layer 1
10
77.902704
20
114.444477
11
77.608773
21
114.810318
0
LINE
8
Layer 1
10
77.608773
20
114.810318
11
77.258277
21
115.561097
0
LINE
8
Layer 1
10
77.258277
20
115.561097
11
76.864144
21
116.208884
0
LINE
8
Layer 1
10
76.864144
20
116.208884
11
76.455707
21
116.478319
0
LINE
8
Layer 1
10
76.455707
20
116.478319
11
76.167044
21
116.530552
0
LINE
8
Layer 1
10
76.167044
20
116.530552
11
75.915455
21
117.003457
0
LINE
8
Layer 1
10
75.915455
20
117.003457
11
74.868207
21
121.108528
0
LINE
8
Layer 1
10
74.868207
20
121.108528
11
73.254249
21
126.752972
0
LINE
8
Layer 1
10
73.254249
20
126.752972
11
72.054805
21
131.153875
0
LINE
8
Layer 1
10
72.054805
20
131.153875
11
71.432628
21
133.421540
0
LINE
8
Layer 1
10
71.432628
20
133.421540
11
70.423207
21
135.334292
0
LINE
8
Layer 1
10
70.423207
20
135.334292
11
69.144388
21
137.450958
0
LINE
8
Layer 1
10
69.144388
20
137.450958
11
68.988643
21
137.620369
0
LINE
8
Layer 1
10
68.988643
20
137.620369
11
68.782791
21
137.556792
0
LINE
8
Layer 1
10
68.782791
20
137.556792
11
68.824371
21
137.007083
0
LINE
8
Layer 1
10
68.824371
20
137.007083
11
69.267860
21
136.004569
0
LINE
8
Layer 1
10
69.267860
20
136.004569
11
69.850663
21
134.516973
0
LINE
8
Layer 1
10
69.850663
20
134.516973
11
69.789394
21
134.115536
0
LINE
8
Layer 1
10
69.789394
20
134.115536
11
69.488346
21
133.976097
0
LINE
8
Layer 1
10
69.488346
20
133.976097
11
69.307106
21
134.106300
0
LINE
8
Layer 1
10
69.307106
20
134.106300
11
69.232582
21
134.417069
0
LINE
8
Layer 1
10
69.232582
20
134.417069
11
68.949903
21
134.843552
0
LINE
8
Layer 1
10
68.949903
20
134.843552
11
68.271263
21
135.254917
0
LINE
8
Layer 1
10
68.271263
20
135.254917
11
67.421753
21
135.813469
0
LINE
8
Layer 1
10
67.421753
20
135.813469
11
66.727860
21
136.595472
0
LINE
8
Layer 1
10
66.727860
20
136.595472
11
66.114969
21
137.370818
0
LINE
8
Layer 1
10
66.114969
20
137.370818
11
65.457860
21
137.909569
0
LINE
8
Layer 1
10
65.457860
20
137.909569
11
64.812965
21
138.548140
0
LINE
8
Layer 1
10
64.812965
20
138.548140
11
64.240777
21
139.585264
0
LINE
8
Layer 1
10
64.240777
20
139.585264
11
63.632235
21
141.102208
0
LINE
8
Layer 1
10
63.632235
20
141.102208
11
63.717791
21
141.260469
0
LINE
8
Layer 1
10
63.717791
20
141.260469
11
64.055569
21
141.340333
0
LINE
8
Layer 1
10
64.055569
20
141.340333
11
64.287707
21
141.433513
0
LINE
8
Layer 1
10
64.287707
20
141.433513
11
63.808624
21
141.701931
0
LINE
8
Layer 1
10
63.808624
20
141.701931
11
63.002400
21
142.309571
0
LINE
8
Layer 1
10
63.002400
20
142.309571
11
62.132930
21
143.298250
0
LINE
8
Layer 1
10
62.132930
20
143.298250
11
60.923802
21
145.393213
0
LINE
8
Layer 1
10
60.923802
20
145.393213
11
59.239629
21
148.705824
0
LINE
8
Layer 1
10
59.239629
20
148.705824
11
57.743130
21
151.883311
0
LINE
8
Layer 1
10
57.743130
20
151.883311
11
57.097027
21
153.572903
0
LINE
8
Layer 1
10
57.097027
20
153.572903
11
56.814805
21
154.154986
0
LINE
8
Layer 1
10
56.814805
20
154.154986
11
56.615251
21
154.096298
0
LINE
8
Layer 1
10
56.615251
20
154.096298
11
56.532582
21
153.705194
0
LINE
8
Layer 1
10
56.532582
20
153.705194
11
56.467245
21
153.248454
0
LINE
8
Layer 1
10
56.467245
20
153.248454
11
56.249576
21
153.491995
0
LINE
8
Layer 1
10
56.249576
20
153.491995
11
55.227305
21
156.342208
0
LINE
8
Layer 1
10
55.227305
20
156.342208
11
54.354289
21
158.767217
0
LINE
8
Layer 1
10
54.354289
20
158.767217
11
53.578069
21
160.531444
0
LINE
8
Layer 1
10
53.578069
20
160.531444
11
51.576055
21
165.188111
0
LINE
8
Layer 1
10
51.576055
20
165.188111
11
50.312549
21
168.263597
0
LINE
8
Layer 1
10
50.312549
20
168.263597
11
49.168926
21
170.595081
0
LINE
8
Layer 1
10
49.168926
20
170.595081
11
48.060291
21
172.335337
0
LINE
8
Layer 1
10
48.060291
20
172.335337
11
46.901749
21
173.637139
0
LINE
8
Layer 1
10
46.901749
20
173.637139
11
46.047947
21
174.510360
0
LINE
8
Layer 1
10
46.047947
20
174.510360
11
45.748219
21
175.149465
0
LINE
8
Layer 1
10
45.748219
20
175.149465
11
45.992183
21
175.766626
0
LINE
8
Layer 1
10
45.992183
20
175.766626
11
46.769457
21
176.574014
0
LINE
8
Layer 1
10
46.769457
20
176.574014
11
47.464136
21
177.546286
0
LINE
8
Layer 1
10
47.464136
20
177.546286
11
47.470687
21
177.876233
0
LINE
8
Layer 1
10
47.470687
20
177.876233
11
47.219249
21
178.002764
0
LINE
8
Layer 1
10
47.219249
20
178.002764
11
46.710821
21
177.596417
0
LINE
8
Layer 1
10
46.710821
20
177.596417
11
45.878694
21
176.618111
0
LINE
8
Layer 1
10
45.878694
20
176.618111
11
45.259556
21
175.859009
0
LINE
8
Layer 1
10
45.259556
20
175.859009
11
44.744305
21
175.416703
0
LINE
8
Layer 1
10
44.744305
20
175.416703
11
44.150224
21
175.178225
0
LINE
8
Layer 1
10
44.150224
20
175.178225
11
43.294596
21
175.030611
0
LINE
8
Layer 1
10
43.294596
20
175.030611
11
40.388404
21
174.944151
0
LINE
8
Layer 1
10
40.388404
20
174.944151
11
37.474665
21
175.329176
0
LINE
8
Layer 1
10
37.474665
20
175.329176
11
35.120510
21
176.065422
0
LINE
8
Layer 1
10
35.120510
20
176.065422
11
34.330504
21
176.527670
0
LINE
8
Layer 1
10
34.330504
20
176.527670
11
33.893069
21
177.032625
0
LINE
8
Layer 1
10
33.893069
20
177.032625
11
33.606606
21
177.461700
0
LINE
8
Layer 1
10
33.606606
20
177.461700
11
33.346263
21
177.552972
0
LINE
8
Layer 1
10
33.346263
20
177.552972
11
33.255676
21
177.291671
0
LINE
8
Layer 1
10
33.255676
20
177.291671
11
33.381541
21
176.873875
0
LINE
8
Layer 1
10
33.381541
20
176.873875
11
33.672582
21
176.203597
0
LINE
8
Layer 1
10
33.672582
20
176.203597
11
31.802860
21
175.480403
0
LINE
8
Layer 1
10
31.802860
20
175.480403
11
30.272483
21
175.101120
0
LINE
8
Layer 1
10
30.272483
20
175.101120
11
28.889921
21
174.924676
0
LINE
8
Layer 1
10
28.889921
20
174.924676
11
27.834939
21
174.962154
0
LINE
8
Layer 1
10
27.834939
20
174.962154
11
27.287304
21
175.224639
0
LINE
8
Layer 1
10
27.287304
20
175.224639
11
27.252198
21
175.365793
0
LINE
8
Layer 1
10
27.252198
20
175.365793
11
27.373167
21
175.438052
0
LINE
8
Layer 1
10
27.373167
20
175.438052
11
28.133971
21
175.383389
0
LINE
8
Layer 1
10
28.133971
20
175.383389
11
29.479475
21
175.356597
0
LINE
8
Layer 1
10
29.479475
20
175.356597
11
29.865540
21
175.509887
0
LINE
8
Layer 1
10
29.865540
20
175.509887
11
30.003694
21
175.762625
0
LINE
8
Layer 1
10
30.003694
20
175.762625
11
29.817161
21
175.915097
0
LINE
8
Layer 1
10
29.817161
20
175.915097
11
29.368694
21
175.956653
0
LINE
8
Layer 1
10
29.368694
20
175.956653
11
27.534249
21
175.974292
0
LINE
8
Layer 1
10
27.534249
20
175.974292
11
26.513274
21
176.149608
0
LINE
8
Layer 1
10
26.513274
20
176.149608
11
26.294403
21
176.391884
0
LINE
8
Layer 1
10
26.294403
20
176.391884
11
26.158415
21
176.803319
0
LINE
8
Layer 1
10
26.158415
20
176.803319
11
25.699804
21
177.932208
0
LINE
8
Layer 1
10
25.699804
20
177.932208
11
25.611991
21
178.244295
0
LINE
8
Layer 1
10
25.611991
20
178.244295
11
25.946749
21
178.470194
0
LINE
8
Layer 1
10
25.946749
20
178.470194
11
27.528694
21
179.123381
0
LINE
8
Layer 1
10
27.528694
20
179.123381
11
28.453292
21
179.740292
0
LINE
8
Layer 1
10
28.453292
20
179.740292
11
28.741979
21
180.343925
0
LINE
8
Layer 1
10
28.741979
20
180.343925
11
28.416194
21
180.957278
0
LINE
8
Layer 1
10
28.416194
20
180.957278
11
27.934257
21
181.269533
0
LINE
8
Layer 1
10
27.934257
20
181.269533
11
27.340221
21
181.010194
0
LINE
8
Layer 1
10
27.340221
20
181.010194
11
26.026124
21
180.498667
0
LINE
8
Layer 1
10
26.026124
20
180.498667
11
25.460416
21
180.234595
0
LINE
8
Layer 1
10
25.460416
20
180.234595
11
25.250012
21
179.466792
0
LINE
8
Layer 1
10
25.250012
20
179.466792
11
25.084143
21
178.753461
0
LINE
8
Layer 1
10
25.084143
20
178.753461
11
24.925138
21
178.671930
0
LINE
8
Layer 1
10
24.925138
20
178.671930
11
24.685568
21
178.734778
0
LINE
8
Layer 1
10
24.685568
20
178.734778
11
23.300915
21
179.069917
0
LINE
8
Layer 1
10
23.300915
20
179.069917
11
22.559538
21
179.308051
0
LINE
8
Layer 1
10
22.559538
20
179.308051
11
22.383693
21
179.898944
0
LINE
8
Layer 1
10
22.383693
20
179.898944
11
22.241489
21
180.459572
0
LINE
8
Layer 1
10
22.241489
20
180.459572
11
21.819249
21
180.745611
0
LINE
8
Layer 1
10
21.819249
20
180.745611
11
21.461780
21
180.896958
0
LINE
8
Layer 1
10
21.461780
20
180.896958
11
21.287564
21
181.136310
0
LINE
8
Layer 1
10
21.287564
20
181.136310
11
21.312896
21
181.489704
0
LINE
8
Layer 1
10
21.312896
20
181.489704
11
21.554069
21
181.983174
0
LINE
8
Layer 1
10
21.554069
20
181.983174
11
22.749119
21
183.494486
0
LINE
8
Layer 1
10
22.749119
20
183.494486
11
25.003068
21
185.878528
0
LINE
8
Layer 1
10
25.003068
20
185.878528
11
27.507572
21
188.557007
0
LINE
8
Layer 1
10
27.507572
20
188.557007
11
29.116387
21
190.634518
0
LINE
8
Layer 1
10
29.116387
20
190.634518
11
30.057605
21
192.461725
0
LINE
8
Layer 1
10
30.057605
20
192.461725
11
30.559319
21
194.389292
0
LINE
8
Layer 1
10
30.559319
20
194.389292
11
31.106124
21
196.876375
0
LINE
8
Layer 1
10
31.106124
20
196.876375
11
31.648512
21
198.085685
0
LINE
8
Layer 1
10
31.648512
20
198.085685
11
32.593002
21
199.687168
0
LINE
8
Layer 1
10
32.593002
20
199.687168
11
33.731120
21
201.353898
0
LINE
8
Layer 1
10
33.731120
20
201.353898
11
34.854388
21
202.758944
0
LINE
8
Layer 1
10
34.854388
20
202.758944
11
35.675750
21
203.866355
0
LINE
8
Layer 1
10
35.675750
20
203.866355
11
35.797336
21
204.294189
0
LINE
8
Layer 1
10
35.797336
20
204.294189
11
35.771610
21
204.734500
0
LINE
8
Layer 1
10
35.771610
20
204.734500
11
35.782956
21
205.499795
0
LINE
8
Layer 1
10
35.782956
20
205.499795
11
36.067532
21
206.243407
0
LINE
8
Layer 1
10
36.067532
20
206.243407
11
36.796173
21
207.090809
0
LINE
8
Layer 1
10
36.796173
20
207.090809
11
37.817721
21
207.618458
0
LINE
8
Layer 1
10
37.817721
20
207.618458
11
39.775638
21
207.812486
0
LINE
8
Layer 1
10
39.775638
20
207.812486
11
39.775638
21
207.812486
0
LINE
8
Layer 1
10
26.846332
20
203.702625
11
27.313762
21
203.702625
0
LINE
8
Layer 1
10
27.313762
20
203.702625
11
28.247439
21
203.616926
0
LINE
8
Layer 1
10
28.247439
20
203.616926
11
28.724874
21
203.411583
0
LINE
8
Layer 1
10
28.724874
20
203.411583
11
28.662088
21
203.298617
0
LINE
8
Layer 1
10
28.662088
20
203.298617
11
28.323293
21
203.224221
0
LINE
8
Layer 1
10
28.323293
20
203.224221
11
26.890429
21
203.199917
0
LINE
8
Layer 1
10
26.890429
20
203.199917
11
25.200130
21
203.155272
0
LINE
8
Layer 1
10
25.200130
20
203.155272
11
24.782820
21
203.012839
0
LINE
8
Layer 1
10
24.782820
20
203.012839
11
24.517999
21
202.767764
0
LINE
8
Layer 1
10
24.517999
20
202.767764
11
23.971193
21
202.273875
0
LINE
8
Layer 1
10
23.971193
20
202.273875
11
23.810704
21
202.362086
0
LINE
8
Layer 1
10
23.810704
20
202.362086
11
23.811417
21
202.589950
0
LINE
8
Layer 1
10
23.811417
20
202.589950
11
24.235776
21
203.244014
0
LINE
8
Layer 1
10
24.235776
20
203.244014
11
25.230066
21
203.571112
0
LINE
8
Layer 1
10
25.230066
20
203.571112
11
26.846332
21
203.702625
0
LINE
8
Layer 1
10
26.846332
20
203.702625
11
26.846332
21
203.702625
0
LINE
8
Layer 1
10
24.650290
20
201.153806
11
25.092551
21
201.011240
0
LINE
8
Layer 1
10
25.092551
20
201.011240
11
25.399943
21
200.580542
0
LINE
8
Layer 1
10
25.399943
20
200.580542
11
25.618844
21
200.181902
0
LINE
8
Layer 1
10
25.618844
20
200.181902
11
25.937929
21
200.016097
0
LINE
8
Layer 1
10
25.937929
20
200.016097
11
26.215383
21
199.871016
0
LINE
8
Layer 1
10
26.215383
20
199.871016
11
26.334804
21
199.522208
0
LINE
8
Layer 1
10
26.334804
20
199.522208
11
26.659621
21
199.017171
0
LINE
8
Layer 1
10
26.659621
20
199.017171
11
27.516610
21
198.490333
0
LINE
8
Layer 1
10
27.516610
20
198.490333
11
28.689596
21
197.943528
0
LINE
8
Layer 1
10
28.689596
20
197.943528
11
29.130569
21
198.613806
0
LINE
8
Layer 1
10
29.130569
20
198.613806
11
30.091888
21
199.866167
0
LINE
8
Layer 1
10
30.091888
20
199.866167
11
30.510530
21
200.289375
0
LINE
8
Layer 1
10
30.510530
20
200.289375
11
30.391749
21
199.874986
0
LINE
8
Layer 1
10
30.391749
20
199.874986
11
30.065430
21
197.828875
0
LINE
8
Layer 1
10
30.065430
20
197.828875
11
29.955480
21
196.899521
0
LINE
8
Layer 1
10
29.955480
20
196.899521
11
29.714159
21
196.469452
0
LINE
8
Layer 1
10
29.714159
20
196.469452
11
29.192068
21
196.450101
0
LINE
8
Layer 1
10
29.192068
20
196.450101
11
28.239805
21
196.752903
0
LINE
8
Layer 1
10
28.239805
20
196.752903
11
26.797255
21
197.495355
0
LINE
8
Layer 1
10
26.797255
20
197.495355
11
25.556226
21
198.542546
0
LINE
8
Layer 1
10
25.556226
20
198.542546
11
24.686847
21
199.715766
0
LINE
8
Layer 1
10
24.686847
20
199.715766
11
24.359249
21
200.836306
0
LINE
8
Layer 1
10
24.359249
20
200.836306
11
24.442802
21
201.067868
0
LINE
8
Layer 1
10
24.442802
20
201.067868
11
24.650290
21
201.153806
0
LINE
8
Layer 1
10
24.650290
20
201.153806
11
24.650290
21
201.153806
0
LINE
8
Layer 1
10
50.720569
20
200.995056
11
51.734805
21
200.104292
0
LINE
8
Layer 1
10
51.734805
20
200.104292
11
52.530631
21
199.096862
0
LINE
8
Layer 1
10
52.530631
20
199.096862
11
52.863694
21
198.349222
0
LINE
8
Layer 1
10
52.863694
20
198.349222
11
52.639701
21
197.674186
0
LINE
8
Layer 1
10
52.639701
20
197.674186
11
52.423186
21
197.567064
0
LINE
8
Layer 1
10
52.423186
20
197.567064
11
52.193416
21
197.670125
0
LINE
8
Layer 1
10
52.193416
20
197.670125
11
52.017027
21
198.322764
0
LINE
8
Layer 1
10
52.017027
20
198.322764
11
51.809769
21
198.847066
0
LINE
8
Layer 1
10
51.809769
20
198.847066
11
51.311471
21
199.451653
0
LINE
8
Layer 1
10
51.311471
20
199.451653
11
50.811723
21
200.093722
0
LINE
8
Layer 1
10
50.811723
20
200.093722
11
50.605916
21
200.704014
0
LINE
8
Layer 1
10
50.605916
20
200.704014
11
50.720569
21
200.995056
0
LINE
8
Layer 1
10
50.720569
20
200.995056
11
50.720569
21
200.995056
0
LINE
8
Layer 1
10
42.915360
20
200.659917
11
43.365152
21
200.624639
0
LINE
8
Layer 1
10
43.365152
20
200.624639
11
44.449944
21
200.439431
0
LINE
8
Layer 1
10
44.449944
20
200.439431
11
43.832582
21
199.663319
0
LINE
8
Layer 1
10
43.832582
20
199.663319
11
43.214541
21
199.115739
0
LINE
8
Layer 1
10
43.214541
20
199.115739
11
42.569817
21
198.882456
0
LINE
8
Layer 1
10
42.569817
20
198.882456
11
42.062586
21
198.982279
0
LINE
8
Layer 1
10
42.062586
20
198.982279
11
41.857027
21
199.434014
0
LINE
8
Layer 1
10
41.857027
20
199.434014
11
41.711946
21
199.852679
0
LINE
8
Layer 1
10
41.711946
20
199.852679
11
41.363138
21
200.095472
0
LINE
8
Layer 1
10
41.363138
20
200.095472
11
41.093259
21
200.272919
0
LINE
8
Layer 1
10
41.093259
20
200.272919
11
41.409058
21
200.464482
0
LINE
8
Layer 1
10
41.409058
20
200.464482
11
42.915360
21
200.659917
0
LINE
8
Layer 1
10
42.915360
20
200.659917
11
42.915360
21
200.659917
0
LINE
8
Layer 1
10
53.983763
20
198.851931
11
54.448700
21
198.760853
0
LINE
8
Layer 1
10
54.448700
20
198.760853
11
55.244944
21
198.410958
0
LINE
8
Layer 1
10
55.244944
20
198.410958
11
56.079237
21
197.834665
0
LINE
8
Layer 1
10
56.079237
20
197.834665
11
56.217608
21
197.444660
0
LINE
8
Layer 1
10
56.217608
20
197.444660
11
56.250360
21
196.858736
0
LINE
8
Layer 1
10
56.250360
20
196.858736
11
56.333262
21
196.098696
0
LINE
8
Layer 1
10
56.333262
20
196.098696
11
56.532582
21
195.782764
0
LINE
8
Layer 1
10
56.532582
20
195.782764
11
56.731901
21
196.031471
0
LINE
8
Layer 1
10
56.731901
20
196.031471
11
56.814805
21
196.629431
0
LINE
8
Layer 1
10
56.814805
20
196.629431
11
56.881696
21
197.227388
0
LINE
8
Layer 1
10
56.881696
20
197.227388
11
57.044110
21
197.476097
0
LINE
8
Layer 1
10
57.044110
20
197.476097
11
60.078842
21
196.273684
0
LINE
8
Layer 1
10
60.078842
20
196.273684
11
63.755707
21
194.512764
0
LINE
8
Layer 1
10
63.755707
20
194.512764
11
64.539095
21
193.977828
0
LINE
8
Layer 1
10
64.539095
20
193.977828
11
64.951162
21
193.549031
0
LINE
8
Layer 1
10
64.951162
20
193.549031
11
64.935276
21
193.319879
0
LINE
8
Layer 1
10
64.935276
20
193.319879
11
64.434805
21
193.383875
0
LINE
8
Layer 1
10
64.434805
20
193.383875
11
64.034131
21
193.396280
0
LINE
8
Layer 1
10
64.034131
20
193.396280
11
63.874876
21
193.065177
0
LINE
8
Layer 1
10
63.874876
20
193.065177
11
64.267235
21
191.152556
0
LINE
8
Layer 1
10
64.267235
20
191.152556
11
64.523994
21
189.924700
0
LINE
8
Layer 1
10
64.523994
20
189.924700
11
64.276055
21
189.062347
0
LINE
8
Layer 1
10
64.276055
20
189.062347
11
63.364787
21
186.999574
0
LINE
8
Layer 1
10
63.364787
20
186.999574
11
63.215073
21
186.283208
0
LINE
8
Layer 1
10
63.215073
20
186.283208
11
63.217721
21
185.613944
0
LINE
8
Layer 1
10
63.217721
20
185.613944
11
63.097668
21
184.618546
0
LINE
8
Layer 1
10
63.097668
20
184.618546
11
62.335777
21
183.559014
0
LINE
8
Layer 1
10
62.335777
20
183.559014
11
61.459406
21
182.707900
0
LINE
8
Layer 1
10
61.459406
20
182.707900
11
61.252233
21
182.752385
0
LINE
8
Layer 1
10
61.252233
20
182.752385
11
61.056957
21
183.056306
0
LINE
8
Layer 1
10
61.056957
20
183.056306
11
60.923674
21
183.749663
0
LINE
8
Layer 1
10
60.923674
20
183.749663
11
61.312721
21
184.758458
0
LINE
8
Layer 1
10
61.312721
20
184.758458
11
62.168207
21
186.046097
0
LINE
8
Layer 1
10
62.168207
20
186.046097
11
62.459249
21
186.504708
0
LINE
8
Layer 1
10
62.459249
20
186.504708
11
62.362151
21
186.647840
0
LINE
8
Layer 1
10
62.362151
20
186.647840
11
62.132930
21
186.592903
0
LINE
8
Layer 1
10
62.132930
20
186.592903
11
61.996043
21
186.573072
0
LINE
8
Layer 1
10
61.996043
20
186.573072
11
61.931176
21
186.739895
0
LINE
8
Layer 1
10
61.931176
20
186.739895
11
62.009457
21
187.704153
0
LINE
8
Layer 1
10
62.009457
20
187.704153
11
62.097531
21
188.592395
0
LINE
8
Layer 1
10
62.097531
20
188.592395
11
62.032660
21
188.963296
0
LINE
8
Layer 1
10
62.032660
20
188.963296
11
61.834920
21
188.801638
0
LINE
8
Layer 1
10
61.834920
20
188.801638
11
61.524388
21
188.092208
0
LINE
8
Layer 1
10
61.524388
20
188.092208
11
61.189249
21
187.174986
0
LINE
8
Layer 1
10
61.189249
20
187.174986
11
60.986402
21
188.586097
0
LINE
8
Layer 1
10
60.986402
20
188.586097
11
60.346304
21
192.582654
0
LINE
8
Layer 1
10
60.346304
20
192.582654
11
60.181658
21
192.778283
0
LINE
8
Layer 1
10
60.181658
20
192.778283
11
59.972166
21
192.325542
0
LINE
8
Layer 1
10
59.972166
20
192.325542
11
59.646151
21
191.821247
0
LINE
8
Layer 1
10
59.646151
20
191.821247
11
59.253818
21
191.580256
0
LINE
8
Layer 1
10
59.253818
20
191.580256
11
58.878906
21
191.623714
0
LINE
8
Layer 1
10
58.878906
20
191.623714
11
58.605152
21
191.972764
0
LINE
8
Layer 1
10
58.605152
20
191.972764
11
58.586366
21
192.534575
0
LINE
8
Layer 1
10
58.586366
20
192.534575
11
58.763902
21
193.295681
0
LINE
8
Layer 1
10
58.763902
20
193.295681
11
58.918500
21
194.015994
0
LINE
8
Layer 1
10
58.918500
20
194.015994
11
58.825638
21
194.451028
0
LINE
8
Layer 1
10
58.825638
20
194.451028
11
58.559138
21
194.387110
0
LINE
8
Layer 1
10
58.559138
20
194.387110
11
58.270013
21
193.833667
0
LINE
8
Layer 1
10
58.270013
20
193.833667
11
57.958086
21
193.285384
0
LINE
8
Layer 1
10
57.958086
20
193.285384
11
57.569166
21
192.988670
0
LINE
8
Layer 1
10
57.569166
20
192.988670
11
57.237422
21
192.997596
0
LINE
8
Layer 1
10
57.237422
20
192.997596
11
57.097027
21
193.366236
0
LINE
8
Layer 1
10
57.097027
20
193.366236
11
56.989545
21
193.797867
0
LINE
8
Layer 1
10
56.989545
20
193.797867
11
56.714129
21
193.969529
0
LINE
8
Layer 1
10
56.714129
20
193.969529
11
56.341325
21
193.872618
0
LINE
8
Layer 1
10
56.341325
20
193.872618
11
55.941680
21
193.498528
0
LINE
8
Layer 1
10
55.941680
20
193.498528
11
55.552478
21
193.111516
0
LINE
8
Layer 1
10
55.552478
20
193.111516
11
55.229841
21
193.084137
0
LINE
8
Layer 1
10
55.229841
20
193.084137
11
54.961057
21
193.422704
0
LINE
8
Layer 1
10
54.961057
20
193.422704
11
54.733416
21
194.133528
0
LINE
8
Layer 1
10
54.733416
20
194.133528
11
54.709600
21
194.777985
0
LINE
8
Layer 1
10
54.709600
20
194.777985
11
54.980360
21
195.227139
0
LINE
8
Layer 1
10
54.980360
20
195.227139
11
55.346534
21
195.718978
0
LINE
8
Layer 1
10
55.346534
20
195.718978
11
55.386791
21
196.255120
0
LINE
8
Layer 1
10
55.386791
20
196.255120
11
55.117999
21
196.757931
0
LINE
8
Layer 1
10
55.117999
20
196.757931
11
54.557027
21
197.149778
0
LINE
8
Layer 1
10
54.557027
20
197.149778
11
53.907294
21
197.596819
0
LINE
8
Layer 1
10
53.907294
20
197.596819
11
53.710360
21
198.208111
0
LINE
8
Layer 1
10
53.710360
20
198.208111
11
53.764494
21
198.670542
0
LINE
8
Layer 1
10
53.764494
20
198.670542
11
53.983763
21
198.851931
0
LINE
8
Layer 1
10
53.983763
20
198.851931
11
53.983763
21
198.851931
0
LINE
8
Layer 1
10
41.177930
20
197.599569
11
41.454818
21
197.504980
0
LINE
8
Layer 1
10
41.454818
20
197.504980
11
41.416055
21
197.176236
0
LINE
8
Layer 1
10
41.416055
20
197.176236
11
40.816332
21
196.911653
0
LINE
8
Layer 1
10
40.816332
20
196.911653
11
40.526949
21
196.995190
0
LINE
8
Layer 1
10
40.526949
20
196.995190
11
40.719319
21
197.334986
0
LINE
8
Layer 1
10
40.719319
20
197.334986
11
41.177930
21
197.599569
0
LINE
8
Layer 1
10
41.177930
20
197.599569
11
41.177930
21
197.599569
0
LINE
8
Layer 1
10
49.768069
20
197.193875
11
50.204691
21
197.048361
0
LINE
8
Layer 1
10
50.204691
20
197.048361
11
50.447166
21
196.417764
0
LINE
8
Layer 1
10
50.447166
20
196.417764
11
50.490722
21
195.906503
0
LINE
8
Layer 1
10
50.490722
20
195.906503
11
50.059110
21
195.782764
0
LINE
8
Layer 1
10
50.059110
20
195.782764
11
49.461193
21
195.969294
0
LINE
8
Layer 1
10
49.461193
20
195.969294
11
48.842027
21
196.417764
0
LINE
8
Layer 1
10
48.842027
20
196.417764
11
48.207027
21
197.052764
0
LINE
8
Layer 1
10
48.207027
20
197.052764
11
49.150707
21
197.149778
0
LINE
8
Layer 1
10
49.150707
20
197.149778
11
49.768069
21
197.193875
0
LINE
8
Layer 1
10
49.768069
20
197.193875
11
49.768069
21
197.193875
0
LINE
8
Layer 1
10
52.184596
20
196.823458
11
52.352166
21
196.267833
0
LINE
8
Layer 1
10
52.352166
20
196.267833
11
52.389461
21
195.725740
0
LINE
8
Layer 1
10
52.389461
20
195.725740
11
52.272791
21
195.500542
0
LINE
8
Layer 1
10
52.272791
20
195.500542
11
52.041568
21
195.570698
0
LINE
8
Layer 1
10
52.041568
20
195.570698
11
51.915099
21
195.769206
0
LINE
8
Layer 1
10
51.915099
20
195.769206
11
51.999388
21
196.479500
0
LINE
8
Layer 1
10
51.999388
20
196.479500
11
52.158138
21
196.814639
0
LINE
8
Layer 1
10
52.158138
20
196.814639
11
52.184596
21
196.823458
0
LINE
8
Layer 1
10
52.184596
20
196.823458
11
52.184596
21
196.823458
0
LINE
8
Layer 1
10
39.281749
20
196.338389
11
38.787860
21
195.773944
0
LINE
8
Layer 1
10
38.787860
20
195.773944
11
37.841505
21
195.252904
0
LINE
8
Layer 1
10
37.841505
20
195.252904
11
37.483783
21
195.205669
0
LINE
8
Layer 1
10
37.483783
20
195.205669
11
37.341471
21
195.341792
0
LINE
8
Layer 1
10
37.341471
20
195.341792
11
38.218700
21
195.898096
0
LINE
8
Layer 1
10
38.218700
20
195.898096
11
39.281749
21
196.338389
0
LINE
8
Layer 1
10
39.281749
20
196.338389
11
39.281749
21
196.338389
0
LINE
8
Layer 1
10
44.044249
20
195.650472
11
44.370569
21
195.385889
0
LINE
8
Layer 1
10
44.370569
20
195.385889
11
44.622048
21
194.955478
0
LINE
8
Layer 1
10
44.622048
20
194.955478
11
44.626764
21
194.648842
0
LINE
8
Layer 1
10
44.626764
20
194.648842
11
44.421802
21
194.543159
0
LINE
8
Layer 1
10
44.421802
20
194.543159
11
44.044249
21
194.715611
0
LINE
8
Layer 1
10
44.044249
20
194.715611
11
43.747997
21
195.080773
0
LINE
8
Layer 1
10
43.747997
20
195.080773
11
43.788485
21
195.447625
0
LINE
8
Layer 1
10
43.788485
20
195.447625
11
44.044249
21
195.650472
0
LINE
8
Layer 1
10
44.044249
20
195.650472
11
44.044249
21
195.650472
0
LINE
8
Layer 1
10
43.074110
20
194.636236
11
43.165772
21
194.535051
0
LINE
8
Layer 1
10
43.165772
20
194.535051
11
42.985916
21
194.230542
0
LINE
8
Layer 1
10
42.985916
20
194.230542
11
42.607879
21
193.931561
0
LINE
8
Layer 1
10
42.607879
20
193.931561
11
42.192166
21
193.807208
0
LINE
8
Layer 1
10
42.192166
20
193.807208
11
41.943301
21
193.890072
0
LINE
8
Layer 1
10
41.943301
20
193.890072
11
42.289180
21
194.221722
0
LINE
8
Layer 1
10
42.289180
20
194.221722
11
43.074110
21
194.636236
0
LINE
8
Layer 1
10
43.074110
20
194.636236
11
43.074110
21
194.636236
0
LINE
8
Layer 1
10
40.445916
20
193.798389
11
41.330713
21
193.736240
0
LINE
8
Layer 1
10
41.330713
20
193.736240
11
41.419866
21
193.651576
0
LINE
8
Layer 1
10
41.419866
20
193.651576
11
41.292582
21
193.524986
0
LINE
8
Layer 1
10
41.292582
20
193.524986
11
40.445916
21
193.251583
0
LINE
8
Layer 1
10
40.445916
20
193.251583
11
39.599249
21
193.524986
0
LINE
8
Layer 1
10
39.599249
20
193.524986
11
39.471980
21
193.651578
0
LINE
8
Layer 1
10
39.471980
20
193.651578
11
39.561137
21
193.736241
0
LINE
8
Layer 1
10
39.561137
20
193.736241
11
40.445916
21
193.798389
0
LINE
8
Layer 1
10
40.445916
20
193.798389
11
40.445916
21
193.798389
0
LINE
8
Layer 1
10
62.476888
20
193.674917
11
62.432791
21
193.648458
0
LINE
8
Layer 1
10
62.432791
20
193.648458
11
62.177027
21
193.084014
0
LINE
8
Layer 1
10
62.177027
20
193.084014
11
62.293204
21
192.697220
0
LINE
8
Layer 1
10
62.293204
20
192.697220
11
62.538624
21
193.242764
0
LINE
8
Layer 1
10
62.538624
20
193.242764
11
62.572852
21
193.567900
0
LINE
8
Layer 1
10
62.572852
20
193.567900
11
62.476888
21
193.674917
0
LINE
8
Layer 1
10
62.476888
20
193.674917
11
62.476888
21
193.674917
0
LINE
8
Layer 1
10
37.641332
20
193.524986
11
38.071444
21
193.400841
0
LINE
8
Layer 1
10
38.071444
20
193.400841
11
38.029388
21
192.889986
0
LINE
8
Layer 1
10
38.029388
20
192.889986
11
37.605600
21
192.032462
0
LINE
8
Layer 1
10
37.605600
20
192.032462
11
37.407298
21
192.007041
0
LINE
8
Layer 1
10
37.407298
20
192.007041
11
37.235638
21
192.263806
0
LINE
8
Layer 1
10
37.235638
20
192.263806
11
37.095224
21
193.210097
0
LINE
8
Layer 1
10
37.095224
20
193.210097
11
37.282635
21
193.446314
0
LINE
8
Layer 1
10
37.282635
20
193.446314
11
37.641332
21
193.524986
0
LINE
8
Layer 1
10
37.641332
20
193.524986
11
37.641332
21
193.524986
0
LINE
8
Layer 1
10
40.525291
20
191.179014
11
40.869249
21
190.984986
0
LINE
8
Layer 1
10
40.869249
20
190.984986
11
41.292582
21
190.526375
0
LINE
8
Layer 1
10
41.292582
20
190.526375
11
40.869249
21
190.420542
0
LINE
8
Layer 1
10
40.869249
20
190.420542
11
40.570269
21
190.555407
0
LINE
8
Layer 1
10
40.570269
20
190.555407
11
40.445916
21
190.879153
0
LINE
8
Layer 1
10
40.445916
20
190.879153
11
40.525291
21
191.179014
0
LINE
8
Layer 1
10
40.525291
20
191.179014
11
40.525291
21
191.179014
0
LINE
8
Layer 1
10
43.479805
20
190.676306
11
44.127592
21
190.612433
0
LINE
8
Layer 1
10
44.127592
20
190.612433
11
44.397027
21
190.420542
0
LINE
8
Layer 1
10
44.397027
20
190.420542
11
44.360687
21
190.241135
0
LINE
8
Layer 1
10
44.360687
20
190.241135
11
44.206046
21
190.181332
0
LINE
8
Layer 1
10
44.206046
20
190.181332
11
43.268138
21
190.420542
0
LINE
8
Layer 1
10
43.268138
20
190.420542
11
42.797411
21
190.618713
0
LINE
8
Layer 1
10
42.797411
20
190.618713
11
43.479805
21
190.676306
0
LINE
8
Layer 1
10
43.479805
20
190.676306
11
43.479805
21
190.676306
0
LINE
8
Layer 1
10
38.223416
20
190.420542
11
38.397020
21
190.213284
0
LINE
8
Layer 1
10
38.397020
20
190.213284
11
38.470360
21
189.714986
0
LINE
8
Layer 1
10
38.470360
20
189.714986
11
38.355707
21
189.009431
0
LINE
8
Layer 1
10
38.355707
20
189.009431
11
38.117582
21
189.714986
0
LINE
8
Layer 1
10
38.117582
20
189.714986
11
38.092543
21
190.213284
0
LINE
8
Layer 1
10
38.092543
20
190.213284
11
38.223416
21
190.420542
0
LINE
8
Layer 1
10
38.223416
20
190.420542
11
38.223416
21
190.420542
0
LINE
8
Layer 1
10
63.649874
20
190.314708
11
63.596957
21
190.288250
0
LINE
8
Layer 1
10
63.596957
20
190.288250
11
63.451176
21
190.048254
0
LINE
8
Layer 1
10
63.451176
20
190.048254
11
63.482305
21
189.706167
0
LINE
8
Layer 1
10
63.482305
20
189.706167
11
63.760279
21
189.315639
0
LINE
8
Layer 1
10
63.760279
20
189.315639
11
63.870360
21
189.873736
0
LINE
8
Layer 1
10
63.870360
20
189.873736
11
63.806127
21
190.207120
0
LINE
8
Layer 1
10
63.806127
20
190.207120
11
63.649874
21
190.314708
0
LINE
8
Layer 1
10
63.649874
20
190.314708
11
63.649874
21
190.314708
0
LINE
8
Layer 1
10
160.266888
20
187.880542
11
161.456291
21
187.799448
0
LINE
8
Layer 1
10
161.456291
20
187.799448
11
161.697480
21
187.690093
0
LINE
8
Layer 1
10
161.697480
20
187.690093
11
161.730916
21
187.527764
0
LINE
8
Layer 1
10
161.730916
20
187.527764
11
161.576728
21
187.290564
0
LINE
8
Layer 1
10
161.576728
20
187.290564
11
161.255243
21
187.171687
0
LINE
8
Layer 1
10
161.255243
20
187.171687
11
159.755360
21
187.236722
0
LINE
8
Layer 1
10
159.755360
20
187.236722
11
158.898702
21
187.410956
0
LINE
8
Layer 1
10
158.898702
20
187.410956
11
158.736038
21
187.624087
0
LINE
8
Layer 1
10
158.736038
20
187.624087
11
159.210917
21
187.804490
0
LINE
8
Layer 1
10
159.210917
20
187.804490
11
160.266888
21
187.880542
0
LINE
8
Layer 1
10
160.266888
20
187.880542
11
160.266888
21
187.880542
0
LINE
8
Layer 1
10
164.747166
20
187.880542
11
165.058401
21
187.797638
0
LINE
8
Layer 1
10
165.058401
20
187.797638
11
165.188138
21
187.598319
0
LINE
8
Layer 1
10
165.188138
20
187.598319
11
165.106211
21
187.398999
0
LINE
8
Layer 1
10
165.106211
20
187.398999
11
164.914735
21
187.316097
0
LINE
8
Layer 1
10
164.914735
20
187.316097
11
164.482582
21
187.598319
0
LINE
8
Layer 1
10
164.482582
20
187.598319
11
164.488150
21
187.797638
0
LINE
8
Layer 1
10
164.488150
20
187.797638
11
164.747166
21
187.880542
0
LINE
8
Layer 1
10
164.747166
20
187.880542
11
164.747166
21
187.880542
0
LINE
8
Layer 1
10
157.541680
20
187.809986
11
157.762436
21
187.772733
0
LINE
8
Layer 1
10
157.762436
20
187.772733
11
157.850360
21
187.642417
0
LINE
8
Layer 1
10
157.850360
20
187.642417
11
157.580927
21
187.364481
0
LINE
8
Layer 1
10
157.580927
20
187.364481
11
156.933138
21
187.086792
0
LINE
8
Layer 1
10
156.933138
20
187.086792
11
155.216991
21
186.672713
0
LINE
8
Layer 1
10
155.216991
20
186.672713
11
154.110916
21
186.672278
0
LINE
8
Layer 1
10
154.110916
20
186.672278
11
153.653375
21
186.866940
0
LINE
8
Layer 1
10
153.653375
20
186.866940
11
153.712813
21
187.075567
0
LINE
8
Layer 1
10
153.712813
20
187.075567
11
155.239805
21
187.439569
0
LINE
8
Layer 1
10
155.239805
20
187.439569
11
157.356471
21
187.774708
0
LINE
8
Layer 1
10
157.356471
20
187.774708
11
157.541680
21
187.809986
0
LINE
8
Layer 1
10
157.541680
20
187.809986
11
157.541680
21
187.809986
0
LINE
8
Layer 1
10
36.706471
20
187.730611
11
36.381312
21
187.478207
0
LINE
8
Layer 1
10
36.381312
20
187.478207
11
36.212582
21
186.963319
0
LINE
8
Layer 1
10
36.212582
20
186.963319
11
36.291559
21
186.797542
0
LINE
8
Layer 1
10
36.291559
20
186.797542
11
36.486704
21
186.759142
0
LINE
8
Layer 1
10
36.486704
20
186.759142
11
36.918138
21
187.033875
0
LINE
8
Layer 1
10
36.918138
20
187.033875
11
36.980707
21
187.327522
0
LINE
8
Layer 1
10
36.980707
20
187.327522
11
36.891680
21
187.633597
0
LINE
8
Layer 1
10
36.891680
20
187.633597
11
36.706471
21
187.730611
0
LINE
8
Layer 1
10
36.706471
20
187.730611
11
36.706471
21
187.730611
0
LINE
8
Layer 1
10
45.667027
20
187.633597
11
44.961471
21
187.060333
0
LINE
8
Layer 1
10
44.961471
20
187.060333
11
44.142285
21
186.518118
0
LINE
8
Layer 1
10
44.142285
20
186.518118
11
43.913442
21
186.477103
0
LINE
8
Layer 1
10
43.913442
20
186.477103
11
43.832582
21
186.601722
0
LINE
8
Layer 1
10
43.832582
20
186.601722
11
44.749805
21
187.183806
0
LINE
8
Layer 1
10
44.749805
20
187.183806
11
45.667027
21
187.633597
0
LINE
8
Layer 1
10
45.667027
20
187.633597
11
45.667027
21
187.633597
0
LINE
8
Layer 1
10
110.154805
20
187.316097
11
111.179112
21
187.233193
0
LINE
8
Layer 1
10
111.179112
20
187.233193
11
111.707027
21
187.033875
0
LINE
8
Layer 1
10
111.707027
20
187.033875
11
111.662253
21
186.915357
0
LINE
8
Layer 1
10
111.662253
20
186.915357
11
111.376511
21
186.826612
0
LINE
8
Layer 1
10
111.376511
20
186.826612
11
110.154805
21
186.751653
0
LINE
8
Layer 1
10
110.154805
20
186.751653
11
108.933098
21
186.826612
0
LINE
8
Layer 1
10
108.933098
20
186.826612
11
108.647356
21
186.915357
0
LINE
8
Layer 1
10
108.647356
20
186.915357
11
108.602582
21
187.033875
0
LINE
8
Layer 1
10
108.602582
20
187.033875
11
109.130497
21
187.233193
0
LINE
8
Layer 1
10
109.130497
20
187.233193
11
110.154805
21
187.316097
0
LINE
8
Layer 1
10
110.154805
20
187.316097
11
110.154805
21
187.316097
0
LINE
8
Layer 1
10
162.859805
20
187.307278
11
163.732930
21
187.069153
0
LINE
8
Layer 1
10
163.732930
20
187.069153
11
163.932331
21
186.863127
0
LINE
8
Layer 1
10
163.932331
20
186.863127
11
163.874041
21
186.707556
0
LINE
8
Layer 1
10
163.874041
20
186.707556
11
162.973244
21
186.699391
0
LINE
8
Layer 1
10
162.973244
20
186.699391
11
162.546536
21
186.849864
0
LINE
8
Layer 1
10
162.546536
20
186.849864
11
162.365916
21
187.051514
0
LINE
8
Layer 1
10
162.365916
20
187.051514
11
162.508327
21
187.240073
0
LINE
8
Layer 1
10
162.508327
20
187.240073
11
162.859805
21
187.307278
0
LINE
8
Layer 1
10
162.859805
20
187.307278
11
162.859805
21
187.307278
0
LINE
8
Layer 1
10
114.105916
20
187.016236
11
114.927888
21
186.943570
0
LINE
8
Layer 1
10
114.927888
20
186.943570
11
115.517027
21
186.751653
0
LINE
8
Layer 1
10
115.517027
20
186.751653
11
115.669071
21
186.540977
0
LINE
8
Layer 1
10
115.669071
20
186.540977
11
115.093694
21
186.495889
0
LINE
8
Layer 1
10
115.093694
20
186.495889
11
113.682582
21
186.751653
0
LINE
8
Layer 1
10
113.682582
20
186.751653
11
113.418631
21
186.953510
0
LINE
8
Layer 1
10
113.418631
20
186.953510
11
114.105916
21
187.016236
0
LINE
8
Layer 1
10
114.105916
20
187.016236
11
114.105916
21
187.016236
0
LINE
8
Layer 1
10
120.314805
20
186.751653
11
120.705272
21
186.680951
0
LINE
8
Layer 1
10
120.705272
20
186.680951
11
120.860938
21
186.507259
0
LINE
8
Layer 1
10
120.860938
20
186.507259
11
120.772201
21
186.288194
0
LINE
8
Layer 1
10
120.772201
20
186.288194
11
120.429457
21
186.081375
0
LINE
8
Layer 1
10
120.429457
20
186.081375
11
119.853365
21
185.935952
0
LINE
8
Layer 1
10
119.853365
20
185.935952
11
119.750360
21
186.328319
0
LINE
8
Layer 1
10
119.750360
20
186.328319
11
119.914990
21
186.628179
0
LINE
8
Layer 1
10
119.914990
20
186.628179
11
120.314805
21
186.751653
0
LINE
8
Layer 1
10
120.314805
20
186.751653
11
120.314805
21
186.751653
0
LINE
8
Layer 1
10
42.871263
20
185.508111
11
42.970909
21
185.390121
0
LINE
8
Layer 1
10
42.970909
20
185.390121
11
42.853624
21
185.075958
0
LINE
8
Layer 1
10
42.853624
20
185.075958
11
42.368555
21
184.776097
0
LINE
8
Layer 1
10
42.368555
20
184.776097
11
42.241354
21
184.891590
0
LINE
8
Layer 1
10
42.241354
20
184.891590
11
42.421471
21
185.208250
0
LINE
8
Layer 1
10
42.421471
20
185.208250
11
42.809527
21
185.499292
0
LINE
8
Layer 1
10
42.809527
20
185.499292
11
42.871263
21
185.508111
0
LINE
8
Layer 1
10
42.871263
20
185.508111
11
42.871263
21
185.508111
0
LINE
8
Layer 1
10
41.574805
20
184.776097
11
41.774123
21
184.651742
0
LINE
8
Layer 1
10
41.774123
20
184.651742
11
41.857027
21
184.352764
0
LINE
8
Layer 1
10
41.857027
20
184.352764
11
41.774123
21
184.053784
0
LINE
8
Layer 1
10
41.774123
20
184.053784
11
41.574805
21
183.929431
0
LINE
8
Layer 1
10
41.574805
20
183.929431
11
41.375484
21
184.053784
0
LINE
8
Layer 1
10
41.375484
20
184.053784
11
41.292582
21
184.352764
0
LINE
8
Layer 1
10
41.292582
20
184.352764
11
41.375484
21
184.651742
0
LINE
8
Layer 1
10
41.375484
20
184.651742
11
41.574805
21
184.776097
0
LINE
8
Layer 1
10
41.574805
20
184.776097
11
41.574805
21
184.776097
0
LINE
8
Layer 1
10
118.127582
20
184.308667
11
118.547169
21
184.151246
0
LINE
8
Layer 1
10
118.547169
20
184.151246
11
118.621471
21
183.567833
0
LINE
8
Layer 1
10
118.621471
20
183.567833
11
118.539643
21
183.047720
0
LINE
8
Layer 1
10
118.539643
20
183.047720
11
118.339249
21
182.941653
0
LINE
8
Layer 1
10
118.339249
20
182.941653
11
117.846708
21
182.981854
0
LINE
8
Layer 1
10
117.846708
20
182.981854
11
117.051610
21
182.835819
0
LINE
8
Layer 1
10
117.051610
20
182.835819
11
116.281268
21
182.679282
0
LINE
8
Layer 1
10
116.281268
20
182.679282
11
116.372513
21
182.959292
0
LINE
8
Layer 1
10
116.372513
20
182.959292
11
116.561212
21
183.361291
0
LINE
8
Layer 1
10
116.561212
20
183.361291
11
116.548902
21
183.761861
0
LINE
8
Layer 1
10
116.548902
20
183.761861
11
116.537081
21
183.953150
0
LINE
8
Layer 1
10
116.537081
20
183.953150
11
116.681857
21
184.094004
0
LINE
8
Layer 1
10
116.681857
20
184.094004
11
117.510221
21
184.264569
0
LINE
8
Layer 1
10
117.510221
20
184.264569
11
118.127582
21
184.308667
0
LINE
8
Layer 1
10
118.127582
20
184.308667
11
118.127582
21
184.308667
0
LINE
8
Layer 1
10
22.974596
20
181.671653
11
22.524804
21
181.389431
0
LINE
8
Layer 1
10
22.524804
20
181.389431
11
22.483540
21
181.190111
0
LINE
8
Layer 1
10
22.483540
20
181.190111
11
22.630637
21
181.107208
0
LINE
8
Layer 1
10
22.630637
20
181.107208
11
23.089249
21
181.389431
0
LINE
8
Layer 1
10
23.089249
20
181.389431
11
23.126103
21
181.588750
0
LINE
8
Layer 1
10
23.126103
20
181.588750
11
22.974596
21
181.671653
0
LINE
8
Layer 1
10
22.974596
20
181.671653
11
22.974596
21
181.671653
0
LINE
8
Layer 1
10
184.158763
20
181.671653
11
184.355560
21
181.473474
0
LINE
8
Layer 1
10
184.355560
20
181.473474
11
184.537999
21
180.992556
0
LINE
8
Layer 1
10
184.537999
20
180.992556
11
184.659570
21
180.276915
0
LINE
8
Layer 1
10
184.659570
20
180.276915
11
184.600614
21
179.833877
0
LINE
8
Layer 1
10
184.600614
20
179.833877
11
184.364831
21
179.672523
0
LINE
8
Layer 1
10
184.364831
20
179.672523
11
183.955916
21
179.801931
0
LINE
8
Layer 1
10
183.955916
20
179.801931
11
183.320916
21
180.145889
0
LINE
8
Layer 1
10
183.320916
20
180.145889
11
183.610013
21
180.926191
0
LINE
8
Layer 1
10
183.610013
20
180.926191
11
184.158763
21
181.671653
0
LINE
8
Layer 1
10
184.158763
20
181.671653
11
184.158763
21
181.671653
0
LINE
8
Layer 1
10
169.439110
20
181.371792
11
170.351872
21
181.250677
0
LINE
8
Layer 1
10
170.351872
20
181.250677
11
170.911957
21
180.824986
0
LINE
8
Layer 1
10
170.911957
20
180.824986
11
171.308070
21
180.417834
0
LINE
8
Layer 1
10
171.308070
20
180.417834
11
171.679249
21
180.683875
0
LINE
8
Layer 1
10
171.679249
20
180.683875
11
172.055198
21
180.977950
0
LINE
8
Layer 1
10
172.055198
20
180.977950
11
172.499457
21
180.701514
0
LINE
8
Layer 1
10
172.499457
20
180.701514
11
173.407389
21
180.274571
0
LINE
8
Layer 1
10
173.407389
20
180.274571
11
174.933624
21
179.837208
0
LINE
8
Layer 1
10
174.933624
20
179.837208
11
177.537031
21
179.138786
0
LINE
8
Layer 1
10
177.537031
20
179.138786
11
177.848802
21
178.801809
0
LINE
8
Layer 1
10
177.848802
20
178.801809
11
177.888138
21
178.267347
0
LINE
8
Layer 1
10
177.888138
20
178.267347
11
177.794044
21
177.686030
0
LINE
8
Layer 1
10
177.794044
20
177.686030
11
177.513747
21
177.463704
0
LINE
8
Layer 1
10
177.513747
20
177.463704
11
177.050230
21
177.601308
0
LINE
8
Layer 1
10
177.050230
20
177.601308
11
176.406471
21
178.099778
0
LINE
8
Layer 1
10
176.406471
20
178.099778
11
175.741683
21
178.562349
0
LINE
8
Layer 1
10
175.741683
20
178.562349
11
175.207027
21
178.496653
0
LINE
8
Layer 1
10
175.207027
20
178.496653
11
173.986490
21
178.320646
0
LINE
8
Layer 1
10
173.986490
20
178.320646
11
171.930463
21
178.341075
0
LINE
8
Layer 1
10
171.930463
20
178.341075
11
169.903170
21
178.516463
0
LINE
8
Layer 1
10
169.903170
20
178.516463
11
168.768832
21
178.805333
0
LINE
8
Layer 1
10
168.768832
20
178.805333
11
168.391826
21
179.008727
0
LINE
8
Layer 1
10
168.391826
20
179.008727
11
168.142652
21
178.849431
0
LINE
8
Layer 1
10
168.142652
20
178.849431
11
167.876487
21
178.717330
0
LINE
8
Layer 1
10
167.876487
20
178.717330
11
167.454735
21
178.981722
0
LINE
8
Layer 1
10
167.454735
20
178.981722
11
167.158607
21
179.210085
0
LINE
8
Layer 1
10
167.158607
20
179.210085
11
166.869414
21
179.285295
0
LINE
8
Layer 1
10
166.869414
20
179.285295
11
165.867235
21
178.972903
0
LINE
8
Layer 1
10
165.867235
20
178.972903
11
164.332652
21
178.135056
0
LINE
8
Layer 1
10
164.332652
20
178.135056
11
163.997053
21
177.926745
0
LINE
8
Layer 1
10
163.997053
20
177.926745
11
163.283297
21
177.975609
0
LINE
8
Layer 1
10
163.283297
20
177.975609
11
158.441263
21
179.308042
0
LINE
8
Layer 1
10
158.441263
20
179.308042
11
157.200689
21
179.584390
0
LINE
8
Layer 1
10
157.200689
20
179.584390
11
156.886744
21
179.554092
0
LINE
8
Layer 1
10
156.886744
20
179.554092
11
156.712652
21
179.413875
0
LINE
8
Layer 1
10
156.712652
20
179.413875
11
156.504483
21
179.245629
0
LINE
8
Layer 1
10
156.504483
20
179.245629
11
156.197365
21
179.200043
0
LINE
8
Layer 1
10
156.197365
20
179.200043
11
155.442496
21
179.403269
0
LINE
8
Layer 1
10
155.442496
20
179.403269
11
154.760465
21
179.876382
0
LINE
8
Layer 1
10
154.760465
20
179.876382
11
154.463694
21
180.472208
0
LINE
8
Layer 1
10
154.463694
20
180.472208
11
154.631622
21
180.709548
0
LINE
8
Layer 1
10
154.631622
20
180.709548
11
155.082012
21
180.776279
0
LINE
8
Layer 1
10
155.082012
20
180.776279
11
156.509805
21
180.410472
0
LINE
8
Layer 1
10
156.509805
20
180.410472
11
156.880639
21
180.349189
0
LINE
8
Layer 1
10
156.880639
20
180.349189
11
157.003694
21
180.586861
0
LINE
8
Layer 1
10
157.003694
20
180.586861
11
157.264791
21
180.754638
0
LINE
8
Layer 1
10
157.264791
20
180.754638
11
157.954504
21
180.894061
0
LINE
8
Layer 1
10
157.954504
20
180.894061
11
160.066286
21
181.066319
0
LINE
8
Layer 1
10
160.066286
20
181.066319
11
162.232067
21
181.060584
0
LINE
8
Layer 1
10
162.232067
20
181.060584
11
162.989278
21
180.977516
0
LINE
8
Layer 1
10
162.989278
20
180.977516
11
163.344874
21
180.833806
0
LINE
8
Layer 1
10
163.344874
20
180.833806
11
163.794883
21
180.610787
0
LINE
8
Layer 1
10
163.794883
20
180.610787
11
164.670584
21
180.561664
0
LINE
8
Layer 1
10
164.670584
20
180.561664
11
167.163694
21
180.966097
0
LINE
8
Layer 1
10
167.163694
20
180.966097
11
169.439110
21
181.371792
0
LINE
8
Layer 1
10
169.439110
20
181.371792
11
169.439110
21
181.371792
0
LINE
8
Layer 1
10
178.673069
20
176.803319
11
178.893555
21
176.768042
0
LINE
8
Layer 1
10
178.893555
20
176.768042
11
179.125521
21
176.531315
0
LINE
8
Layer 1
10
179.125521
20
176.531315
11
179.122860
21
176.177139
0
LINE
8
Layer 1
10
179.122860
20
176.177139
11
178.825653
21
175.891600
0
LINE
8
Layer 1
10
178.825653
20
175.891600
11
178.329518
21
175.758565
0
LINE
8
Layer 1
10
178.329518
20
175.758565
11
177.817745
21
175.795129
0
LINE
8
Layer 1
10
177.817745
20
175.795129
11
177.473624
21
176.018389
0
LINE
8
Layer 1
10
177.473624
20
176.018389
11
177.502850
21
176.272496
0
LINE
8
Layer 1
10
177.502850
20
176.272496
11
177.794059
21
176.530778
0
LINE
8
Layer 1
10
177.794059
20
176.530778
11
178.673069
21
176.803319
0
LINE
8
Layer 1
10
178.673069
20
176.803319
11
178.673069
21
176.803319
0
LINE
8
Layer 1
10
177.755846
20
174.880681
11
177.927869
21
174.655599
0
LINE
8
Layer 1
10
177.927869
20
174.655599
11
177.702930
21
174.051653
0
LINE
8
Layer 1
10
177.702930
20
174.051653
11
177.329233
21
173.453694
0
LINE
8
Layer 1
10
177.329233
20
173.453694
11
177.023832
21
173.204986
0
LINE
8
Layer 1
10
177.023832
20
173.204986
11
176.635100
21
172.798593
0
LINE
8
Layer 1
10
176.635100
20
172.798593
11
176.062513
21
171.820333
0
LINE
8
Layer 1
10
176.062513
20
171.820333
11
175.398540
21
170.780330
0
LINE
8
Layer 1
10
175.398540
20
170.780330
11
174.630474
21
169.943900
0
LINE
8
Layer 1
10
174.630474
20
169.943900
11
173.941223
21
169.474628
0
LINE
8
Layer 1
10
173.941223
20
169.474628
11
173.683311
21
169.428796
0
LINE
8
Layer 1
10
173.683311
20
169.428796
11
173.513694
21
169.536097
0
LINE
8
Layer 1
10
173.513694
20
169.536097
11
173.228453
21
169.736470
0
LINE
8
Layer 1
10
173.228453
20
169.736470
11
172.790499
21
169.818319
0
LINE
8
Layer 1
10
172.790499
20
169.818319
11
172.404116
21
169.901222
0
LINE
8
Layer 1
10
172.404116
20
169.901222
11
172.243694
21
170.100542
0
LINE
8
Layer 1
10
172.243694
20
170.100542
11
172.430226
21
170.299645
0
LINE
8
Layer 1
10
172.430226
20
170.299645
11
172.878694
21
170.382764
0
LINE
8
Layer 1
10
172.878694
20
170.382764
11
173.254569
21
170.479075
0
LINE
8
Layer 1
10
173.254569
20
170.479075
11
172.596471
21
170.947208
0
LINE
8
Layer 1
10
172.596471
20
170.947208
11
172.019226
21
171.407304
0
LINE
8
Layer 1
10
172.019226
20
171.407304
11
171.711701
21
171.865750
0
LINE
8
Layer 1
10
171.711701
20
171.865750
11
171.714270
21
172.217703
0
LINE
8
Layer 1
10
171.714270
20
172.217703
11
172.067305
21
172.358319
0
LINE
8
Layer 1
10
172.067305
20
172.358319
11
174.871888
21
173.628319
0
LINE
8
Layer 1
10
174.871888
20
173.628319
11
176.806545
21
174.592303
0
LINE
8
Layer 1
10
176.806545
20
174.592303
11
177.755846
21
174.880681
0
LINE
8
Layer 1
10
177.755846
20
174.880681
11
177.755846
21
174.880681
0
LINE
8
Layer 1
10
59.204874
20
173.910542
11
59.487096
21
173.778250
0
LINE
8
Layer 1
10
59.487096
20
173.778250
11
59.719739
21
173.428357
0
LINE
8
Layer 1
10
59.719739
20
173.428357
11
59.725221
21
173.046236
0
LINE
8
Layer 1
10
59.725221
20
173.046236
11
59.715047
21
172.774959
0
LINE
8
Layer 1
10
59.715047
20
172.774959
11
60.025082
21
172.808111
0
LINE
8
Layer 1
10
60.025082
20
172.808111
11
60.384997
21
172.788238
0
LINE
8
Layer 1
10
60.384997
20
172.788238
11
60.483694
21
172.234847
0
LINE
8
Layer 1
10
60.483694
20
172.234847
11
60.210291
21
170.982486
0
LINE
8
Layer 1
10
60.210291
20
170.982486
11
60.125596
21
170.289959
0
LINE
8
Layer 1
10
60.125596
20
170.289959
11
60.413138
21
169.192139
0
LINE
8
Layer 1
10
60.413138
20
169.192139
11
60.719628
21
167.953993
0
LINE
8
Layer 1
10
60.719628
20
167.953993
11
60.607166
21
166.846167
0
LINE
8
Layer 1
10
60.607166
20
166.846167
11
60.433077
21
166.266249
0
LINE
8
Layer 1
10
60.433077
20
166.266249
11
60.219999
21
165.942104
0
LINE
8
Layer 1
10
60.219999
20
165.942104
11
59.874185
21
165.796587
0
LINE
8
Layer 1
10
59.874185
20
165.796587
11
59.301888
21
165.752556
0
LINE
8
Layer 1
10
59.301888
20
165.752556
11
58.431440
21
165.843398
0
LINE
8
Layer 1
10
58.431440
20
165.843398
11
58.358015
21
166.085443
0
LINE
8
Layer 1
10
58.358015
20
166.085443
11
58.428763
21
166.546306
0
LINE
8
Layer 1
10
58.428763
20
166.546306
11
58.479425
21
167.125847
0
LINE
8
Layer 1
10
58.479425
20
167.125847
11
58.270013
21
167.163667
0
LINE
8
Layer 1
10
58.270013
20
167.163667
11
58.039563
21
166.847883
0
LINE
8
Layer 1
10
58.039563
20
166.847883
11
57.943694
21
166.369917
0
LINE
8
Layer 1
10
57.943694
20
166.369917
11
57.885223
21
166.005842
0
LINE
8
Layer 1
10
57.885223
20
166.005842
11
57.749666
21
165.964222
0
LINE
8
Layer 1
10
57.749666
20
165.964222
11
57.604611
21
166.468821
0
LINE
8
Layer 1
10
57.604611
20
166.468821
11
57.635340
21
167.440088
0
LINE
8
Layer 1
10
57.635340
20
167.440088
11
58.181819
21
170.365125
0
LINE
8
Layer 1
10
58.181819
20
170.365125
11
58.905013
21
173.302000
0
LINE
8
Layer 1
10
58.905013
20
173.302000
11
59.043595
21
173.750820
0
LINE
8
Layer 1
10
59.043595
20
173.750820
11
59.204874
21
173.910542
0
LINE
8
Layer 1
10
59.204874
20
173.910542
11
59.204874
21
173.910542
0
LINE
8
Layer 1
10
169.827166
20
170.664986
11
170.138401
21
170.582083
0
LINE
8
Layer 1
10
170.138401
20
170.582083
11
170.268138
21
170.382764
0
LINE
8
Layer 1
10
170.268138
20
170.382764
11
170.186211
21
170.183444
0
LINE
8
Layer 1
10
170.186211
20
170.183444
11
169.994735
21
170.100542
0
LINE
8
Layer 1
10
169.994735
20
170.100542
11
169.562582
21
170.382764
0
LINE
8
Layer 1
10
169.562582
20
170.382764
11
169.568152
21
170.582083
0
LINE
8
Layer 1
10
169.568152
20
170.582083
11
169.827166
21
170.664986
0
LINE
8
Layer 1
10
169.827166
20
170.664986
11
169.827166
21
170.664986
0
LINE
8
Layer 1
10
169.218624
20
169.818319
11
169.914804
21
169.481242
0
LINE
8
Layer 1
10
169.914804
20
169.481242
11
170.168436
21
169.156334
0
LINE
8
Layer 1
10
170.168436
20
169.156334
11
170.268138
21
168.812903
0
LINE
8
Layer 1
10
170.268138
20
168.812903
11
170.060882
21
168.576939
0
LINE
8
Layer 1
10
170.060882
20
168.576939
11
169.562582
21
168.477764
0
LINE
8
Layer 1
10
169.562582
20
168.477764
11
169.001853
21
168.615347
0
LINE
8
Layer 1
10
169.001853
20
168.615347
11
168.857027
21
169.148042
0
LINE
8
Layer 1
10
168.857027
20
169.148042
11
168.962154
21
169.621425
0
LINE
8
Layer 1
10
168.962154
20
169.621425
11
169.218624
21
169.818319
0
LINE
8
Layer 1
10
169.218624
20
169.818319
11
169.218624
21
169.818319
0
LINE
8
Layer 1
10
174.042860
20
168.839361
11
174.576396
21
168.782809
0
LINE
8
Layer 1
10
174.576396
20
168.782809
11
174.778016
21
168.552522
0
LINE
8
Layer 1
10
174.778016
20
168.552522
11
174.656155
21
168.128311
0
LINE
8
Layer 1
10
174.656155
20
168.128311
11
174.219249
21
167.489986
0
LINE
8
Layer 1
10
174.219249
20
167.489986
11
173.654805
21
166.458111
0
LINE
8
Layer 1
10
173.654805
20
166.458111
11
173.496000
21
166.240191
0
LINE
8
Layer 1
10
173.496000
20
166.240191
11
173.116819
21
166.149431
0
LINE
8
Layer 1
10
173.116819
20
166.149431
11
172.691768
21
166.025076
0
LINE
8
Layer 1
10
172.691768
20
166.025076
11
172.420082
21
165.726097
0
LINE
8
Layer 1
10
172.420082
20
165.726097
11
172.137472
21
165.427118
0
LINE
8
Layer 1
10
172.137472
20
165.427118
11
171.688069
21
165.302764
0
LINE
8
Layer 1
10
171.688069
20
165.302764
11
171.159052
21
165.105887
0
LINE
8
Layer 1
10
171.159052
20
165.105887
11
170.682652
21
164.632486
0
LINE
8
Layer 1
10
170.682652
20
164.632486
11
169.958059
21
163.948976
0
LINE
8
Layer 1
10
169.958059
20
163.948976
11
168.869550
21
163.253706
0
LINE
8
Layer 1
10
168.869550
20
163.253706
11
167.880613
21
162.802444
0
LINE
8
Layer 1
10
167.880613
20
162.802444
11
167.568324
21
162.748244
0
LINE
8
Layer 1
10
167.568324
20
162.748244
11
167.454735
21
162.850958
0
LINE
8
Layer 1
10
167.454735
20
162.850958
11
167.869249
21
163.732903
0
LINE
8
Layer 1
10
167.869249
20
163.732903
11
168.118376
21
164.236210
0
LINE
8
Layer 1
10
168.118376
20
164.236210
11
167.957444
21
164.650125
0
LINE
8
Layer 1
10
167.957444
20
164.650125
11
167.794038
21
164.979546
0
LINE
8
Layer 1
10
167.794038
20
164.979546
11
167.842791
21
165.232208
0
LINE
8
Layer 1
10
167.842791
20
165.232208
11
168.053766
21
165.256782
0
LINE
8
Layer 1
10
168.053766
20
165.256782
11
168.283763
21
165.038181
0
LINE
8
Layer 1
10
168.283763
20
165.038181
11
168.622579
21
164.822361
0
LINE
8
Layer 1
10
168.622579
20
164.822361
11
169.280360
21
165.188111
0
LINE
8
Layer 1
10
169.280360
20
165.188111
11
170.850221
21
166.184708
0
LINE
8
Layer 1
10
170.850221
20
166.184708
11
171.368255
21
166.558701
0
LINE
8
Layer 1
10
171.368255
20
166.558701
11
171.476402
21
166.819708
0
LINE
8
Layer 1
10
171.476402
20
166.819708
11
171.487671
21
166.945139
0
LINE
8
Layer 1
10
171.487671
20
166.945139
11
171.767444
21
166.996097
0
LINE
8
Layer 1
10
171.767444
20
166.996097
11
172.081523
21
167.052383
0
LINE
8
Layer 1
10
172.081523
20
167.052383
11
172.218494
21
167.208664
0
LINE
8
Layer 1
10
172.218494
20
167.208664
11
171.943832
21
167.745750
0
LINE
8
Layer 1
10
171.943832
20
167.745750
11
171.817825
21
168.072739
0
LINE
8
Layer 1
10
171.817825
20
168.072739
11
172.076237
21
168.373457
0
LINE
8
Layer 1
10
172.076237
20
168.373457
11
172.678552
21
168.622700
0
LINE
8
Layer 1
10
172.678552
20
168.622700
11
173.584249
21
168.795264
0
LINE
8
Layer 1
10
173.584249
20
168.795264
11
174.042860
21
168.839361
0
LINE
8
Layer 1
10
174.042860
20
168.839361
11
174.042860
21
168.839361
0
LINE
8
Layer 1
10
181.592305
20
160.390333
11
181.733872
21
160.079672
0
LINE
8
Layer 1
10
181.733872
20
160.079672
11
181.806275
21
158.824547
0
LINE
8
Layer 1
10
181.806275
20
158.824547
11
181.759874
21
152.858528
0
LINE
8
Layer 1
10
181.759874
20
152.858528
11
181.592734
21
147.644014
0
LINE
8
Layer 1
10
181.592734
20
147.644014
11
181.301916
21
143.794527
0
LINE
8
Layer 1
10
181.301916
20
143.794527
11
180.856432
21
141.039661
0
LINE
8
Layer 1
10
180.856432
20
141.039661
11
180.225291
21
139.109014
0
LINE
8
Layer 1
10
180.225291
20
139.109014
11
179.537374
21
137.503875
0
LINE
8
Layer 1
10
179.537374
20
137.503875
11
179.461305
21
137.730094
0
LINE
8
Layer 1
10
179.461305
20
137.730094
11
179.412794
21
138.763292
0
LINE
8
Layer 1
10
179.412794
20
138.763292
11
179.413902
21
142.583875
0
LINE
8
Layer 1
10
179.413902
20
142.583875
11
179.639335
21
148.055970
0
LINE
8
Layer 1
10
179.639335
20
148.055970
11
180.384041
21
152.876167
0
LINE
8
Layer 1
10
180.384041
20
152.876167
11
181.012036
21
156.548905
0
LINE
8
Layer 1
10
181.012036
20
156.548905
11
181.274805
21
158.855750
0
LINE
8
Layer 1
10
181.274805
20
158.855750
11
181.367591
21
159.857547
0
LINE
8
Layer 1
10
181.367591
20
159.857547
11
181.592305
21
160.390333
0
LINE
8
Layer 1
10
181.592305
20
160.390333
11
181.592305
21
160.390333
0
LINE
8
Layer 1
10
183.109249
20
157.823875
11
183.468191
21
157.492264
0
LINE
8
Layer 1
10
183.468191
20
157.492264
11
183.938277
21
156.694986
0
LINE
8
Layer 1
10
183.938277
20
156.694986
11
184.220903
21
155.989431
0
LINE
8
Layer 1
10
184.220903
20
155.989431
11
184.378347
21
155.160160
0
LINE
8
Layer 1
10
184.378347
20
155.160160
11
184.414527
21
152.179431
0
LINE
8
Layer 1
10
184.414527
20
152.179431
11
184.453136
21
149.312524
0
LINE
8
Layer 1
10
184.453136
20
149.312524
11
184.736021
21
146.459766
0
LINE
8
Layer 1
10
184.736021
20
146.459766
11
185.305747
21
143.327118
0
LINE
8
Layer 1
10
185.305747
20
143.327118
11
186.204874
21
139.620542
0
LINE
8
Layer 1
10
186.204874
20
139.620542
11
187.946105
21
132.698009
0
LINE
8
Layer 1
10
187.946105
20
132.698009
11
188.753694
21
128.684431
0
LINE
8
Layer 1
10
188.753694
20
128.684431
11
188.995877
21
127.315126
0
LINE
8
Layer 1
10
188.995877
20
127.315126
11
189.053555
21
125.923944
0
LINE
8
Layer 1
10
189.053555
20
125.923944
11
189.035916
21
123.727903
0
LINE
8
Layer 1
10
189.035916
20
123.727903
11
188.675622
21
123.439890
0
LINE
8
Layer 1
10
188.675622
20
123.439890
11
188.374457
21
124.151236
0
LINE
8
Layer 1
10
188.374457
20
124.151236
11
187.739457
21
126.708875
0
LINE
8
Layer 1
10
187.739457
20
126.708875
11
187.385665
21
127.877064
0
LINE
8
Layer 1
10
187.385665
20
127.877064
11
187.025082
21
128.331653
0
LINE
8
Layer 1
10
187.025082
20
128.331653
11
186.611704
21
128.184277
0
LINE
8
Layer 1
10
186.611704
20
128.184277
11
186.587824
21
127.376411
0
LINE
8
Layer 1
10
186.587824
20
127.376411
11
188.030499
21
121.584778
0
LINE
8
Layer 1
10
188.030499
20
121.584778
11
188.335793
21
119.590519
0
LINE
8
Layer 1
10
188.335793
20
119.590519
11
188.503740
21
116.839236
0
LINE
8
Layer 1
10
188.503740
20
116.839236
11
188.510031
21
114.090498
0
LINE
8
Layer 1
10
188.510031
20
114.090498
11
188.330360
21
112.103875
0
LINE
8
Layer 1
10
188.330360
20
112.103875
11
187.977582
21
110.419361
0
LINE
8
Layer 1
10
187.977582
20
110.419361
11
187.016263
21
111.521792
0
LINE
8
Layer 1
10
187.016263
20
111.521792
11
186.251275
21
112.642530
0
LINE
8
Layer 1
10
186.251275
20
112.642530
11
185.755082
21
113.779569
0
LINE
8
Layer 1
10
185.755082
20
113.779569
11
184.871617
21
116.491303
0
LINE
8
Layer 1
10
184.871617
20
116.491303
11
184.437484
21
117.356774
0
LINE
8
Layer 1
10
184.437484
20
117.356774
11
184.000013
21
117.915889
0
LINE
8
Layer 1
10
184.000013
20
117.915889
11
183.461659
21
118.318172
0
LINE
8
Layer 1
10
183.461659
20
118.318172
11
183.206263
21
117.968806
0
LINE
8
Layer 1
10
183.206263
20
117.968806
11
183.022591
21
117.253118
0
LINE
8
Layer 1
10
183.022591
20
117.253118
11
183.069508
21
116.496735
0
LINE
8
Layer 1
10
183.069508
20
116.496735
11
183.372215
21
115.579010
0
LINE
8
Layer 1
10
183.372215
20
115.579010
11
183.955916
21
114.379292
0
LINE
8
Layer 1
10
183.955916
20
114.379292
11
184.966146
21
111.822041
0
LINE
8
Layer 1
10
184.966146
20
111.822041
11
185.748846
21
108.787619
0
LINE
8
Layer 1
10
185.748846
20
108.787619
11
186.104716
21
106.251567
0
LINE
8
Layer 1
10
186.104716
20
106.251567
11
186.060309
21
105.475288
0
LINE
8
Layer 1
10
186.060309
20
105.475288
11
185.834457
21
105.189431
0
LINE
8
Layer 1
10
185.834457
20
105.189431
11
185.439751
21
105.624298
0
LINE
8
Layer 1
10
185.439751
20
105.624298
11
184.827873
21
106.734927
0
LINE
8
Layer 1
10
184.827873
20
106.734927
11
183.532582
21
109.819639
0
LINE
8
Layer 1
10
183.532582
20
109.819639
11
181.980360
21
116.196097
0
LINE
8
Layer 1
10
181.980360
20
116.196097
11
180.586888
21
122.228597
0
LINE
8
Layer 1
10
180.586888
20
122.228597
11
180.295846
21
124.036583
0
LINE
8
Layer 1
10
180.295846
20
124.036583
11
180.597598
21
126.030700
0
LINE
8
Layer 1
10
180.597598
20
126.030700
11
180.467980
21
126.265737
0
LINE
8
Layer 1
10
180.467980
20
126.265737
11
180.137096
21
126.214986
0
LINE
8
Layer 1
10
180.137096
20
126.214986
11
179.681673
21
126.224669
0
LINE
8
Layer 1
10
179.681673
20
126.224669
11
179.581471
21
126.876444
0
LINE
8
Layer 1
10
179.581471
20
126.876444
11
180.172374
21
129.636931
0
LINE
8
Layer 1
10
180.172374
20
129.636931
11
180.598516
21
131.483337
0
LINE
8
Layer 1
10
180.598516
20
131.483337
11
180.586888
21
133.129431
0
LINE
8
Layer 1
10
180.586888
20
133.129431
11
180.539817
21
134.484152
0
LINE
8
Layer 1
10
180.539817
20
134.484152
11
180.851471
21
135.254917
0
LINE
8
Layer 1
10
180.851471
20
135.254917
11
181.215786
21
135.653233
0
LINE
8
Layer 1
10
181.215786
20
135.653233
11
181.124874
21
135.175542
0
LINE
8
Layer 1
10
181.124874
20
135.175542
11
181.083193
21
134.726411
0
LINE
8
Layer 1
10
181.083193
20
134.726411
11
181.230707
21
134.540542
0
LINE
8
Layer 1
10
181.230707
20
134.540542
11
181.494522
21
134.743044
0
LINE
8
Layer 1
10
181.494522
20
134.743044
11
181.604022
21
135.264286
0
LINE
8
Layer 1
10
181.604022
20
135.264286
11
181.553323
21
135.974871
0
LINE
8
Layer 1
10
181.553323
20
135.974871
11
181.336541
21
136.745403
0
LINE
8
Layer 1
10
181.336541
20
136.745403
11
181.113298
21
137.827193
0
LINE
8
Layer 1
10
181.113298
20
137.827193
11
181.398277
21
139.426514
0
LINE
8
Layer 1
10
181.398277
20
139.426514
11
181.956680
21
141.892232
0
LINE
8
Layer 1
10
181.956680
20
141.892232
11
182.299888
21
144.176292
0
LINE
8
Layer 1
10
182.299888
20
144.176292
11
182.641819
21
151.050542
0
LINE
8
Layer 1
10
182.641819
20
151.050542
11
182.851950
21
156.014746
0
LINE
8
Layer 1
10
182.851950
20
156.014746
11
183.109249
21
157.823875
0
LINE
8
Layer 1
10
183.109249
20
157.823875
11
183.109249
21
157.823875
0
LINE
8
Layer 1
10
56.488485
20
152.602764
11
57.322925
21
151.338497
0
LINE
8
Layer 1
10
57.322925
20
151.338497
11
58.905013
21
148.298875
0
LINE
8
Layer 1
10
58.905013
20
148.298875
11
62.159388
21
142.187000
0
LINE
8
Layer 1
10
62.159388
20
142.187000
11
63.129400
21
140.445495
0
LINE
8
Layer 1
10
63.129400
20
140.445495
11
63.861541
21
138.800333
0
LINE
8
Layer 1
10
63.861541
20
138.800333
11
65.045191
21
136.049076
0
LINE
8
Layer 1
10
65.045191
20
136.049076
11
65.551863
21
135.405919
0
LINE
8
Layer 1
10
65.551863
20
135.405919
11
66.057582
21
135.157903
0
LINE
8
Layer 1
10
66.057582
20
135.157903
11
66.758390
21
134.740967
0
LINE
8
Layer 1
10
66.758390
20
134.740967
11
67.565707
21
133.799708
0
LINE
8
Layer 1
10
67.565707
20
133.799708
11
68.402261
21
132.761767
0
LINE
8
Layer 1
10
68.402261
20
132.761767
11
69.188485
21
132.053458
0
LINE
8
Layer 1
10
69.188485
20
132.053458
11
71.058087
21
130.714441
0
LINE
8
Layer 1
10
71.058087
20
130.714441
11
71.585400
21
130.193869
0
LINE
8
Layer 1
10
71.585400
20
130.193869
11
71.772582
21
129.830958
0
LINE
8
Layer 1
10
71.772582
20
129.830958
11
71.730165
21
129.578691
0
LINE
8
Layer 1
10
71.730165
20
129.578691
11
71.538938
21
129.496464
0
LINE
8
Layer 1
10
71.538938
20
129.496464
11
70.326194
21
129.848597
0
LINE
8
Layer 1
10
70.326194
20
129.848597
11
69.073334
21
130.418803
0
LINE
8
Layer 1
10
69.073334
20
130.418803
11
67.817261
21
131.231498
0
LINE
8
Layer 1
10
67.817261
20
131.231498
11
66.565164
21
132.278638
0
LINE
8
Layer 1
10
66.565164
20
132.278638
11
65.324234
21
133.552178
0
LINE
8
Layer 1
10
65.324234
20
133.552178
11
62.904635
21
136.746275
0
LINE
8
Layer 1
10
62.904635
20
136.746275
11
60.615985
21
140.749431
0
LINE
8
Layer 1
10
60.615985
20
140.749431
11
58.604594
21
145.453816
0
LINE
8
Layer 1
10
58.604594
20
145.453816
11
56.982374
21
150.186236
0
LINE
8
Layer 1
10
56.982374
20
150.186236
11
56.391471
21
152.108875
0
LINE
8
Layer 1
10
56.391471
20
152.108875
11
56.329098
21
152.464256
0
LINE
8
Layer 1
10
56.329098
20
152.464256
11
56.488485
21
152.602764
0
LINE
8
Layer 1
10
56.488485
20
152.602764
11
56.488485
21
152.602764
0
LINE
8
Layer 1
10
177.738207
20
151.429778
11
177.914596
21
150.856514
0
LINE
8
Layer 1
10
177.914596
20
150.856514
11
178.170360
21
140.740611
0
LINE
8
Layer 1
10
178.170360
20
140.740611
11
177.632374
21
136.330889
0
LINE
8
Layer 1
10
177.632374
20
136.330889
11
176.966351
21
133.345852
0
LINE
8
Layer 1
10
176.966351
20
133.345852
11
176.481419
21
132.274655
0
LINE
8
Layer 1
10
176.481419
20
132.274655
11
175.727374
21
131.012764
0
LINE
8
Layer 1
10
175.727374
20
131.012764
11
173.491875
21
127.861036
0
LINE
8
Layer 1
10
173.491875
20
127.861036
11
172.608349
21
126.927771
0
LINE
8
Layer 1
10
172.608349
20
126.927771
11
171.935013
21
126.488389
0
LINE
8
Layer 1
10
171.935013
20
126.488389
11
171.538779
21
126.181289
0
LINE
8
Layer 1
10
171.538779
20
126.181289
11
171.397027
21
125.632903
0
LINE
8
Layer 1
10
171.397027
20
125.632903
11
171.228883
21
124.988788
0
LINE
8
Layer 1
10
171.228883
20
124.988788
11
171.035041
21
124.993705
0
LINE
8
Layer 1
10
171.035041
20
124.993705
11
170.782543
21
125.200714
0
LINE
8
Layer 1
10
170.782543
20
125.200714
11
170.145147
21
126.173335
0
LINE
8
Layer 1
10
170.145147
20
126.173335
11
169.403832
21
127.811306
0
LINE
8
Layer 1
10
169.403832
20
127.811306
11
168.934707
21
129.374465
0
LINE
8
Layer 1
10
168.934707
20
129.374465
11
168.663431
21
131.021068
0
LINE
8
Layer 1
10
168.663431
20
131.021068
11
168.623449
21
132.425393
0
LINE
8
Layer 1
10
168.623449
20
132.425393
11
168.848207
21
133.261722
0
LINE
8
Layer 1
10
168.848207
20
133.261722
11
169.006247
21
133.675465
0
LINE
8
Layer 1
10
169.006247
20
133.675465
11
168.504249
21
133.729153
0
LINE
8
Layer 1
10
168.504249
20
133.729153
11
168.354761
21
133.829369
0
LINE
8
Layer 1
10
168.354761
20
133.829369
11
168.292582
21
134.117208
0
LINE
8
Layer 1
10
168.292582
20
134.117208
11
168.666613
21
134.944561
0
LINE
8
Layer 1
10
168.666613
20
134.944561
11
169.529593
21
136.126250
0
LINE
8
Layer 1
10
169.529593
20
136.126250
11
170.492853
21
137.185362
0
LINE
8
Layer 1
10
170.492853
20
137.185362
11
171.167721
21
137.644986
0
LINE
8
Layer 1
10
171.167721
20
137.644986
11
171.595307
21
137.743077
0
LINE
8
Layer 1
10
171.595307
20
137.743077
11
171.860635
21
138.071497
0
LINE
8
Layer 1
10
171.860635
20
138.071497
11
171.986763
21
138.684961
0
LINE
8
Layer 1
10
171.986763
20
138.684961
11
171.996749
21
139.638181
0
LINE
8
Layer 1
10
171.996749
20
139.638181
11
172.102836
21
140.892481
0
LINE
8
Layer 1
10
172.102836
20
140.892481
11
172.525916
21
141.957694
0
LINE
8
Layer 1
10
172.525916
20
141.957694
11
172.881710
21
142.774209
0
LINE
8
Layer 1
10
172.881710
20
142.774209
11
172.931610
21
143.368806
0
LINE
8
Layer 1
10
172.931610
20
143.368806
11
172.945227
21
143.931407
0
LINE
8
Layer 1
10
172.945227
20
143.931407
11
173.213832
21
144.674083
0
LINE
8
Layer 1
10
173.213832
20
144.674083
11
173.515602
21
145.400460
0
LINE
8
Layer 1
10
173.515602
20
145.400460
11
173.445882
21
145.519463
0
LINE
8
Layer 1
10
173.445882
20
145.519463
11
173.231471
21
145.547208
0
LINE
8
Layer 1
10
173.231471
20
145.547208
11
172.871920
21
145.654580
0
LINE
8
Layer 1
10
172.871920
20
145.654580
11
172.846615
21
145.948922
0
LINE
8
Layer 1
10
172.846615
20
145.948922
11
173.139415
21
146.388569
0
LINE
8
Layer 1
10
173.139415
20
146.388569
11
173.734180
21
146.931861
0
LINE
8
Layer 1
10
173.734180
20
146.931861
11
174.216756
21
147.164882
0
LINE
8
Layer 1
10
174.216756
20
147.164882
11
174.624944
21
146.790750
0
LINE
8
Layer 1
10
174.624944
20
146.790750
11
174.841737
21
146.530746
0
LINE
8
Layer 1
10
174.841737
20
146.530746
11
174.981125
21
146.516229
0
LINE
8
Layer 1
10
174.981125
20
146.516229
11
175.198207
21
147.390472
0
LINE
8
Layer 1
10
175.198207
20
147.390472
11
175.555288
21
148.996172
0
LINE
8
Layer 1
10
175.555288
20
148.996172
11
175.734658
21
149.146973
0
LINE
8
Layer 1
10
175.734658
20
149.146973
11
175.974319
21
148.986792
0
LINE
8
Layer 1
10
175.974319
20
148.986792
11
176.356409
21
148.751280
0
LINE
8
Layer 1
10
176.356409
20
148.751280
11
176.812166
21
148.651653
0
LINE
8
Layer 1
10
176.812166
20
148.651653
11
177.066295
21
148.704069
0
LINE
8
Layer 1
10
177.066295
20
148.704069
11
177.222778
21
148.895793
0
LINE
8
Layer 1
10
177.222778
20
148.895793
11
177.323694
21
149.904014
0
LINE
8
Layer 1
10
177.323694
20
149.904014
11
177.449141
21
150.933016
0
LINE
8
Layer 1
10
177.449141
20
150.933016
11
177.702930
21
151.420958
0
LINE
8
Layer 1
10
177.702930
20
151.420958
11
177.738207
21
151.429778
0
LINE
8
Layer 1
10
177.738207
20
151.429778
11
177.738207
21
151.429778
0
LINE
8
Layer 1
10
145.688346
20
142.107625
11
148.047612
21
141.969910
0
LINE
8
Layer 1
10
148.047612
20
141.969910
11
149.807027
21
141.569639
0
LINE
8
Layer 1
10
149.807027
20
141.569639
11
151.367484
21
140.717572
0
LINE
8
Layer 1
10
151.367484
20
140.717572
11
151.955668
21
140.193769
0
LINE
8
Layer 1
10
151.955668
20
140.193769
11
152.455707
21
139.542115
0
LINE
8
Layer 1
10
152.455707
20
139.542115
11
153.310997
21
137.667242
0
LINE
8
Layer 1
10
153.310997
20
137.667242
11
154.172652
21
134.716931
0
LINE
8
Layer 1
10
154.172652
20
134.716931
11
156.139388
21
128.472764
0
LINE
8
Layer 1
10
156.139388
20
128.472764
11
157.541680
21
124.486375
0
LINE
8
Layer 1
10
157.541680
20
124.486375
11
157.691407
21
123.687933
0
LINE
8
Layer 1
10
157.691407
20
123.687933
11
157.584056
21
123.614844
0
LINE
8
Layer 1
10
157.584056
20
123.614844
11
157.338832
21
123.692625
0
LINE
8
Layer 1
10
157.338832
20
123.692625
11
156.086471
21
124.027764
0
LINE
8
Layer 1
10
156.086471
20
124.027764
11
155.508998
21
124.202388
0
LINE
8
Layer 1
10
155.508998
20
124.202388
11
155.333354
21
124.412290
0
LINE
8
Layer 1
10
155.333354
20
124.412290
11
155.551908
21
124.588679
0
LINE
8
Layer 1
10
155.551908
20
124.588679
11
156.157027
21
124.662764
0
LINE
8
Layer 1
10
156.157027
20
124.662764
11
156.772321
21
124.775089
0
LINE
8
Layer 1
10
156.772321
20
124.775089
11
156.989717
21
125.098999
0
LINE
8
Layer 1
10
156.989717
20
125.098999
11
156.808406
21
125.614896
0
LINE
8
Layer 1
10
156.808406
20
125.614896
11
156.227582
21
126.303181
0
LINE
8
Layer 1
10
156.227582
20
126.303181
11
155.451471
21
127.061653
0
LINE
8
Layer 1
10
155.451471
20
127.061653
11
155.354457
21
126.426653
0
LINE
8
Layer 1
10
155.354457
20
126.426653
11
155.172178
21
125.978184
0
LINE
8
Layer 1
10
155.172178
20
125.978184
11
154.860569
21
125.791653
0
LINE
8
Layer 1
10
154.860569
20
125.791653
11
154.588814
21
125.674417
0
LINE
8
Layer 1
10
154.588814
20
125.674417
11
154.470875
21
125.396710
0
LINE
8
Layer 1
10
154.470875
20
125.396710
11
154.519119
21
125.069529
0
LINE
8
Layer 1
10
154.519119
20
125.069529
11
154.745916
21
124.803875
0
LINE
8
Layer 1
10
154.745916
20
124.803875
11
155.009662
21
124.431360
0
LINE
8
Layer 1
10
155.009662
20
124.431360
11
154.966928
21
123.879688
0
LINE
8
Layer 1
10
154.966928
20
123.879688
11
154.637300
21
123.212436
0
LINE
8
Layer 1
10
154.637300
20
123.212436
11
154.040360
21
122.493181
0
LINE
8
Layer 1
10
154.040360
20
122.493181
11
153.342743
21
121.685734
0
LINE
8
Layer 1
10
153.342743
20
121.685734
11
153.052582
21
121.134986
0
LINE
8
Layer 1
10
153.052582
20
121.134986
11
152.776631
21
120.862284
0
LINE
8
Layer 1
10
152.776631
20
120.862284
11
152.058009
21
120.686161
0
LINE
8
Layer 1
10
152.058009
20
120.686161
11
149.948138
21
120.711653
0
LINE
8
Layer 1
10
149.948138
20
120.711653
11
149.412774
21
120.821580
0
LINE
8
Layer 1
10
149.412774
20
120.821580
11
149.089850
21
121.019987
0
LINE
8
Layer 1
10
149.089850
20
121.019987
11
148.739874
21
122.052208
0
LINE
8
Layer 1
10
148.739874
20
122.052208
11
148.453051
21
122.939601
0
LINE
8
Layer 1
10
148.453051
20
122.939601
11
148.078416
21
123.251653
0
LINE
8
Layer 1
10
148.078416
20
123.251653
11
147.884518
21
123.205451
0
LINE
8
Layer 1
10
147.884518
20
123.205451
11
147.787191
21
123.046133
0
LINE
8
Layer 1
10
147.787191
20
123.046133
11
147.849110
21
122.263875
0
LINE
8
Layer 1
10
147.849110
20
122.263875
11
147.893431
21
121.532424
0
LINE
8
Layer 1
10
147.893431
20
121.532424
11
147.760849
21
121.360707
0
LINE
8
Layer 1
10
147.760849
20
121.360707
11
147.481193
21
121.321790
0
LINE
8
Layer 1
10
147.481193
20
121.321790
11
146.348921
21
121.652754
0
LINE
8
Layer 1
10
146.348921
20
121.652754
11
144.233138
21
122.546097
0
LINE
8
Layer 1
10
144.233138
20
122.546097
11
142.037335
21
123.639844
0
LINE
8
Layer 1
10
142.037335
20
123.639844
11
140.295169
21
124.750793
0
LINE
8
Layer 1
10
140.295169
20
124.750793
11
139.238757
21
125.707484
0
LINE
8
Layer 1
10
139.238757
20
125.707484
11
139.040248
21
126.074402
0
LINE
8
Layer 1
10
139.040248
20
126.074402
11
139.100221
21
126.338458
0
LINE
8
Layer 1
10
139.100221
20
126.338458
11
139.500043
21
126.453828
0
LINE
8
Layer 1
10
139.500043
20
126.453828
11
140.132096
21
126.082694
0
LINE
8
Layer 1
10
140.132096
20
126.082694
11
141.031680
21
125.509431
0
LINE
8
Layer 1
10
141.031680
20
125.509431
11
141.213051
21
125.641834
0
LINE
8
Layer 1
10
141.213051
20
125.641834
11
140.956324
21
126.050653
0
LINE
8
Layer 1
10
140.956324
20
126.050653
11
139.064944
21
127.767208
0
LINE
8
Layer 1
10
139.064944
20
127.767208
11
137.328080
21
129.353594
0
LINE
8
Layer 1
10
137.328080
20
129.353594
11
137.045497
21
129.842363
0
LINE
8
Layer 1
10
137.045497
20
129.842363
11
137.010013
21
130.307208
0
LINE
8
Layer 1
10
137.010013
20
130.307208
11
136.952418
21
130.992965
0
LINE
8
Layer 1
10
136.952418
20
130.992965
11
136.701332
21
131.550750
0
LINE
8
Layer 1
10
136.701332
20
131.550750
11
136.456239
21
132.074584
0
LINE
8
Layer 1
10
136.456239
20
132.074584
11
136.657235
21
132.776653
0
LINE
8
Layer 1
10
136.657235
20
132.776653
11
136.857219
21
133.392451
0
LINE
8
Layer 1
10
136.857219
20
133.392451
11
136.692513
21
133.649778
0
LINE
8
Layer 1
10
136.692513
20
133.649778
11
136.604971
21
133.891710
0
LINE
8
Layer 1
10
136.604971
20
133.891710
11
136.785729
21
134.379091
0
LINE
8
Layer 1
10
136.785729
20
134.379091
11
137.715569
21
135.625333
0
LINE
8
Layer 1
10
137.715569
20
135.625333
11
137.984171
21
136.069330
0
LINE
8
Layer 1
10
137.984171
20
136.069330
11
138.103624
21
136.613111
0
LINE
8
Layer 1
10
138.103624
20
136.613111
11
138.210534
21
137.254615
0
LINE
8
Layer 1
10
138.210534
20
137.254615
11
138.556046
21
137.957009
0
LINE
8
Layer 1
10
138.556046
20
137.957009
11
140.237930
21
139.982139
0
LINE
8
Layer 1
10
140.237930
20
139.982139
11
141.684348
21
141.295779
0
LINE
8
Layer 1
10
141.684348
20
141.295779
11
142.355215
21
141.635960
0
LINE
8
Layer 1
10
142.355215
20
141.635960
11
143.165985
21
141.878319
0
LINE
8
Layer 1
10
143.165985
20
141.878319
11
145.688346
21
142.107625
0
LINE
8
Layer 1
10
145.688346
20
142.107625
11
145.688346
21
142.107625
0
LINE
8
Layer 1
10
64.805221
20
141.878319
11
64.671058
21
141.743113
0
LINE
8
Layer 1
10
64.671058
20
141.743113
11
64.836982
21
141.375922
0
LINE
8
Layer 1
10
64.836982
20
141.375922
11
65.916471
21
140.176167
0
LINE
8
Layer 1
10
65.916471
20
140.176167
11
67.162624
21
139.156642
0
LINE
8
Layer 1
10
67.162624
20
139.156642
11
67.448726
21
139.074089
0
LINE
8
Layer 1
10
67.448726
20
139.074089
11
67.539249
21
139.258944
0
LINE
8
Layer 1
10
67.539249
20
139.258944
11
66.246043
21
140.639523
0
LINE
8
Layer 1
10
66.246043
20
140.639523
11
64.805221
21
141.878319
0
LINE
8
Layer 1
10
64.805221
20
141.878319
11
64.805221
21
141.878319
0
LINE
8
Layer 1
10
173.416680
20
140.193806
11
173.182155
21
139.953373
0
LINE
8
Layer 1
10
173.182155
20
139.953373
11
173.090360
21
139.338319
0
LINE
8
Layer 1
10
173.090360
20
139.338319
11
173.163957
21
138.740361
0
LINE
8
Layer 1
10
173.163957
20
138.740361
11
173.346124
21
138.491653
0
LINE
8
Layer 1
10
173.346124
20
138.491653
11
173.593039
21
138.660456
0
LINE
8
Layer 1
10
173.593039
20
138.660456
11
173.784816
21
139.059387
0
LINE
8
Layer 1
10
173.784816
20
139.059387
11
173.869695
21
139.527229
0
LINE
8
Layer 1
10
173.869695
20
139.527229
11
173.795916
21
139.902764
0
LINE
8
Layer 1
10
173.795916
20
139.902764
11
173.416680
21
140.193806
0
LINE
8
Layer 1
10
173.416680
20
140.193806
11
173.416680
21
140.193806
0
LINE
8
Layer 1
10
171.370569
20
139.708736
11
171.591235
21
139.531847
0
LINE
8
Layer 1
10
171.591235
20
139.531847
11
171.679249
21
138.897347
0
LINE
8
Layer 1
10
171.679249
20
138.897347
11
171.549959
21
138.369517
0
LINE
8
Layer 1
10
171.549959
20
138.369517
11
171.132444
21
138.209431
0
LINE
8
Layer 1
10
171.132444
20
138.209431
11
170.737711
21
138.347370
0
LINE
8
Layer 1
10
170.737711
20
138.347370
11
170.911957
21
139.038458
0
LINE
8
Layer 1
10
170.911957
20
139.038458
11
171.148490
21
139.518027
0
LINE
8
Layer 1
10
171.148490
20
139.518027
11
171.370569
21
139.708736
0
LINE
8
Layer 1
10
171.370569
20
139.708736
11
171.370569
21
139.708736
0
LINE
8
Layer 1
10
184.273416
20
138.050681
11
184.008939
21
137.541176
0
LINE
8
Layer 1
10
184.008939
20
137.541176
11
183.814805
21
136.233875
0
LINE
8
Layer 1
10
183.814805
20
136.233875
11
183.444388
21
134.046653
0
LINE
8
Layer 1
10
183.444388
20
134.046653
11
183.382308
21
133.784893
0
LINE
8
Layer 1
10
183.382308
20
133.784893
11
183.638416
21
133.693875
0
LINE
8
Layer 1
10
183.638416
20
133.693875
11
184.030521
21
134.012675
0
LINE
8
Layer 1
10
184.030521
20
134.012675
11
184.363982
21
134.821820
0
LINE
8
Layer 1
10
184.363982
20
134.821820
11
184.574990
21
135.900431
0
LINE
8
Layer 1
10
184.574990
20
135.900431
11
184.599735
21
137.027625
0
LINE
8
Layer 1
10
184.599735
20
137.027625
11
184.465908
21
137.831251
0
LINE
8
Layer 1
10
184.465908
20
137.831251
11
184.273416
21
138.050681
0
LINE
8
Layer 1
10
184.273416
20
138.050681
11
184.273416
21
138.050681
0
LINE
8
Layer 1
10
123.666194
20
135.104986
11
121.955113
21
134.882016
0
LINE
8
Layer 1
10
121.955113
20
134.882016
11
121.280626
21
134.628202
0
LINE
8
Layer 1
10
121.280626
20
134.628202
11
120.940985
21
134.302417
0
LINE
8
Layer 1
10
120.940985
20
134.302417
11
120.935445
21
134.139604
0
LINE
8
Layer 1
10
120.935445
20
134.139604
11
121.075639
21
134.063711
0
LINE
8
Layer 1
10
121.075639
20
134.063711
11
121.902305
21
134.152486
0
LINE
8
Layer 1
10
121.902305
20
134.152486
11
123.913138
21
134.337694
0
LINE
8
Layer 1
10
123.913138
20
134.337694
11
124.599960
21
134.419189
0
LINE
8
Layer 1
10
124.599960
20
134.419189
11
124.830360
21
134.708111
0
LINE
8
Layer 1
10
124.830360
20
134.708111
11
124.740218
21
134.886032
0
LINE
8
Layer 1
10
124.740218
20
134.886032
11
124.492967
21
135.009462
0
LINE
8
Layer 1
10
124.492967
20
135.009462
11
123.666194
21
135.104986
0
LINE
8
Layer 1
10
123.666194
20
135.104986
11
123.666194
21
135.104986
0
LINE
8
Layer 1
10
165.673207
20
134.672833
11
165.340133
21
134.401942
0
LINE
8
Layer 1
10
165.340133
20
134.401942
11
164.870638
21
133.640958
0
LINE
8
Layer 1
10
164.870638
20
133.640958
11
164.066248
21
132.446321
0
LINE
8
Layer 1
10
164.066248
20
132.446321
11
162.992096
21
131.268528
0
LINE
8
Layer 1
10
162.992096
20
131.268528
11
162.253967
21
130.493301
0
LINE
8
Layer 1
10
162.253967
20
130.493301
11
161.949867
21
129.926553
0
LINE
8
Layer 1
10
161.949867
20
129.926553
11
162.083098
21
129.578796
0
LINE
8
Layer 1
10
162.083098
20
129.578796
11
162.656957
21
129.460542
0
LINE
8
Layer 1
10
162.656957
20
129.460542
11
163.051616
21
129.335369
0
LINE
8
Layer 1
10
163.051616
20
129.335369
11
163.212582
21
129.019569
0
LINE
8
Layer 1
10
163.212582
20
129.019569
11
163.332381
21
128.610068
0
LINE
8
Layer 1
10
163.332381
20
128.610068
11
163.632733
21
128.787740
0
LINE
8
Layer 1
10
163.632733
20
128.787740
11
164.025076
21
129.445129
0
LINE
8
Layer 1
10
164.025076
20
129.445129
11
164.420846
21
130.474778
0
LINE
8
Layer 1
10
164.420846
20
130.474778
11
165.479180
21
133.332278
0
LINE
8
Layer 1
10
165.479180
20
133.332278
11
165.805478
21
134.348741
0
LINE
8
Layer 1
10
165.805478
20
134.348741
11
165.788037
21
134.601795
0
LINE
8
Layer 1
10
165.788037
20
134.601795
11
165.673207
21
134.672833
0
LINE
8
Layer 1
10
165.673207
20
134.672833
11
165.673207
21
134.672833
0
LINE
8
Layer 1
10
178.549596
20
134.452347
11
178.779716
21
134.284291
0
LINE
8
Layer 1
10
178.779716
20
134.284291
11
178.852791
21
133.647790
0
LINE
8
Layer 1
10
178.852791
20
133.647790
11
178.523138
21
131.127417
0
LINE
8
Layer 1
10
178.523138
20
131.127417
11
177.904088
21
128.797190
0
LINE
8
Layer 1
10
177.904088
20
128.797190
11
177.781912
21
128.675532
0
LINE
8
Layer 1
10
177.781912
20
128.675532
11
177.665865
21
128.727176
0
LINE
8
Layer 1
10
177.665865
20
128.727176
11
177.438346
21
129.328250
0
LINE
8
Layer 1
10
177.438346
20
129.328250
11
177.468427
21
130.395549
0
LINE
8
Layer 1
10
177.468427
20
130.395549
11
177.740461
21
132.053274
0
LINE
8
Layer 1
10
177.740461
20
132.053274
11
178.117201
21
133.618487
0
LINE
8
Layer 1
10
178.117201
20
133.618487
11
178.461402
21
134.408250
0
LINE
8
Layer 1
10
178.461402
20
134.408250
11
178.549596
21
134.452347
0
LINE
8
Layer 1
10
178.549596
20
134.452347
11
178.549596
21
134.452347
0
LINE
8
Layer 1
10
117.924735
20
133.976097
11
117.219272
21
133.893194
0
LINE
8
Layer 1
10
117.219272
20
133.893194
11
116.928138
21
133.693875
0
LINE
8
Layer 1
10
116.928138
20
133.693875
11
117.171462
21
133.494556
0
LINE
8
Layer 1
10
117.171462
20
133.494556
11
117.757166
21
133.411653
0
LINE
8
Layer 1
10
117.757166
20
133.411653
11
118.395089
21
133.494556
0
LINE
8
Layer 1
10
118.395089
20
133.494556
11
118.762582
21
133.693875
0
LINE
8
Layer 1
10
118.762582
20
133.693875
11
118.606743
21
133.897970
0
LINE
8
Layer 1
10
118.606743
20
133.897970
11
117.924735
21
133.976097
0
LINE
8
Layer 1
10
117.924735
20
133.976097
11
117.924735
21
133.976097
0
LINE
8
Layer 1
10
113.823694
20
133.411653
11
113.026416
21
133.338928
0
LINE
8
Layer 1
10
113.026416
20
133.338928
11
112.694805
21
133.164708
0
LINE
8
Layer 1
10
112.694805
20
133.164708
11
113.026416
21
133.002022
0
LINE
8
Layer 1
10
113.026416
20
133.002022
11
113.823694
21
132.953042
0
LINE
8
Layer 1
10
113.823694
20
132.953042
11
114.620971
21
133.037975
0
LINE
8
Layer 1
10
114.620971
20
133.037975
11
114.952582
21
133.199986
0
LINE
8
Layer 1
10
114.952582
20
133.199986
11
114.620971
21
133.350461
0
LINE
8
Layer 1
10
114.620971
20
133.350461
11
113.823694
21
133.411653
0
LINE
8
Layer 1
10
113.823694
20
133.411653
11
113.823694
21
133.411653
0
LINE
8
Layer 1
10
70.978832
20
131.665403
11
71.014110
21
131.665403
0
LINE
8
Layer 1
10
71.014110
20
131.665403
11
71.252235
21
131.497833
0
LINE
8
Layer 1
10
71.252235
20
131.497833
11
71.448204
21
131.220902
0
LINE
8
Layer 1
10
71.448204
20
131.220902
11
71.446263
21
131.021583
0
LINE
8
Layer 1
10
71.446263
20
131.021583
11
71.285498
21
130.970454
0
LINE
8
Layer 1
10
71.285498
20
130.970454
11
71.115457
21
131.069864
0
LINE
8
Layer 1
10
71.115457
20
131.069864
11
70.925916
21
131.541931
0
LINE
8
Layer 1
10
70.925916
20
131.541931
11
70.978832
21
131.665403
0
LINE
8
Layer 1
10
70.978832
20
131.665403
11
70.978832
21
131.665403
0
LINE
8
Layer 1
10
90.346332
20
131.550750
11
90.565726
21
131.454409
0
LINE
8
Layer 1
10
90.565726
20
131.454409
11
90.716749
21
131.074500
0
LINE
8
Layer 1
10
90.716749
20
131.074500
11
90.858872
21
128.634851
0
LINE
8
Layer 1
10
90.858872
20
128.634851
11
90.922605
21
123.955848
0
LINE
8
Layer 1
10
90.922605
20
123.955848
11
90.898844
21
119.169486
0
LINE
8
Layer 1
10
90.898844
20
119.169486
11
90.778485
21
116.407764
0
LINE
8
Layer 1
10
90.778485
20
116.407764
11
90.577734
21
115.660315
0
LINE
8
Layer 1
10
90.577734
20
115.660315
11
90.337513
21
115.349431
0
LINE
8
Layer 1
10
90.337513
20
115.349431
11
89.552582
21
114.723250
0
LINE
8
Layer 1
10
89.552582
20
114.723250
11
89.205642
21
114.107534
0
LINE
8
Layer 1
10
89.205642
20
114.107534
11
89.411471
21
113.523806
0
LINE
8
Layer 1
10
89.411471
20
113.523806
11
89.769111
21
112.628384
0
LINE
8
Layer 1
10
89.769111
20
112.628384
11
90.119111
21
111.195607
0
LINE
8
Layer 1
10
90.119111
20
111.195607
11
90.695933
21
107.559122
0
LINE
8
Layer 1
10
90.695933
20
107.559122
11
90.941410
21
104.296628
0
LINE
8
Layer 1
10
90.941410
20
104.296628
11
90.877228
21
103.331340
0
LINE
8
Layer 1
10
90.877228
20
103.331340
11
90.787442
21
103.107184
0
LINE
8
Layer 1
10
90.787442
20
103.107184
11
90.655013
21
103.090403
0
LINE
8
Layer 1
10
90.655013
20
103.090403
11
90.399931
21
103.044004
0
LINE
8
Layer 1
10
90.399931
20
103.044004
11
90.205221
21
102.675889
0
LINE
8
Layer 1
10
90.205221
20
102.675889
11
89.927243
21
102.241606
0
LINE
8
Layer 1
10
89.927243
20
102.241606
11
89.437930
21
102.084986
0
LINE
8
Layer 1
10
89.437930
20
102.084986
11
87.866489
21
102.611422
0
LINE
8
Layer 1
10
87.866489
20
102.611422
11
86.315846
21
103.531375
0
LINE
8
Layer 1
10
86.315846
20
103.531375
11
85.372166
21
103.778319
0
LINE
8
Layer 1
10
85.372166
20
103.778319
11
85.009861
21
103.804677
0
LINE
8
Layer 1
10
85.009861
20
103.804677
11
84.827351
21
103.925042
0
LINE
8
Layer 1
10
84.827351
20
103.925042
11
84.869457
21
104.695542
0
LINE
8
Layer 1
10
84.869457
20
104.695542
11
85.222235
21
108.787764
0
LINE
8
Layer 1
10
85.222235
20
108.787764
11
85.413232
21
111.030107
0
LINE
8
Layer 1
10
85.413232
20
111.030107
11
85.636749
21
111.962764
0
LINE
8
Layer 1
10
85.636749
20
111.962764
11
85.827465
21
112.139231
0
LINE
8
Layer 1
10
85.827465
20
112.139231
11
85.857806
21
112.692046
0
LINE
8
Layer 1
10
85.857806
20
112.692046
11
85.433902
21
115.067208
0
LINE
8
Layer 1
10
85.433902
20
115.067208
11
84.999861
21
116.555485
0
LINE
8
Layer 1
10
84.999861
20
116.555485
11
84.801179
21
116.833098
0
LINE
8
Layer 1
10
84.801179
20
116.833098
11
84.587235
21
116.857556
0
LINE
8
Layer 1
10
84.587235
20
116.857556
11
84.304572
21
116.985686
0
LINE
8
Layer 1
10
84.304572
20
116.985686
11
84.210893
21
117.712281
0
LINE
8
Layer 1
10
84.210893
20
117.712281
11
84.587235
21
121.276097
0
LINE
8
Layer 1
10
84.587235
20
121.276097
11
84.931749
21
123.168081
0
LINE
8
Layer 1
10
84.931749
20
123.168081
11
85.074673
21
123.275020
0
LINE
8
Layer 1
10
85.074673
20
123.275020
11
85.257513
21
122.969431
0
LINE
8
Layer 1
10
85.257513
20
122.969431
11
86.174735
21
119.864986
0
LINE
8
Layer 1
10
86.174735
20
119.864986
11
87.197306
21
116.600952
0
LINE
8
Layer 1
10
87.197306
20
116.600952
11
87.657707
21
115.871368
0
LINE
8
Layer 1
10
87.657707
20
115.871368
11
88.106194
21
115.693389
0
LINE
8
Layer 1
10
88.106194
20
115.693389
11
88.478033
21
115.948157
0
LINE
8
Layer 1
10
88.478033
20
115.948157
11
88.638996
21
116.434152
0
LINE
8
Layer 1
10
88.638996
20
116.434152
11
88.575450
21
117.003966
0
LINE
8
Layer 1
10
88.575450
20
117.003966
11
88.273763
21
117.510194
0
LINE
8
Layer 1
10
88.273763
20
117.510194
11
87.954379
21
118.080859
0
LINE
8
Layer 1
10
87.954379
20
118.080859
11
87.929805
21
118.850750
0
LINE
8
Layer 1
10
87.929805
20
118.850750
11
87.905733
21
119.799577
0
LINE
8
Layer 1
10
87.905733
20
119.799577
11
87.665221
21
120.852764
0
LINE
8
Layer 1
10
87.665221
20
120.852764
11
87.410245
21
121.854276
0
LINE
8
Layer 1
10
87.410245
20
121.854276
11
87.503894
21
122.110306
0
LINE
8
Layer 1
10
87.503894
20
122.110306
11
87.753416
21
122.334431
0
LINE
8
Layer 1
10
87.753416
20
122.334431
11
88.010705
21
122.569086
0
LINE
8
Layer 1
10
88.010705
20
122.569086
11
88.091585
21
122.873078
0
LINE
8
Layer 1
10
88.091585
20
122.873078
11
87.709319
21
124.309986
0
LINE
8
Layer 1
10
87.709319
20
124.309986
11
87.375228
21
125.785198
0
LINE
8
Layer 1
10
87.375228
20
125.785198
11
87.182251
21
127.483397
0
LINE
8
Layer 1
10
87.182251
20
127.483397
11
87.162409
21
128.926627
0
LINE
8
Layer 1
10
87.162409
20
128.926627
11
87.347721
21
129.636931
0
LINE
8
Layer 1
10
87.347721
20
129.636931
11
87.657672
21
129.625447
0
LINE
8
Layer 1
10
87.657672
20
129.625447
11
88.115013
21
129.416444
0
LINE
8
Layer 1
10
88.115013
20
129.416444
11
88.577312
21
129.237168
0
LINE
8
Layer 1
10
88.577312
20
129.237168
11
88.899944
21
129.301792
0
LINE
8
Layer 1
10
88.899944
20
129.301792
11
88.957271
21
129.506028
0
LINE
8
Layer 1
10
88.957271
20
129.506028
11
88.776471
21
129.663389
0
LINE
8
Layer 1
10
88.776471
20
129.663389
11
88.423694
21
130.042625
0
LINE
8
Layer 1
10
88.423694
20
130.042625
11
88.536210
21
130.173944
0
LINE
8
Layer 1
10
88.536210
20
130.173944
11
88.811749
21
130.139639
0
LINE
8
Layer 1
10
88.811749
20
130.139639
11
89.093476
21
130.155541
0
LINE
8
Layer 1
10
89.093476
20
130.155541
11
89.164527
21
130.483597
0
LINE
8
Layer 1
10
89.164527
20
130.483597
11
89.345144
21
130.943689
0
LINE
8
Layer 1
10
89.345144
20
130.943689
11
89.834805
21
131.347903
0
LINE
8
Layer 1
10
89.834805
20
131.347903
11
90.346332
21
131.550750
0
LINE
8
Layer 1
10
90.346332
20
131.550750
11
90.346332
21
131.550750
0
LINE
8
Layer 1
10
166.740360
20
130.307208
11
166.441382
21
130.224306
0
LINE
8
Layer 1
10
166.441382
20
130.224306
11
166.317027
21
130.024986
0
LINE
8
Layer 1
10
166.317027
20
130.024986
11
166.441382
21
129.825667
0
LINE
8
Layer 1
10
166.441382
20
129.825667
11
166.740360
21
129.742764
0
LINE
8
Layer 1
10
166.740360
20
129.742764
11
167.039340
21
129.825667
0
LINE
8
Layer 1
10
167.039340
20
129.825667
11
167.163694
21
130.024986
0
LINE
8
Layer 1
10
167.163694
20
130.024986
11
167.039340
21
130.224306
0
LINE
8
Layer 1
10
167.039340
20
130.224306
11
166.740360
21
130.307208
0
LINE
8
Layer 1
10
166.740360
20
130.307208
11
166.740360
21
130.307208
0
LINE
8
Layer 1
10
117.192721
20
128.049431
11
116.196236
21
127.973548
0
LINE
8
Layer 1
10
116.196236
20
127.973548
11
115.966943
21
127.884687
0
LINE
8
Layer 1
10
115.966943
20
127.884687
11
115.940360
21
127.767208
0
LINE
8
Layer 1
10
115.940360
20
127.767208
11
116.427798
21
127.567889
0
LINE
8
Layer 1
10
116.427798
20
127.567889
11
117.360291
21
127.484986
0
LINE
8
Layer 1
10
117.360291
20
127.484986
11
118.249383
21
127.567889
0
LINE
8
Layer 1
10
118.249383
20
127.567889
11
118.621471
21
127.767208
0
LINE
8
Layer 1
10
118.621471
20
127.767208
11
118.201573
21
127.966528
0
LINE
8
Layer 1
10
118.201573
20
127.966528
11
117.192721
21
128.049431
0
LINE
8
Layer 1
10
117.192721
20
128.049431
11
117.192721
21
128.049431
0
LINE
8
Layer 1
10
176.036055
20
127.749569
11
176.124249
21
127.749569
0
LINE
8
Layer 1
10
176.124249
20
127.749569
11
176.291819
21
127.679014
0
LINE
8
Layer 1
10
176.291819
20
127.679014
11
176.894090
21
126.942100
0
LINE
8
Layer 1
10
176.894090
20
126.942100
11
177.342091
21
125.736933
0
LINE
8
Layer 1
10
177.342091
20
125.736933
11
177.646397
21
124.025550
0
LINE
8
Layer 1
10
177.646397
20
124.025550
11
177.817582
21
121.769986
0
LINE
8
Layer 1
10
177.817582
20
121.769986
11
177.852860
21
118.462694
0
LINE
8
Layer 1
10
177.852860
20
118.462694
11
177.626334
21
118.717797
0
LINE
8
Layer 1
10
177.626334
20
118.717797
11
177.358503
21
119.321665
0
LINE
8
Layer 1
10
177.358503
20
119.321665
11
177.041471
21
120.649917
0
LINE
8
Layer 1
10
177.041471
20
120.649917
11
176.752370
21
121.826968
0
LINE
8
Layer 1
10
176.752370
20
121.826968
11
176.470665
21
122.243075
0
LINE
8
Layer 1
10
176.470665
20
122.243075
11
176.168346
21
122.404986
0
LINE
8
Layer 1
10
176.168346
20
122.404986
11
176.012243
21
122.035630
0
LINE
8
Layer 1
10
176.012243
20
122.035630
11
176.071332
21
121.029153
0
LINE
8
Layer 1
10
176.071332
20
121.029153
11
176.130574
21
119.878033
0
LINE
8
Layer 1
10
176.130574
20
119.878033
11
176.058184
21
119.604361
0
LINE
8
Layer 1
10
176.058184
20
119.604361
11
175.925194
21
119.530598
0
LINE
8
Layer 1
10
175.925194
20
119.530598
11
175.499637
21
119.978743
0
LINE
8
Layer 1
10
175.499637
20
119.978743
11
174.898346
21
121.214361
0
LINE
8
Layer 1
10
174.898346
20
121.214361
11
173.848832
21
123.463319
0
LINE
8
Layer 1
10
173.848832
20
123.463319
11
173.730569
21
123.872907
0
LINE
8
Layer 1
10
173.730569
20
123.872907
11
173.801981
21
124.452830
0
LINE
8
Layer 1
10
173.801981
20
124.452830
11
174.358291
21
125.855125
0
LINE
8
Layer 1
10
174.358291
20
125.855125
11
175.206677
21
127.133080
0
LINE
8
Layer 1
10
175.206677
20
127.133080
11
175.643185
21
127.557578
0
LINE
8
Layer 1
10
175.643185
20
127.557578
11
176.036055
21
127.749569
0
LINE
8
Layer 1
10
176.036055
20
127.749569
11
176.036055
21
127.749569
0
LINE
8
Layer 1
10
167.190152
20
127.484986
11
167.049621
21
127.319181
0
LINE
8
Layer 1
10
167.049621
20
127.319181
11
167.075499
21
126.920542
0
LINE
8
Layer 1
10
167.075499
20
126.920542
11
167.264371
21
126.521903
0
LINE
8
Layer 1
10
167.264371
20
126.521903
11
167.507652
21
126.356097
0
LINE
8
Layer 1
10
167.507652
20
126.356097
11
167.653547
21
126.488919
0
LINE
8
Layer 1
10
167.653547
20
126.488919
11
167.613485
21
126.805889
0
LINE
8
Layer 1
10
167.613485
20
126.805889
11
167.445916
21
127.370333
0
LINE
8
Layer 1
10
167.445916
20
127.370333
11
167.190152
21
127.484986
0
LINE
8
Layer 1
10
167.190152
20
127.484986
11
167.190152
21
127.484986
0
LINE
8
Layer 1
10
80.865430
20
126.117972
11
80.647684
21
125.184524
0
LINE
8
Layer 1
10
80.647684
20
125.184524
11
80.600846
21
122.687208
0
LINE
8
Layer 1
10
80.600846
20
122.687208
11
80.704139
21
120.295825
0
LINE
8
Layer 1
10
80.704139
20
120.295825
11
80.874249
21
119.300542
0
LINE
8
Layer 1
10
80.874249
20
119.300542
11
81.122391
21
119.459620
0
LINE
8
Layer 1
10
81.122391
20
119.459620
11
81.315821
21
119.902826
0
LINE
8
Layer 1
10
81.315821
20
119.902826
11
81.527591
21
121.420916
0
LINE
8
Layer 1
10
81.527591
20
121.420916
11
81.487655
21
123.413402
0
LINE
8
Layer 1
10
81.487655
20
123.413402
11
81.174110
21
125.438875
0
LINE
8
Layer 1
10
81.174110
20
125.438875
11
80.865430
21
126.117972
0
LINE
8
Layer 1
10
80.865430
20
126.117972
11
80.865430
21
126.117972
0
LINE
8
Layer 1
10
79.427860
20
125.659361
11
79.374944
21
125.641722
0
LINE
8
Layer 1
10
79.374944
20
125.641722
11
79.260844
21
125.360950
0
LINE
8
Layer 1
10
79.260844
20
125.360950
11
79.271126
21
124.846038
0
LINE
8
Layer 1
10
79.271126
20
124.846038
11
79.595430
21
123.727903
0
LINE
8
Layer 1
10
79.595430
20
123.727903
11
79.776332
21
123.551967
0
LINE
8
Layer 1
10
79.776332
20
123.551967
11
79.887144
21
123.720600
0
LINE
8
Layer 1
10
79.887144
20
123.720600
11
79.833555
21
124.803875
0
LINE
8
Layer 1
10
79.833555
20
124.803875
11
79.649057
21
125.406585
0
LINE
8
Layer 1
10
79.649057
20
125.406585
11
79.427860
21
125.659361
0
LINE
8
Layer 1
10
79.427860
20
125.659361
11
79.427860
21
125.659361
0
LINE
8
Layer 1
10
144.832860
20
124.662764
11
144.685761
21
124.579860
0
LINE
8
Layer 1
10
144.685761
20
124.579860
11
144.727027
21
124.380542
0
LINE
8
Layer 1
10
144.727027
20
124.380542
11
145.176819
21
124.098319
0
LINE
8
Layer 1
10
145.176819
20
124.098319
11
145.328329
21
124.181221
0
LINE
8
Layer 1
10
145.328329
20
124.181221
11
145.291471
21
124.380542
0
LINE
8
Layer 1
10
145.291471
20
124.380542
11
144.832860
21
124.662764
0
LINE
8
Layer 1
10
144.832860
20
124.662764
11
144.832860
21
124.662764
0
LINE
8
Layer 1
10
143.298277
20
124.583389
11
143.245360
21
124.548111
0
LINE
8
Layer 1
10
143.245360
20
124.548111
11
143.320757
21
124.221788
0
LINE
8
Layer 1
10
143.320757
20
124.221788
11
143.739249
21
123.674986
0
LINE
8
Layer 1
10
143.739249
20
123.674986
11
144.576085
21
123.004056
0
LINE
8
Layer 1
10
144.576085
20
123.004056
11
144.791981
21
123.037828
0
LINE
8
Layer 1
10
144.791981
20
123.037828
11
144.859319
21
123.322208
0
LINE
8
Layer 1
10
144.859319
20
123.322208
11
144.659828
21
123.700082
0
LINE
8
Layer 1
10
144.659828
20
123.700082
11
144.204828
21
124.133807
0
LINE
8
Layer 1
10
144.204828
20
124.133807
11
143.686813
21
124.477029
0
LINE
8
Layer 1
10
143.686813
20
124.477029
11
143.298277
21
124.583389
0
LINE
8
Layer 1
10
143.298277
20
124.583389
11
143.298277
21
124.583389
0
LINE
8
Layer 1
10
157.973832
20
122.687208
11
158.582374
21
121.672972
0
LINE
8
Layer 1
10
158.582374
20
121.672972
11
158.886809
21
120.597320
0
LINE
8
Layer 1
10
158.886809
20
120.597320
11
158.769076
21
120.513947
0
LINE
8
Layer 1
10
158.769076
20
120.513947
11
158.476541
21
120.782208
0
LINE
8
Layer 1
10
158.476541
20
120.782208
11
157.990738
21
121.902550
0
LINE
8
Layer 1
10
157.990738
20
121.902550
11
157.893099
21
122.452492
0
LINE
8
Layer 1
10
157.893099
20
122.452492
11
157.973832
21
122.687208
0
LINE
8
Layer 1
10
157.973832
20
122.687208
11
157.973832
21
122.687208
0
LINE
8
Layer 1
10
167.154874
20
122.643111
11
166.872652
21
122.510819
0
LINE
8
Layer 1
10
166.872652
20
122.510819
11
166.449319
21
121.205542
0
LINE
8
Layer 1
10
166.449319
20
121.205542
11
166.379357
21
120.406760
0
LINE
8
Layer 1
10
166.379357
20
120.406760
11
166.572791
21
120.147208
0
LINE
8
Layer 1
10
166.572791
20
120.147208
11
166.846393
21
120.264767
0
LINE
8
Layer 1
10
166.846393
20
120.264767
11
167.049041
21
120.544083
0
LINE
8
Layer 1
10
167.049041
20
120.544083
11
167.311611
21
120.783547
0
LINE
8
Layer 1
10
167.311611
20
120.783547
11
167.745777
21
120.791028
0
LINE
8
Layer 1
10
167.745777
20
120.791028
11
168.131838
21
120.784764
0
LINE
8
Layer 1
10
168.131838
20
120.784764
11
168.292582
21
120.967417
0
LINE
8
Layer 1
10
168.292582
20
120.967417
11
168.209681
21
121.186753
0
LINE
8
Layer 1
10
168.209681
20
121.186753
11
168.010360
21
121.276097
0
LINE
8
Layer 1
10
168.010360
20
121.276097
11
167.811042
21
121.436518
0
LINE
8
Layer 1
10
167.811042
20
121.436518
11
167.728138
21
121.822903
0
LINE
8
Layer 1
10
167.728138
20
121.822903
11
167.549258
21
122.413587
0
LINE
8
Layer 1
10
167.549258
20
122.413587
11
167.154874
21
122.643111
0
LINE
8
Layer 1
10
167.154874
20
122.643111
11
167.154874
21
122.643111
0
LINE
8
Layer 1
10
154.869388
20
122.404986
11
155.180623
21
122.322082
0
LINE
8
Layer 1
10
155.180623
20
122.322082
11
155.310360
21
122.122764
0
LINE
8
Layer 1
10
155.310360
20
122.122764
11
155.228433
21
121.923443
0
LINE
8
Layer 1
10
155.228433
20
121.923443
11
155.036957
21
121.840542
0
LINE
8
Layer 1
10
155.036957
20
121.840542
11
154.604805
21
122.122764
0
LINE
8
Layer 1
10
154.604805
20
122.122764
11
154.610373
21
122.322082
0
LINE
8
Layer 1
10
154.610373
20
122.322082
11
154.869388
21
122.404986
0
LINE
8
Layer 1
10
154.869388
20
122.404986
11
154.869388
21
122.404986
0
LINE
8
Layer 1
10
162.930360
20
120.429431
11
162.731042
21
120.263624
0
LINE
8
Layer 1
10
162.731042
20
120.263624
11
162.648138
21
119.864986
0
LINE
8
Layer 1
10
162.648138
20
119.864986
11
162.731042
21
119.466346
0
LINE
8
Layer 1
10
162.731042
20
119.466346
11
162.930360
21
119.300542
0
LINE
8
Layer 1
10
162.930360
20
119.300542
11
163.129681
21
119.466346
0
LINE
8
Layer 1
10
163.129681
20
119.466346
11
163.212582
21
119.864986
0
LINE
8
Layer 1
10
163.212582
20
119.864986
11
163.129681
21
120.263624
0
LINE
8
Layer 1
10
163.129681
20
120.263624
11
162.930360
21
120.429431
0
LINE
8
Layer 1
10
162.930360
20
120.429431
11
162.930360
21
120.429431
0
LINE
8
Layer 1
10
148.933902
20
119.706236
11
149.807027
21
119.618042
0
LINE
8
Layer 1
10
149.807027
20
119.618042
11
150.455950
21
119.489457
0
LINE
8
Layer 1
10
150.455950
20
119.489457
11
150.798592
21
119.283930
0
LINE
8
Layer 1
10
150.798592
20
119.283930
11
150.947518
21
118.859608
0
LINE
8
Layer 1
10
150.947518
20
118.859608
11
151.015291
21
118.074639
0
LINE
8
Layer 1
10
151.015291
20
118.074639
11
150.970038
21
116.884294
0
LINE
8
Layer 1
10
150.970038
20
116.884294
11
150.662513
21
116.028528
0
LINE
8
Layer 1
10
150.662513
20
116.028528
11
150.215486
21
115.608491
0
LINE
8
Layer 1
10
150.215486
20
115.608491
11
149.634904
21
115.371700
0
LINE
8
Layer 1
10
149.634904
20
115.371700
11
149.078648
21
115.353080
0
LINE
8
Layer 1
10
149.078648
20
115.353080
11
148.704596
21
115.587556
0
LINE
8
Layer 1
10
148.704596
20
115.587556
11
148.508131
21
116.395808
0
LINE
8
Layer 1
10
148.508131
20
116.395808
11
148.370597
21
117.737567
0
LINE
8
Layer 1
10
148.370597
20
117.737567
11
148.331713
21
119.020762
0
LINE
8
Layer 1
10
148.331713
20
119.020762
11
148.431194
21
119.653319
0
LINE
8
Layer 1
10
148.431194
20
119.653319
11
148.933902
21
119.706236
0
LINE
8
Layer 1
10
148.933902
20
119.706236
11
148.933902
21
119.706236
0
LINE
8
Layer 1
10
159.261471
20
118.736097
11
159.563566
21
118.521456
0
LINE
8
Layer 1
10
159.563566
20
118.521456
11
159.835741
21
117.962343
0
LINE
8
Layer 1
10
159.835741
20
117.962343
11
160.108138
21
116.319569
0
LINE
8
Layer 1
10
160.108138
20
116.319569
11
160.006772
21
115.581919
0
LINE
8
Layer 1
10
160.006772
20
115.581919
11
159.684805
21
115.349431
0
LINE
8
Layer 1
10
159.684805
20
115.349431
11
159.385827
21
115.482857
0
LINE
8
Layer 1
10
159.385827
20
115.482857
11
159.261471
21
115.799222
0
LINE
8
Layer 1
10
159.261471
20
115.799222
11
159.137118
21
116.235535
0
LINE
8
Layer 1
10
159.137118
20
116.235535
11
158.838138
21
116.663528
0
LINE
8
Layer 1
10
158.838138
20
116.663528
11
158.555539
21
117.113586
0
LINE
8
Layer 1
10
158.555539
20
117.113586
11
158.423868
21
117.626513
0
LINE
8
Layer 1
10
158.423868
20
117.626513
11
158.464054
21
117.999701
0
LINE
8
Layer 1
10
158.464054
20
117.999701
11
158.697027
21
118.030542
0
LINE
8
Layer 1
10
158.697027
20
118.030542
11
158.896347
21
118.036110
0
LINE
8
Layer 1
10
158.896347
20
118.036110
11
158.979249
21
118.295125
0
LINE
8
Layer 1
10
158.979249
20
118.295125
11
159.060713
21
118.606358
0
LINE
8
Layer 1
10
159.060713
20
118.606358
11
159.261471
21
118.736097
0
LINE
8
Layer 1
10
159.261471
20
118.736097
11
159.261471
21
118.736097
0
LINE
8
Layer 1
10
177.094388
20
116.716444
11
177.394249
21
116.531236
0
LINE
8
Layer 1
10
177.394249
20
116.531236
11
177.840871
21
115.889982
0
LINE
8
Layer 1
10
177.840871
20
115.889982
11
178.285013
21
114.864361
0
LINE
8
Layer 1
10
178.285013
20
114.864361
11
178.884882
21
113.524177
0
LINE
8
Layer 1
10
178.884882
20
113.524177
11
179.704944
21
112.130333
0
LINE
8
Layer 1
10
179.704944
20
112.130333
11
180.219633
21
111.298569
0
LINE
8
Layer 1
10
180.219633
20
111.298569
11
180.559927
21
110.495228
0
LINE
8
Layer 1
10
180.559927
20
110.495228
11
180.983763
21
108.152764
0
LINE
8
Layer 1
10
180.983763
20
108.152764
11
181.262675
21
106.165147
0
LINE
8
Layer 1
10
181.262675
20
106.165147
11
181.617008
21
104.662334
0
LINE
8
Layer 1
10
181.617008
20
104.662334
11
182.164042
21
103.266523
0
LINE
8
Layer 1
10
182.164042
20
103.266523
11
183.021055
21
101.599917
0
LINE
8
Layer 1
10
183.021055
20
101.599917
11
183.754650
21
100.075080
0
LINE
8
Layer 1
10
183.754650
20
100.075080
11
183.955916
21
99.271583
0
LINE
8
Layer 1
10
183.955916
20
99.271583
11
183.587456
21
99.066289
0
LINE
8
Layer 1
10
183.587456
20
99.066289
11
182.950499
21
98.980542
0
LINE
8
Layer 1
10
182.950499
20
98.980542
11
182.262519
21
98.842258
0
LINE
8
Layer 1
10
182.262519
20
98.842258
11
182.121471
21
98.160333
0
LINE
8
Layer 1
10
182.121471
20
98.160333
11
182.324077
21
97.329766
0
LINE
8
Layer 1
10
182.324077
20
97.329766
11
182.827027
21
96.493458
0
LINE
8
Layer 1
10
182.827027
20
96.493458
11
183.360156
21
95.650879
0
LINE
8
Layer 1
10
183.360156
20
95.650879
11
183.521230
21
94.985957
0
LINE
8
Layer 1
10
183.521230
20
94.985957
11
183.465222
21
94.788525
0
LINE
8
Layer 1
10
183.465222
20
94.788525
11
183.319769
21
94.717598
0
LINE
8
Layer 1
10
183.319769
20
94.717598
11
182.765291
21
95.064708
0
LINE
8
Layer 1
10
182.765291
20
95.064708
11
182.447555
21
95.238799
0
LINE
8
Layer 1
10
182.447555
20
95.238799
11
182.148456
21
95.171345
0
LINE
8
Layer 1
10
182.148456
20
95.171345
11
181.926264
21
94.900641
0
LINE
8
Layer 1
10
181.926264
20
94.900641
11
181.839249
21
94.464986
0
LINE
8
Layer 1
10
181.839249
20
94.464986
11
181.771872
21
94.007712
0
LINE
8
Layer 1
10
181.771872
20
94.007712
11
181.538309
21
93.816880
0
LINE
8
Layer 1
10
181.538309
20
93.816880
11
181.091414
21
93.883955
0
LINE
8
Layer 1
10
181.091414
20
93.883955
11
180.384041
21
94.200403
0
LINE
8
Layer 1
10
180.384041
20
94.200403
11
179.371327
21
94.844357
0
LINE
8
Layer 1
10
179.371327
20
94.844357
11
178.480640
21
95.626650
0
LINE
8
Layer 1
10
178.480640
20
95.626650
11
177.847122
21
96.407990
0
LINE
8
Layer 1
10
177.847122
20
96.407990
11
177.605916
21
97.049083
0
LINE
8
Layer 1
10
177.605916
20
97.049083
11
178.055707
21
101.053111
0
LINE
8
Layer 1
10
178.055707
20
101.053111
11
178.335568
21
104.378088
0
LINE
8
Layer 1
10
178.335568
20
104.378088
11
178.372237
21
107.867349
0
LINE
8
Layer 1
10
178.372237
20
107.867349
11
178.177880
21
111.029683
0
LINE
8
Layer 1
10
178.177880
20
111.029683
11
177.764666
21
113.373875
0
LINE
8
Layer 1
10
177.764666
20
113.373875
11
177.129666
21
115.913875
0
LINE
8
Layer 1
10
177.129666
20
115.913875
11
177.094388
21
116.716444
0
LINE
8
Layer 1
10
177.094388
20
116.716444
11
177.094388
21
116.716444
0
LINE
8
Layer 1
10
165.902513
20
114.061792
11
165.568085
21
113.666900
0
LINE
8
Layer 1
10
165.568085
20
113.666900
11
165.063302
21
112.707667
0
LINE
8
Layer 1
10
165.063302
20
112.707667
11
164.217999
21
110.481097
0
LINE
8
Layer 1
10
164.217999
20
110.481097
11
164.155883
21
109.826455
0
LINE
8
Layer 1
10
164.155883
20
109.826455
11
164.329519
21
109.724776
0
LINE
8
Layer 1
10
164.329519
20
109.724776
11
164.623785
21
110.107092
0
LINE
8
Layer 1
10
164.623785
20
110.107092
11
164.923555
21
110.904431
0
LINE
8
Layer 1
10
164.923555
20
110.904431
11
165.655569
21
112.897625
0
LINE
8
Layer 1
10
165.655569
20
112.897625
11
165.907359
21
113.557278
0
LINE
8
Layer 1
10
165.907359
20
113.557278
11
165.937791
21
114.026514
0
LINE
8
Layer 1
10
165.937791
20
114.026514
11
165.902513
21
114.061792
0
LINE
8
Layer 1
10
165.902513
20
114.061792
11
165.902513
21
114.061792
0
LINE
8
Layer 1
10
83.467166
20
113.938319
11
84.349110
21
113.188667
0
LINE
8
Layer 1
10
84.349110
20
113.188667
11
85.098763
21
112.439014
0
LINE
8
Layer 1
10
85.098763
20
112.439014
11
84.895916
21
109.237556
0
LINE
8
Layer 1
10
84.895916
20
109.237556
11
84.690781
21
106.937037
0
LINE
8
Layer 1
10
84.690781
20
106.937037
11
84.481402
21
105.903806
0
LINE
8
Layer 1
10
84.481402
20
105.903806
11
84.182931
21
106.600178
0
LINE
8
Layer 1
10
84.182931
20
106.600178
11
83.805255
21
108.440960
0
LINE
8
Layer 1
10
83.805255
20
108.440960
11
83.481226
21
110.655787
0
LINE
8
Layer 1
10
83.481226
20
110.655787
11
83.343694
21
112.474292
0
LINE
8
Layer 1
10
83.343694
20
112.474292
11
83.467166
21
113.938319
0
LINE
8
Layer 1
10
83.467166
20
113.938319
11
83.467166
21
113.938319
0
LINE
8
Layer 1
10
81.147652
20
110.260611
11
80.954850
21
109.880427
0
LINE
8
Layer 1
10
80.954850
20
109.880427
11
80.865430
21
108.858319
0
LINE
8
Layer 1
10
80.865430
20
108.858319
11
80.911792
21
107.861721
0
LINE
8
Layer 1
10
80.911792
20
107.861721
11
81.068277
21
107.447208
0
LINE
8
Layer 1
10
81.068277
20
107.447208
11
81.298806
21
107.736107
0
LINE
8
Layer 1
10
81.298806
20
107.736107
11
81.477738
21
108.414572
0
LINE
8
Layer 1
10
81.477738
20
108.414572
11
81.555568
21
109.200258
0
LINE
8
Layer 1
10
81.555568
20
109.200258
11
81.482791
21
109.810819
0
LINE
8
Layer 1
10
81.482791
20
109.810819
11
81.147652
21
110.260611
0
LINE
8
Layer 1
10
81.147652
20
110.260611
11
81.147652
21
110.260611
0
LINE
8
Layer 1
10
81.306402
20
105.065958
11
81.145704
21
104.832059
0
LINE
8
Layer 1
10
81.145704
20
104.832059
11
81.085916
21
104.201653
0
LINE
8
Layer 1
10
81.085916
20
104.201653
11
81.163921
21
103.510994
0
LINE
8
Layer 1
10
81.163921
20
103.510994
11
81.368138
21
103.354986
0
LINE
8
Layer 1
10
81.368138
20
103.354986
11
81.567457
21
103.675643
0
LINE
8
Layer 1
10
81.567457
20
103.675643
11
81.650360
21
104.201653
0
LINE
8
Layer 1
10
81.650360
20
104.201653
11
81.567457
21
104.727660
0
LINE
8
Layer 1
10
81.567457
20
104.727660
11
81.368138
21
105.048319
0
LINE
8
Layer 1
10
81.368138
20
105.048319
11
81.306402
21
105.065958
0
LINE
8
Layer 1
10
81.306402
20
105.065958
11
81.306402
21
105.065958
0
LINE
8
Layer 1
10
78.272513
20
100.973736
11
77.831541
21
100.576861
0
LINE
8
Layer 1
10
77.831541
20
100.576861
11
77.615403
21
100.074178
0
LINE
8
Layer 1
10
77.615403
20
100.074178
11
77.628694
21
99.597903
0
LINE
8
Layer 1
10
77.628694
20
99.597903
11
77.839857
21
99.410794
0
LINE
8
Layer 1
10
77.839857
20
99.410794
11
78.149041
21
99.977139
0
LINE
8
Layer 1
10
78.149041
20
99.977139
11
78.361961
21
100.704729
0
LINE
8
Layer 1
10
78.361961
20
100.704729
11
78.272513
21
100.973736
0
LINE
8
Layer 1
10
78.272513
20
100.973736
11
78.272513
21
100.973736
0
LINE
8
Layer 1
10
76.852582
20
99.827208
11
76.653263
21
99.744304
0
LINE
8
Layer 1
10
76.653263
20
99.744304
11
76.570360
21
99.544986
0
LINE
8
Layer 1
10
76.570360
20
99.544986
11
76.653263
21
99.345666
0
LINE
8
Layer 1
10
76.653263
20
99.345666
11
76.852582
21
99.262764
0
LINE
8
Layer 1
10
76.852582
20
99.262764
11
77.051902
21
99.345666
0
LINE
8
Layer 1
10
77.051902
20
99.345666
11
77.134805
21
99.544986
0
LINE
8
Layer 1
10
77.134805
20
99.544986
11
77.051902
21
99.744304
0
LINE
8
Layer 1
10
77.051902
20
99.744304
11
76.852582
21
99.827208
0
LINE
8
Layer 1
10
76.852582
20
99.827208
11
76.852582
21
99.827208
0
LINE
8
Layer 1
10
80.239249
20
98.698319
11
80.039930
21
98.615416
0
LINE
8
Layer 1
10
80.039930
20
98.615416
11
79.957027
21
98.416097
0
LINE
8
Layer 1
10
79.957027
20
98.416097
11
80.039930
21
98.216777
0
LINE
8
Layer 1
10
80.039930
20
98.216777
11
80.239249
21
98.133875
0
LINE
8
Layer 1
10
80.239249
20
98.133875
11
80.438569
21
98.216777
0
LINE
8
Layer 1
10
80.438569
20
98.216777
11
80.521471
21
98.416097
0
LINE
8
Layer 1
10
80.521471
20
98.416097
11
80.438569
21
98.615416
0
LINE
8
Layer 1
10
80.438569
20
98.615416
11
80.239249
21
98.698319
0
LINE
8
Layer 1
10
80.239249
20
98.698319
11
80.239249
21
98.698319
 0 
ENDSEC
 0 
EOF
