0
SECTION
2
HEADER
9
$ACADVER
1
AC1003
9
$INSBASE
10
0.0
20
0.0
30
0.0
9
$EXTMIN
10
0.000
20
0.000
30
0.0
9
$EXTMAX
10
1063.000
20
919.000
30
0.0
9
$LIMMIN
10
0.000
20
0.000
9
$LIMMAX
10
1063.000
20
919.000
9
$LTSCALE
40
1.0
9
$LUNITS
70
2
9
$LUPREC
70
3
9
$LIMCHECK
70
0
9
$UCSNAME
2

9
$UCSORG
10
0.0
20
0.0
30
0.0
9
$UCSXDIR
10
1.0
20
0.0
30
0.0
9
$UCSYDIR
10
0.0
20
1.0
30
0.0
9
$WORLDVIEW
70
1
9
$UNITMODE
70
0
0
ENDSEC
0
SECTION
2
TABLES
0
TABLE
2
VPORT
70
1
0
VPORT
2
*ACTIVE
70
0
10
0.0
20
0.0
11
1.0
21
1.0
12
531.500
22
459.500
13
0.0
23
0.0
14
1.0
24
1.0
15
0.0
25
0.0
16
0.0
26
0.0
36
1.0
17
0.0
27
0.0
37
0.0
40
500.0
41
0.865
42
50.0
43
0.0
44
0.0
50
0.0
51
0.0
71
0
72
100
73
1
74
1
75
0
76
0
77
0
78
0
0
ENDTAB
0
TABLE
2
LTYPE
70
1
0
LTYPE
2
CONTINUOUS
70
64
3
Solid line
72
65
73
0
40
0.000
0
ENDTAB
0
TABLE
2
LAYER
70
1
0
LAYER
2
0
70
64
62
7
6
CONTINUOUS
0
ENDTAB
0
ENDSEC
0
SECTION
2
BLOCKS
0
ENDSEC
0
SECTION
2
ENTITIES
0
POLYLINE
8
0
6
CONTINUOUS
66
1
62
7
10
0.0
20
0.0
30
0.000000
0
VERTEX
8
0
10
497.000000
20
737.000000
0
VERTEX
8
0
10
497.000000
20
738.000000
0
SEQEND
0
POLYLINE
8
0
6
CONTINUOUS
66
1
62
7
10
0.0
20
0.0
30
0.000000
0
VERTEX
8
0
10
357.000000
20
728.000000
0
VERTEX
8
0
10
371.900000
20
733.300000
0
VERTEX
8
0
10
387.750000
20
735.250000
0
VERTEX
8
0
10
383.541176
20
775.964706
0
VERTEX
8
0
10
382.000000
20
782.000000
0
VERTEX
8
0
10
380.000000
20
783.000000
0
VERTEX
8
0
10
370.000000
20
771.000000
0
VERTEX
8
0
10
366.000000
20
767.000000
0
VERTEX
8
0
10
355.900000
20
762.300000
0
VERTEX
8
0
10
354.000000
20
762.000000
0
VERTEX
8
0
10
352.000000
20
760.000000
0
VERTEX
8
0
10
353.000000
20
731.000000
0
VERTEX
8
0
10
356.000000
20
728.000000
0
VERTEX
8
0
10
357.000000
20
728.000000
0
SEQEND
0
POLYLINE
8
0
6
CONTINUOUS
66
1
62
7
10
0.0
20
0.0
30
0.000000
0
VERTEX
8
0
10
637.000000
20
728.000000
0
VERTEX
8
0
10
639.200000
20
730.900000
0
VERTEX
8
0
10
641.000000
20
747.000000
0
VERTEX
8
0
10
641.000000
20
760.000000
0
VERTEX
8
0
10
639.000000
20
762.000000
0
VERTEX
8
0
10
627.000000
20
767.000000
0
VERTEX
8
0
10
622.752941
20
771.788235
0
VERTEX
8
0
10
613.000000
20
783.000000
0
VERTEX
8
0
10
612.000000
20
783.000000
0
VERTEX
8
0
10
610.000000
20
781.000000
0
VERTEX
8
0
10
608.458824
20
763.964706
0
VERTEX
8
0
10
607.541176
20
752.035294
0
VERTEX
8
0
10
605.000000
20
736.000000
0
VERTEX
8
0
10
627.100000
20
731.300000
0
VERTEX
8
0
10
637.000000
20
728.000000
0
SEQEND
0
POLYLINE
8
0
6
CONTINUOUS
66
1
62
7
10
0.0
20
0.0
30
0.000000
0
VERTEX
8
0
10
765.000000
20
718.000000
0
VERTEX
8
0
10
762.000000
20
719.000000
0
VERTEX
8
0
10
759.760000
20
721.820000
0
VERTEX
8
0
10
756.800000
20
725.900000
0
VERTEX
8
0
10
752.352941
20
739.088235
0
VERTEX
8
0
10
751.647059
20
741.911765
0
VERTEX
8
0
10
749.000000
20
754.000000
0
VERTEX
8
0
10
749.000000
20
769.000000
0
VERTEX
8
0
10
754.200000
20
780.900000
0
VERTEX
8
0
10
754.800000
20
782.100000
0
VERTEX
8
0
10
759.000000
20
790.000000
0
VERTEX
8
0
10
769.846154
20
800.230769
0
VERTEX
8
0
10
777.000000
20
803.000000
0
VERTEX
8
0
10
784.000000
20
803.000000
0
VERTEX
8
0
10
789.932432
20
801.594595
0
VERTEX
8
0
10
794.820000
20
799.760000
0
VERTEX
8
0
10
802.000000
20
794.000000
0
VERTEX
8
0
10
804.580000
20
787.940000
0
VERTEX
8
0
10
806.000000
20
776.000000
0
VERTEX
8
0
10
803.700000
20
771.100000
0
VERTEX
8
0
10
803.200000
20
769.900000
0
VERTEX
8
0
10
800.000000
20
766.000000
0
VERTEX
8
0
10
794.100000
20
769.200000
0
VERTEX
8
0
10
791.000000
20
771.000000
0
VERTEX
8
0
10
791.000000
20
782.000000
0
VERTEX
8
0
10
789.000000
20
784.000000
0
VERTEX
8
0
10
783.000000
20
785.000000
0
VERTEX
8
0
10
781.900000
20
784.200000
0
VERTEX
8
0
10
777.000000
20
782.000000
0
VERTEX
8
0
10
770.000000
20
775.000000
0
VERTEX
8
0
10
764.300000
20
764.900000
0
VERTEX
8
0
10
763.700000
20
763.100000
0
VERTEX
8
0
10
761.000000
20
748.000000
0
VERTEX
8
0
10
761.000000
20
737.000000
0
VERTEX
8
0
10
766.000000
20
719.000000
0
SEQEND
0
POLYLINE
8
0
6
CONTINUOUS
66
1
62
7
10
0.0
20
0.0
30
0.000000
0
VERTEX
8
0
10
765.000000
20
718.000000
0
VERTEX
8
0
10
766.000000
20
719.000000
0
SEQEND
0
POLYLINE
8
0
6
CONTINUOUS
66
1
62
7
10
0.0
20
0.0
30
0.000000
0
VERTEX
8
0
10
227.000000
20
717.000000
0
VERTEX
8
0
10
228.900000
20
718.200000
0
VERTEX
8
0
10
233.000000
20
721.000000
0
VERTEX
8
0
10
236.200000
20
725.900000
0
VERTEX
8
0
10
240.300000
20
737.900000
0
VERTEX
8
0
10
244.000000
20
754.000000
0
VERTEX
8
0
10
244.000000
20
768.000000
0
VERTEX
8
0
10
238.769231
20
780.846154
0
VERTEX
8
0
10
237.230769
20
783.153846
0
VERTEX
8
0
10
234.000000
20
790.000000
0
VERTEX
8
0
10
223.153846
20
800.230769
0
VERTEX
8
0
10
216.000000
20
803.000000
0
VERTEX
8
0
10
209.000000
20
803.000000
0
VERTEX
8
0
10
203.067568
20
801.594595
0
VERTEX
8
0
10
201.900000
20
801.300000
0
VERTEX
8
0
10
198.180000
20
799.760000
0
VERTEX
8
0
10
191.000000
20
794.000000
0
VERTEX
8
0
10
190.769231
20
793.153846
0
VERTEX
8
0
10
188.420000
20
787.940000
0
VERTEX
8
0
10
187.000000
20
776.000000
0
VERTEX
8
0
10
189.200000
20
771.100000
0
VERTEX
8
0
10
189.800000
20
769.900000
0
VERTEX
8
0
10
193.000000
20
766.000000
0
VERTEX
8
0
10
202.000000
20
771.000000
0
VERTEX
8
0
10
202.000000
20
782.000000
0
VERTEX
8
0
10
204.000000
20
784.000000
0
VERTEX
8
0
10
208.000000
20
785.000000
0
VERTEX
8
0
10
211.100000
20
784.200000
0
VERTEX
8
0
10
215.100000
20
782.200000
0
VERTEX
8
0
10
223.000000
20
775.000000
0
VERTEX
8
0
10
226.769231
20
768.846154
0
VERTEX
8
0
10
229.700000
20
760.900000
0
VERTEX
8
0
10
231.450820
20
748.040984
0
VERTEX
8
0
10
232.000000
20
737.000000
0
VERTEX
8
0
10
229.615385
20
727.076923
0
VERTEX
8
0
10
226.800000
20
720.100000
0
VERTEX
8
0
10
226.000000
20
719.000000
0
VERTEX
8
0
10
227.000000
20
717.000000
0
SEQEND
0
POLYLINE
8
0
6
CONTINUOUS
66
1
62
7
10
0.0
20
0.0
30
0.000000
0
VERTEX
8
0
10
765.000000
20
718.000000
0
VERTEX
8
0
10
766.000000
20
717.000000
0
VERTEX
8
0
10
767.000000
20
718.000000
0
VERTEX
8
0
10
766.000000
20
719.000000
0
SEQEND
0
POLYLINE
8
0
6
CONTINUOUS
66
1
62
7
10
0.0
20
0.0
30
0.000000
0
VERTEX
8
0
10
131.000000
20
688.000000
0
VERTEX
8
0
10
135.000000
20
690.000000
0
VERTEX
8
0
10
133.200000
20
694.100000
0
VERTEX
8
0
10
129.769231
20
698.846154
0
VERTEX
8
0
10
127.000000
20
703.000000
0
VERTEX
8
0
10
127.000000
20
720.000000
0
VERTEX
8
0
10
128.200000
20
721.900000
0
VERTEX
8
0
10
128.800000
20
723.100000
0
VERTEX
8
0
10
138.000000
20
733.000000
0
VERTEX
8
0
10
142.000000
20
735.000000
0
VERTEX
8
0
10
144.100000
20
734.200000
0
VERTEX
8
0
10
145.000000
20
734.000000
0
VERTEX
8
0
10
147.230769
20
731.153846
0
VERTEX
8
0
10
149.000000
20
729.000000
0
VERTEX
8
0
10
148.430769
20
723.946154
0
VERTEX
8
0
10
148.000000
20
717.000000
0
VERTEX
8
0
10
149.000000
20
716.000000
0
VERTEX
8
0
10
156.100000
20
718.800000
0
VERTEX
8
0
10
160.000000
20
721.000000
0
VERTEX
8
0
10
161.300000
20
723.900000
0
VERTEX
8
0
10
162.000000
20
725.000000
0
VERTEX
8
0
10
161.405405
20
731.067568
0
VERTEX
8
0
10
158.760000
20
738.820000
0
VERTEX
8
0
10
156.000000
20
743.000000
0
VERTEX
8
0
10
153.100000
20
745.200000
0
VERTEX
8
0
10
152.000000
20
746.000000
0
VERTEX
8
0
10
140.000000
20
746.000000
0
VERTEX
8
0
10
130.100000
20
742.800000
0
VERTEX
8
0
10
128.000000
20
742.000000
0
VERTEX
8
0
10
119.800000
20
733.100000
0
VERTEX
8
0
10
118.800000
20
731.100000
0
VERTEX
8
0
10
113.000000
20
714.000000
0
VERTEX
8
0
10
113.000000
20
709.000000
0
VERTEX
8
0
10
115.200000
20
703.100000
0
VERTEX
8
0
10
115.800000
20
701.900000
0
VERTEX
8
0
10
120.000000
20
694.000000
0
VERTEX
8
0
10
123.000000
20
691.000000
0
VERTEX
8
0
10
128.088235
20
688.352941
0
VERTEX
8
0
10
131.000000
20
688.000000
0
SEQEND
0
POLYLINE
8
0
6
CONTINUOUS
66
1
62
7
10
0.0
20
0.0
30
0.000000
0
VERTEX
8
0
10
865.000000
20
688.000000
0
VERTEX
8
0
10
873.000000
20
694.000000
0
VERTEX
8
0
10
878.647059
20
706.088235
0
VERTEX
8
0
10
880.000000
20
710.000000
0
VERTEX
8
0
10
879.384615
20
715.076923
0
VERTEX
8
0
10
878.615385
20
718.923077
0
VERTEX
8
0
10
873.800000
20
730.900000
0
VERTEX
8
0
10
872.200000
20
734.100000
0
VERTEX
8
0
10
865.000000
20
742.000000
0
VERTEX
8
0
10
862.900000
20
742.800000
0
VERTEX
8
0
10
853.000000
20
746.000000
0
VERTEX
8
0
10
841.000000
20
746.000000
0
VERTEX
8
0
10
839.000000
20
745.000000
0
VERTEX
8
0
10
835.760000
20
741.180000
0
VERTEX
8
0
10
832.800000
20
737.100000
0
VERTEX
8
0
10
831.000000
20
731.000000
0
VERTEX
8
0
10
831.000000
20
724.000000
0
VERTEX
8
0
10
832.000000
20
722.000000
0
VERTEX
8
0
10
836.900000
20
718.800000
0
VERTEX
8
0
10
840.100000
20
717.200000
0
VERTEX
8
0
10
844.000000
20
716.000000
0
VERTEX
8
0
10
844.750000
20
716.250000
0
VERTEX
8
0
10
844.569231
20
723.946154
0
VERTEX
8
0
10
844.000000
20
725.000000
0
VERTEX
8
0
10
844.000000
20
729.000000
0
VERTEX
8
0
10
845.000000
20
731.000000
0
VERTEX
8
0
10
848.900000
20
734.200000
0
VERTEX
8
0
10
850.000000
20
735.000000
0
VERTEX
8
0
10
854.100000
20
733.200000
0
VERTEX
8
0
10
864.000000
20
724.000000
0
VERTEX
8
0
10
866.000000
20
720.000000
0
VERTEX
8
0
10
866.000000
20
704.000000
0
VERTEX
8
0
10
858.800000
20
692.100000
0
VERTEX
8
0
10
858.000000
20
690.000000
0
VERTEX
8
0
10
860.900000
20
688.700000
0
VERTEX
8
0
10
865.000000
20
688.000000
0
SEQEND
0
POLYLINE
8
0
6
CONTINUOUS
66
1
62
7
10
0.0
20
0.0
30
0.000000
0
VERTEX
8
0
10
271.000000
20
648.000000
0
VERTEX
8
0
10
275.000000
20
651.000000
0
VERTEX
8
0
10
279.800000
20
661.100000
0
VERTEX
8
0
10
280.800000
20
663.100000
0
VERTEX
8
0
10
285.230769
20
673.846154
0
VERTEX
8
0
10
297.000000
20
689.000000
0
VERTEX
8
0
10
306.820000
20
697.240000
0
VERTEX
8
0
10
325.000000
20
713.000000
0
VERTEX
8
0
10
332.352941
20
729.911765
0
VERTEX
8
0
10
333.352941
20
733.911765
0
VERTEX
8
0
10
334.000000
20
735.000000
0
VERTEX
8
0
10
334.000000
20
762.000000
0
VERTEX
8
0
10
332.800000
20
763.900000
0
VERTEX
8
0
10
319.439024
20
791.048780
0
VERTEX
8
0
10
317.000000
20
806.000000
0
VERTEX
8
0
10
315.000000
20
808.000000
0
VERTEX
8
0
10
310.700000
20
797.100000
0
VERTEX
8
0
10
310.200000
20
795.900000
0
VERTEX
8
0
10
302.769231
20
780.153846
0
VERTEX
8
0
10
301.230769
20
777.846154
0
VERTEX
8
0
10
297.000000
20
770.000000
0
VERTEX
8
0
10
289.000000
20
762.000000
0
VERTEX
8
0
10
286.900000
20
761.200000
0
VERTEX
8
0
10
269.000000
20
749.000000
0
VERTEX
8
0
10
263.240000
20
741.820000
0
VERTEX
8
0
10
256.800000
20
731.100000
0
VERTEX
8
0
10
254.700000
20
726.100000
0
VERTEX
8
0
10
251.000000
20
711.000000
0
VERTEX
8
0
10
251.000000
20
693.000000
0
VERTEX
8
0
10
253.384615
20
680.076923
0
VERTEX
8
0
10
258.200000
20
663.100000
0
VERTEX
8
0
10
260.200000
20
659.100000
0
VERTEX
8
0
10
266.000000
20
650.000000
0
VERTEX
8
0
10
271.000000
20
648.000000
0
SEQEND
0
POLYLINE
8
0
6
CONTINUOUS
66
1
62
7
10
0.0
20
0.0
30
0.000000
0
VERTEX
8
0
10
723.000000
20
648.000000
0
VERTEX
8
0
10
727.000000
20
650.000000
0
VERTEX
8
0
10
733.200000
20
659.900000
0
VERTEX
8
0
10
735.200000
20
663.900000
0
VERTEX
8
0
10
740.384615
20
683.923077
0
VERTEX
8
0
10
742.000000
20
693.000000
0
VERTEX
8
0
10
742.000000
20
710.000000
0
VERTEX
8
0
10
737.647059
20
727.911765
0
VERTEX
8
0
10
736.200000
20
731.100000
0
VERTEX
8
0
10
727.000000
20
746.000000
0
VERTEX
8
0
10
724.000000
20
749.000000
0
VERTEX
8
0
10
704.000000
20
762.000000
0
VERTEX
8
0
10
696.000000
20
770.000000
0
VERTEX
8
0
10
688.200000
20
784.100000
0
VERTEX
8
0
10
680.700000
20
801.900000
0
VERTEX
8
0
10
678.000000
20
808.000000
0
VERTEX
8
0
10
676.000000
20
806.000000
0
VERTEX
8
0
10
674.430769
20
798.946154
0
VERTEX
8
0
10
673.569231
20
792.053846
0
VERTEX
8
0
10
659.800000
20
764.100000
0
VERTEX
8
0
10
659.000000
20
763.000000
0
VERTEX
8
0
10
659.000000
20
735.000000
0
VERTEX
8
0
10
660.352941
20
731.088235
0
VERTEX
8
0
10
660.647059
20
729.911765
0
VERTEX
8
0
10
668.000000
20
713.000000
0
VERTEX
8
0
10
686.820000
20
696.760000
0
VERTEX
8
0
10
695.000000
20
690.000000
0
VERTEX
8
0
10
707.760000
20
673.820000
0
VERTEX
8
0
10
712.800000
20
661.900000
0
VERTEX
8
0
10
714.800000
20
657.900000
0
VERTEX
8
0
10
718.000000
20
651.000000
0
VERTEX
8
0
10
722.100000
20
648.200000
0
VERTEX
8
0
10
723.000000
20
648.000000
0
SEQEND
0
POLYLINE
8
0
6
CONTINUOUS
66
1
62
7
10
0.0
20
0.0
30
0.000000
0
VERTEX
8
0
10
292.000000
20
607.000000
0
VERTEX
8
0
10
299.900000
20
613.200000
0
VERTEX
8
0
10
317.088235
20
619.647059
0
VERTEX
8
0
10
319.911765
20
620.352941
0
VERTEX
8
0
10
321.000000
20
621.000000
0
VERTEX
8
0
10
330.040984
20
620.450820
0
VERTEX
8
0
10
349.000000
20
619.000000
0
VERTEX
8
0
10
367.923077
20
622.384615
0
VERTEX
8
0
10
380.000000
20
629.000000
0
VERTEX
8
0
10
390.760000
20
642.180000
0
VERTEX
8
0
10
398.700000
20
656.100000
0
VERTEX
8
0
10
401.300000
20
663.900000
0
VERTEX
8
0
10
406.384615
20
681.923077
0
VERTEX
8
0
10
408.352941
20
690.911765
0
VERTEX
8
0
10
412.200000
20
697.900000
0
VERTEX
8
0
10
413.800000
20
701.100000
0
VERTEX
8
0
10
418.000000
20
706.000000
0
VERTEX
8
0
10
422.180000
20
708.760000
0
VERTEX
8
0
10
428.088235
20
711.647059
0
VERTEX
8
0
10
432.067568
20
712.594595
0
VERTEX
8
0
10
437.000000
20
713.000000
0
VERTEX
8
0
10
439.000000
20
715.000000
0
VERTEX
8
0
10
439.000000
20
716.000000
0
VERTEX
8
0
10
437.000000
20
718.000000
0
VERTEX
8
0
10
429.000000
20
722.000000
0
VERTEX
8
0
10
409.000000
20
722.000000
0
VERTEX
8
0
10
388.100000
20
716.700000
0
VERTEX
8
0
10
386.900000
20
716.300000
0
VERTEX
8
0
10
360.100000
20
706.800000
0
VERTEX
8
0
10
345.900000
20
699.200000
0
VERTEX
8
0
10
328.820000
20
689.240000
0
VERTEX
8
0
10
317.000000
20
680.000000
0
VERTEX
8
0
10
308.756098
20
670.195122
0
VERTEX
8
0
10
302.800000
20
662.100000
0
VERTEX
8
0
10
294.352941
20
643.911765
0
VERTEX
8
0
10
292.647059
20
637.088235
0
VERTEX
8
0
10
289.000000
20
619.000000
0
VERTEX
8
0
10
289.000000
20
609.000000
0
VERTEX
8
0
10
291.000000
20
607.000000
0
VERTEX
8
0
10
292.000000
20
607.000000
0
SEQEND
0
POLYLINE
8
0
6
CONTINUOUS
66
1
62
7
10
0.0
20
0.0
30
0.000000
0
VERTEX
8
0
10
702.000000
20
607.000000
0
VERTEX
8
0
10
704.000000
20
609.000000
0
VERTEX
8
0
10
704.000000
20
618.000000
0
VERTEX
8
0
10
699.647059
20
639.911765
0
VERTEX
8
0
10
698.647059
20
643.911765
0
VERTEX
8
0
10
689.769231
20
662.846154
0
VERTEX
8
0
10
683.756098
20
670.804878
0
VERTEX
8
0
10
676.000000
20
680.000000
0
VERTEX
8
0
10
664.804878
20
688.756098
0
VERTEX
8
0
10
638.900000
20
703.800000
0
VERTEX
8
0
10
630.900000
20
707.800000
0
VERTEX
8
0
10
591.946154
20
720.569231
0
VERTEX
8
0
10
585.053846
20
721.430769
0
VERTEX
8
0
10
584.000000
20
722.000000
0
VERTEX
8
0
10
564.000000
20
722.000000
0
VERTEX
8
0
10
561.100000
20
720.700000
0
VERTEX
8
0
10
559.153846
20
719.769231
0
VERTEX
8
0
10
553.000000
20
715.000000
0
VERTEX
8
0
10
554.000000
20
714.000000
0
VERTEX
8
0
10
562.088235
20
712.352941
0
VERTEX
8
0
10
570.100000
20
709.200000
0
VERTEX
8
0
10
570.820000
20
708.760000
0
VERTEX
8
0
10
579.000000
20
702.000000
0
VERTEX
8
0
10
579.200000
20
701.100000
0
VERTEX
8
0
10
585.615385
20
686.923077
0
VERTEX
8
0
10
587.384615
20
678.076923
0
VERTEX
8
0
10
593.300000
20
659.100000
0
VERTEX
8
0
10
594.300000
20
656.100000
0
VERTEX
8
0
10
602.240000
20
642.180000
0
VERTEX
8
0
10
605.245902
20
638.204918
0
VERTEX
8
0
10
613.000000
20
629.000000
0
VERTEX
8
0
10
616.153846
20
627.230769
0
VERTEX
8
0
10
625.076923
20
622.384615
0
VERTEX
8
0
10
644.000000
20
619.000000
0
VERTEX
8
0
10
662.959016
20
620.450820
0
VERTEX
8
0
10
664.000000
20
621.000000
0
VERTEX
8
0
10
672.000000
20
621.000000
0
VERTEX
8
0
10
675.911765
20
619.647059
0
VERTEX
8
0
10
693.100000
20
613.200000
0
VERTEX
8
0
10
702.000000
20
607.000000
0
SEQEND
0
POLYLINE
8
0
6
CONTINUOUS
66
1
62
7
10
0.0
20
0.0
30
0.000000
0
VERTEX
8
0
10
109.000000
20
600.000000
0
VERTEX
8
0
10
108.000000
20
601.000000
0
SEQEND
0
POLYLINE
8
0
6
CONTINUOUS
66
1
62
7
10
0.0
20
0.0
30
0.000000
0
VERTEX
8
0
10
884.000000
20
600.000000
0
VERTEX
8
0
10
885.000000
20
601.000000
0
SEQEND
0
POLYLINE
8
0
6
CONTINUOUS
66
1
62
7
10
0.0
20
0.0
30
0.000000
0
VERTEX
8
0
10
108.000000
20
601.000000
0
VERTEX
8
0
10
107.000000
20
600.000000
0
VERTEX
8
0
10
108.000000
20
599.000000
0
VERTEX
8
0
10
109.000000
20
600.000000
0
SEQEND
0
POLYLINE
8
0
6
CONTINUOUS
66
1
62
7
10
0.0
20
0.0
30
0.000000
0
VERTEX
8
0
10
884.000000
20
600.000000
0
VERTEX
8
0
10
885.000000
20
599.000000
0
VERTEX
8
0
10
886.000000
20
600.000000
0
VERTEX
8
0
10
885.000000
20
601.000000
0
SEQEND
0
POLYLINE
8
0
6
CONTINUOUS
66
1
62
7
10
0.0
20
0.0
30
0.000000
0
VERTEX
8
0
10
230.000000
20
586.000000
0
VERTEX
8
0
10
232.554455
20
593.044554
0
VERTEX
8
0
10
233.445545
20
601.955446
0
VERTEX
8
0
10
236.000000
20
623.000000
0
VERTEX
8
0
10
236.000000
20
649.000000
0
VERTEX
8
0
10
234.560976
20
657.951220
0
VERTEX
8
0
10
234.405405
20
659.067568
0
VERTEX
8
0
10
229.700000
20
674.900000
0
VERTEX
8
0
10
229.200000
20
676.100000
0
VERTEX
8
0
10
223.000000
20
689.000000
0
VERTEX
8
0
10
214.000000
20
698.000000
0
VERTEX
8
0
10
199.000000
20
706.000000
0
VERTEX
8
0
10
185.000000
20
706.000000
0
VERTEX
8
0
10
174.088235
20
703.647059
0
VERTEX
8
0
10
169.153846
20
700.769231
0
VERTEX
8
0
10
166.000000
20
699.000000
0
VERTEX
8
0
10
161.760000
20
694.180000
0
VERTEX
8
0
10
159.240000
20
690.820000
0
VERTEX
8
0
10
156.000000
20
682.000000
0
VERTEX
8
0
10
156.000000
20
676.000000
0
VERTEX
8
0
10
157.352941
20
672.088235
0
VERTEX
8
0
10
157.700000
20
670.900000
0
VERTEX
8
0
10
160.000000
20
665.000000
0
VERTEX
8
0
10
166.000000
20
659.000000
0
VERTEX
8
0
10
170.000000
20
657.000000
0
VERTEX
8
0
10
177.000000
20
657.000000
0
VERTEX
8
0
10
180.100000
20
658.800000
0
VERTEX
8
0
10
184.000000
20
662.000000
0
VERTEX
8
0
10
183.000000
20
665.000000
0
VERTEX
8
0
10
180.180000
20
667.240000
0
VERTEX
8
0
10
171.000000
20
673.000000
0
VERTEX
8
0
10
170.000000
20
681.000000
0
VERTEX
8
0
10
174.000000
20
687.000000
0
VERTEX
8
0
10
183.100000
20
690.700000
0
VERTEX
8
0
10
190.000000
20
693.000000
0
VERTEX
8
0
10
198.846154
20
688.769231
0
VERTEX
8
0
10
206.000000
20
684.000000
0
VERTEX
8
0
10
212.240000
20
676.180000
0
VERTEX
8
0
10
216.769231
20
669.846154
0
VERTEX
8
0
10
224.647059
20
641.911765
0
VERTEX
8
0
10
226.352941
20
635.088235
0
VERTEX
8
0
10
228.461929
20
612.032995
0
VERTEX
8
0
10
230.000000
20
586.000000
0
SEQEND
0
POLYLINE
8
0
6
CONTINUOUS
66
1
62
7
10
0.0
20
0.0
30
0.000000
0
VERTEX
8
0
10
763.000000
20
586.000000
0
VERTEX
8
0
10
765.461929
20
624.967005
0
VERTEX
8
0
10
767.352941
20
637.911765
0
VERTEX
8
0
10
768.647059
20
643.088235
0
VERTEX
8
0
10
776.230769
20
669.846154
0
VERTEX
8
0
10
781.240000
20
676.820000
0
VERTEX
8
0
10
787.000000
20
684.000000
0
VERTEX
8
0
10
794.900000
20
689.200000
0
VERTEX
8
0
10
803.000000
20
693.000000
0
VERTEX
8
0
10
808.100000
20
691.300000
0
VERTEX
8
0
10
819.000000
20
687.000000
0
VERTEX
8
0
10
823.000000
20
680.000000
0
VERTEX
8
0
10
822.000000
20
673.000000
0
VERTEX
8
0
10
812.000000
20
667.000000
0
VERTEX
8
0
10
809.800000
20
664.100000
0
VERTEX
8
0
10
809.000000
20
663.000000
0
VERTEX
8
0
10
809.000000
20
662.000000
0
VERTEX
8
0
10
812.000000
20
659.000000
0
VERTEX
8
0
10
814.100000
20
658.200000
0
VERTEX
8
0
10
814.900000
20
657.800000
0
VERTEX
8
0
10
816.000000
20
657.000000
0
VERTEX
8
0
10
823.000000
20
657.000000
0
VERTEX
8
0
10
827.000000
20
659.000000
0
VERTEX
8
0
10
832.200000
20
664.900000
0
VERTEX
8
0
10
837.000000
20
677.000000
0
VERTEX
8
0
10
835.615385
20
685.923077
0
VERTEX
8
0
10
830.000000
20
696.000000
0
VERTEX
8
0
10
820.846154
20
702.769231
0
VERTEX
8
0
10
814.940000
20
704.580000
0
VERTEX
8
0
10
809.060000
20
705.420000
0
VERTEX
8
0
10
808.000000
20
706.000000
0
VERTEX
8
0
10
794.000000
20
706.000000
0
VERTEX
8
0
10
792.900000
20
705.200000
0
VERTEX
8
0
10
779.000000
20
698.000000
0
VERTEX
8
0
10
770.000000
20
689.000000
0
VERTEX
8
0
10
763.300000
20
674.900000
0
VERTEX
8
0
10
762.700000
20
673.100000
0
VERTEX
8
0
10
759.405405
20
663.932432
0
VERTEX
8
0
10
758.594595
20
659.067568
0
VERTEX
8
0
10
757.000000
20
649.000000
0
VERTEX
8
0
10
757.000000
20
622.000000
0
VERTEX
8
0
10
759.439024
20
603.048780
0
VERTEX
8
0
10
760.445545
20
593.044554
0
VERTEX
8
0
10
761.600000
20
588.200000
0
VERTEX
8
0
10
763.000000
20
586.000000
0
SEQEND
0
POLYLINE
8
0
6
CONTINUOUS
66
1
62
7
10
0.0
20
0.0
30
0.000000
0
VERTEX
8
0
10
451.000000
20
572.000000
0
VERTEX
8
0
10
454.911765
20
573.352941
0
VERTEX
8
0
10
463.000000
20
578.000000
0
VERTEX
8
0
10
465.000000
20
580.000000
0
VERTEX
8
0
10
474.000000
20
597.000000
0
VERTEX
8
0
10
474.000000
20
603.000000
0
VERTEX
8
0
10
469.700000
20
618.900000
0
VERTEX
8
0
10
463.000000
20
631.000000
0
VERTEX
8
0
10
460.000000
20
634.000000
0
VERTEX
8
0
10
447.900000
20
640.800000
0
VERTEX
8
0
10
447.100000
20
641.200000
0
VERTEX
8
0
10
434.000000
20
645.000000
0
VERTEX
8
0
10
422.000000
20
645.000000
0
VERTEX
8
0
10
418.088235
20
643.647059
0
VERTEX
8
0
10
411.180000
20
639.760000
0
VERTEX
8
0
10
405.000000
20
635.000000
0
VERTEX
8
0
10
401.300000
20
627.900000
0
VERTEX
8
0
10
400.000000
20
624.000000
0
VERTEX
8
0
10
401.000000
20
623.000000
0
VERTEX
8
0
10
416.911765
20
627.352941
0
VERTEX
8
0
10
424.911765
20
629.352941
0
VERTEX
8
0
10
430.000000
20
630.000000
0
VERTEX
8
0
10
441.911765
20
626.647059
0
VERTEX
8
0
10
448.000000
20
623.000000
0
VERTEX
8
0
10
453.000000
20
618.000000
0
VERTEX
8
0
10
456.769231
20
611.846154
0
VERTEX
8
0
10
460.000000
20
601.000000
0
VERTEX
8
0
10
460.000000
20
596.000000
0
VERTEX
8
0
10
457.000000
20
589.000000
0
VERTEX
8
0
10
454.000000
20
586.000000
0
VERTEX
8
0
10
451.230769
20
585.153846
0
VERTEX
8
0
10
447.820000
20
586.760000
0
VERTEX
8
0
10
440.000000
20
593.000000
0
VERTEX
8
0
10
434.800000
20
584.100000
0
VERTEX
8
0
10
434.000000
20
583.000000
0
VERTEX
8
0
10
434.000000
20
582.000000
0
VERTEX
8
0
10
440.000000
20
576.000000
0
VERTEX
8
0
10
447.100000
20
573.200000
0
VERTEX
8
0
10
451.000000
20
572.000000
0
SEQEND
0
POLYLINE
8
0
6
CONTINUOUS
66
1
62
7
10
0.0
20
0.0
30
0.000000
0
VERTEX
8
0
10
544.000000
20
572.000000
0
VERTEX
8
0
10
550.100000
20
574.800000
0
VERTEX
8
0
10
553.000000
20
576.000000
0
VERTEX
8
0
10
559.000000
20
582.000000
0
VERTEX
8
0
10
556.800000
20
585.900000
0
VERTEX
8
0
10
553.000000
20
593.000000
0
VERTEX
8
0
10
550.846154
20
591.230769
0
VERTEX
8
0
10
545.180000
20
586.760000
0
VERTEX
8
0
10
541.769231
20
585.153846
0
VERTEX
8
0
10
539.846154
20
585.769231
0
VERTEX
8
0
10
535.000000
20
590.000000
0
VERTEX
8
0
10
534.800000
20
590.900000
0
VERTEX
8
0
10
533.000000
20
596.000000
0
VERTEX
8
0
10
533.000000
20
601.000000
0
VERTEX
8
0
10
536.230769
20
611.846154
0
VERTEX
8
0
10
537.769231
20
614.153846
0
VERTEX
8
0
10
540.000000
20
618.000000
0
VERTEX
8
0
10
545.820000
20
623.240000
0
VERTEX
8
0
10
551.088235
20
626.647059
0
VERTEX
8
0
10
563.000000
20
630.000000
0
VERTEX
8
0
10
572.088235
20
628.352941
0
VERTEX
8
0
10
578.911765
20
626.647059
0
VERTEX
8
0
10
592.000000
20
623.000000
0
VERTEX
8
0
10
593.000000
20
624.000000
0
VERTEX
8
0
10
592.300000
20
626.100000
0
VERTEX
8
0
10
591.700000
20
627.900000
0
VERTEX
8
0
10
586.000000
20
637.000000
0
VERTEX
8
0
10
578.846154
20
641.769231
0
VERTEX
8
0
10
571.000000
20
645.000000
0
VERTEX
8
0
10
559.000000
20
645.000000
0
VERTEX
8
0
10
553.067568
20
643.594595
0
VERTEX
8
0
10
551.911765
20
643.352941
0
VERTEX
8
0
10
543.900000
20
640.200000
0
VERTEX
8
0
10
539.900000
20
638.200000
0
VERTEX
8
0
10
533.000000
20
634.000000
0
VERTEX
8
0
10
527.769231
20
627.153846
0
VERTEX
8
0
10
523.300000
20
618.900000
0
VERTEX
8
0
10
520.800000
20
612.100000
0
VERTEX
8
0
10
519.000000
20
604.000000
0
VERTEX
8
0
10
519.000000
20
597.000000
0
VERTEX
8
0
10
521.300000
20
592.100000
0
VERTEX
8
0
10
526.230769
20
583.153846
0
VERTEX
8
0
10
530.000000
20
578.000000
0
VERTEX
8
0
10
538.088235
20
573.352941
0
VERTEX
8
0
10
544.000000
20
572.000000
0
SEQEND
0
POLYLINE
8
0
6
CONTINUOUS
66
1
62
7
10
0.0
20
0.0
30
0.000000
0
VERTEX
8
0
10
255.000000
20
548.000000
0
VERTEX
8
0
10
256.600000
20
550.200000
0
VERTEX
8
0
10
263.800000
20
574.100000
0
VERTEX
8
0
10
268.756098
20
581.195122
0
VERTEX
8
0
10
272.756098
20
586.195122
0
VERTEX
8
0
10
277.800000
20
596.100000
0
VERTEX
8
0
10
279.000000
20
598.000000
0
VERTEX
8
0
10
278.000000
20
601.000000
0
VERTEX
8
0
10
276.000000
20
603.000000
0
VERTEX
8
0
10
273.180000
20
601.760000
0
VERTEX
8
0
10
269.820000
20
599.240000
0
VERTEX
8
0
10
264.000000
20
594.000000
0
VERTEX
8
0
10
259.230769
20
586.846154
0
VERTEX
8
0
10
252.700000
20
574.100000
0
VERTEX
8
0
10
250.647059
20
567.088235
0
VERTEX
8
0
10
249.000000
20
562.000000
0
VERTEX
8
0
10
249.000000
20
555.000000
0
VERTEX
8
0
10
251.000000
20
548.000000
0
VERTEX
8
0
10
255.000000
20
548.000000
0
SEQEND
0
POLYLINE
8
0
6
CONTINUOUS
66
1
62
7
10
0.0
20
0.0
30
0.000000
0
VERTEX
8
0
10
741.000000
20
548.000000
0
VERTEX
8
0
10
744.000000
20
556.000000
0
VERTEX
8
0
10
744.000000
20
562.000000
0
VERTEX
8
0
10
741.647059
20
569.911765
0
VERTEX
8
0
10
740.300000
20
574.100000
0
VERTEX
8
0
10
734.200000
20
586.100000
0
VERTEX
8
0
10
728.000000
20
595.000000
0
VERTEX
8
0
10
723.180000
20
599.240000
0
VERTEX
8
0
10
718.000000
20
603.000000
0
VERTEX
8
0
10
717.000000
20
603.000000
0
VERTEX
8
0
10
714.000000
20
600.000000
0
VERTEX
8
0
10
714.700000
20
596.900000
0
VERTEX
8
0
10
719.245902
20
587.204918
0
VERTEX
8
0
10
727.756098
20
576.804878
0
VERTEX
8
0
10
730.647059
20
569.911765
0
VERTEX
8
0
10
731.700000
20
565.900000
0
VERTEX
8
0
10
736.000000
20
550.000000
0
VERTEX
8
0
10
738.000000
20
548.000000
0
VERTEX
8
0
10
741.000000
20
548.000000
0
SEQEND
0
POLYLINE
8
0
6
CONTINUOUS
66
1
62
7
10
0.0
20
0.0
30
0.000000
0
VERTEX
8
0
10
217.000000
20
538.000000
0
VERTEX
8
0
10
216.000000
20
538.000000
0
VERTEX
8
0
10
212.700000
20
544.900000
0
VERTEX
8
0
10
212.200000
20
546.100000
0
VERTEX
8
0
10
207.769231
20
555.846154
0
VERTEX
8
0
10
206.230769
20
558.153846
0
VERTEX
8
0
10
199.000000
20
569.000000
0
VERTEX
8
0
10
187.000000
20
581.000000
0
VERTEX
8
0
10
165.900000
20
593.800000
0
VERTEX
8
0
10
156.100000
20
598.300000
0
VERTEX
8
0
10
145.946154
20
601.569231
0
VERTEX
8
0
10
139.053846
20
602.430769
0
VERTEX
8
0
10
129.000000
20
603.000000
0
VERTEX
8
0
10
115.067568
20
600.594595
0
VERTEX
8
0
10
109.000000
20
600.000000
0
SEQEND
0
POLYLINE
8
0
6
CONTINUOUS
66
1
62
7
10
0.0
20
0.0
30
0.000000
0
VERTEX
8
0
10
217.000000
20
538.000000
0
VERTEX
8
0
10
220.384615
20
551.923077
0
VERTEX
8
0
10
222.000000
20
557.000000
0
VERTEX
8
0
10
222.000000
20
562.000000
0
VERTEX
8
0
10
218.647059
20
577.911765
0
VERTEX
8
0
10
212.000000
20
593.000000
0
VERTEX
8
0
10
203.000000
20
601.000000
0
VERTEX
8
0
10
201.000000
20
599.000000
0
VERTEX
8
0
10
201.000000
20
596.000000
0
VERTEX
8
0
10
199.000000
20
595.000000
0
VERTEX
8
0
10
197.756098
20
596.804878
0
VERTEX
8
0
10
186.000000
20
612.000000
0
VERTEX
8
0
10
178.153846
20
618.230769
0
VERTEX
8
0
10
171.900000
20
621.700000
0
VERTEX
8
0
10
170.100000
20
622.300000
0
VERTEX
8
0
10
156.000000
20
626.000000
0
VERTEX
8
0
10
152.000000
20
626.000000
0
VERTEX
8
0
10
145.000000
20
623.000000
0
VERTEX
8
0
10
145.800000
20
621.900000
0
VERTEX
8
0
10
149.000000
20
616.000000
0
VERTEX
8
0
10
148.750000
20
615.250000
0
VERTEX
8
0
10
128.027586
20
613.531034
0
VERTEX
8
0
10
117.100000
20
607.800000
0
VERTEX
8
0
10
108.000000
20
601.000000
0
SEQEND
0
POLYLINE
8
0
6
CONTINUOUS
66
1
62
7
10
0.0
20
0.0
30
0.000000
0
VERTEX
8
0
10
777.000000
20
538.000000
0
VERTEX
8
0
10
775.000000
20
539.000000
0
VERTEX
8
0
10
773.384615
20
548.076923
0
VERTEX
8
0
10
772.615385
20
551.923077
0
VERTEX
8
0
10
771.000000
20
557.000000
0
VERTEX
8
0
10
771.000000
20
562.000000
0
VERTEX
8
0
10
774.352941
20
577.911765
0
VERTEX
8
0
10
780.200000
20
590.900000
0
VERTEX
8
0
10
781.000000
20
593.000000
0
VERTEX
8
0
10
790.000000
20
601.000000
0
VERTEX
8
0
10
791.200000
20
599.100000
0
VERTEX
8
0
10
793.000000
20
595.000000
0
VERTEX
8
0
10
794.000000
20
595.000000
0
VERTEX
8
0
10
803.243902
20
606.804878
0
VERTEX
8
0
10
810.000000
20
615.000000
0
VERTEX
8
0
10
819.100000
20
620.800000
0
VERTEX
8
0
10
832.076923
20
624.615385
0
VERTEX
8
0
10
837.000000
20
626.000000
0
VERTEX
8
0
10
842.088235
20
625.352941
0
VERTEX
8
0
10
845.000000
20
625.000000
0
VERTEX
8
0
10
847.000000
20
623.000000
0
VERTEX
8
0
10
844.000000
20
617.000000
0
VERTEX
8
0
10
845.000000
20
615.000000
0
VERTEX
8
0
10
849.027586
20
614.468966
0
VERTEX
8
0
10
864.972414
20
613.531034
0
VERTEX
8
0
10
875.900000
20
607.800000
0
VERTEX
8
0
10
885.000000
20
601.000000
0
SEQEND
0
POLYLINE
8
0
6
CONTINUOUS
66
1
62
7
10
0.0
20
0.0
30
0.000000
0
VERTEX
8
0
10
777.000000
20
538.000000
0
VERTEX
8
0
10
780.800000
20
546.100000
0
VERTEX
8
0
10
787.800000
20
560.100000
0
VERTEX
8
0
10
794.000000
20
569.000000
0
VERTEX
8
0
10
806.000000
20
581.000000
0
VERTEX
8
0
10
827.100000
20
593.800000
0
VERTEX
8
0
10
836.900000
20
598.300000
0
VERTEX
8
0
10
847.053846
20
601.569231
0
VERTEX
8
0
10
853.946154
20
602.430769
0
VERTEX
8
0
10
864.000000
20
603.000000
0
VERTEX
8
0
10
877.932432
20
600.594595
0
VERTEX
8
0
10
884.000000
20
600.000000
0
SEQEND
0
POLYLINE
8
0
6
CONTINUOUS
66
1
62
7
10
0.0
20
0.0
30
0.000000
0
VERTEX
8
0
10
217.000000
20
536.000000
0
VERTEX
8
0
10
217.000000
20
538.000000
0
SEQEND
0
POLYLINE
8
0
6
CONTINUOUS
66
1
62
7
10
0.0
20
0.0
30
0.000000
0
VERTEX
8
0
10
776.000000
20
536.000000
0
VERTEX
8
0
10
777.000000
20
538.000000
0
SEQEND
0
POLYLINE
8
0
6
CONTINUOUS
66
1
62
7
10
0.0
20
0.0
30
0.000000
0
VERTEX
8
0
10
180.000000
20
511.000000
0
VERTEX
8
0
10
190.932432
20
513.405405
0
VERTEX
8
0
10
203.900000
20
518.200000
0
VERTEX
8
0
10
205.100000
20
518.800000
0
VERTEX
8
0
10
209.000000
20
522.000000
0
VERTEX
8
0
10
209.000000
20
526.000000
0
VERTEX
8
0
10
207.700000
20
528.900000
0
VERTEX
8
0
10
205.300000
20
535.100000
0
VERTEX
8
0
10
201.769231
20
542.846154
0
VERTEX
8
0
10
198.200000
20
549.100000
0
VERTEX
8
0
10
186.000000
20
566.000000
0
VERTEX
8
0
10
181.000000
20
571.000000
0
VERTEX
8
0
10
166.900000
20
580.800000
0
VERTEX
8
0
10
144.100000
20
590.300000
0
VERTEX
8
0
10
136.000000
20
592.000000
0
VERTEX
8
0
10
120.000000
20
592.000000
0
VERTEX
8
0
10
116.088235
20
590.647059
0
VERTEX
8
0
10
110.900000
20
589.300000
0
VERTEX
8
0
10
103.000000
20
586.000000
0
VERTEX
8
0
10
102.000000
20
585.000000
0
VERTEX
8
0
10
102.250000
20
582.250000
0
VERTEX
8
0
10
124.923077
20
576.615385
0
VERTEX
8
0
10
126.100000
20
576.200000
0
VERTEX
8
0
10
131.000000
20
572.000000
0
VERTEX
8
0
10
134.000000
20
566.000000
0
VERTEX
8
0
10
132.000000
20
564.000000
0
VERTEX
8
0
10
123.250000
20
564.750000
0
VERTEX
8
0
10
123.000000
20
564.000000
0
VERTEX
8
0
10
125.800000
20
556.900000
0
VERTEX
8
0
10
130.000000
20
550.000000
0
VERTEX
8
0
10
138.820000
20
541.760000
0
VERTEX
8
0
10
149.100000
20
535.200000
0
VERTEX
8
0
10
150.000000
20
535.000000
0
VERTEX
8
0
10
151.000000
20
534.000000
0
VERTEX
8
0
10
151.000000
20
532.000000
0
VERTEX
8
0
10
140.000000
20
528.000000
0
VERTEX
8
0
10
140.000000
20
526.000000
0
VERTEX
8
0
10
146.900000
20
520.800000
0
VERTEX
8
0
10
165.029183
20
511.466926
0
VERTEX
8
0
10
180.000000
20
511.000000
0
SEQEND
0
POLYLINE
8
0
6
CONTINUOUS
66
1
62
7
10
0.0
20
0.0
30
0.000000
0
VERTEX
8
0
10
828.000000
20
511.000000
0
VERTEX
8
0
10
846.846154
20
521.230769
0
VERTEX
8
0
10
852.000000
20
525.000000
0
VERTEX
8
0
10
853.000000
20
528.000000
0
VERTEX
8
0
10
847.100000
20
530.300000
0
VERTEX
8
0
10
843.000000
20
531.000000
0
VERTEX
8
0
10
841.000000
20
533.000000
0
VERTEX
8
0
10
854.180000
20
541.760000
0
VERTEX
8
0
10
863.000000
20
550.000000
0
VERTEX
8
0
10
866.200000
20
555.900000
0
VERTEX
8
0
10
870.000000
20
564.000000
0
VERTEX
8
0
10
869.000000
20
565.000000
0
VERTEX
8
0
10
861.000000
20
564.000000
0
VERTEX
8
0
10
859.000000
20
566.000000
0
VERTEX
8
0
10
862.000000
20
572.000000
0
VERTEX
8
0
10
866.900000
20
576.200000
0
VERTEX
8
0
10
890.750000
20
582.250000
0
VERTEX
8
0
10
891.000000
20
583.000000
0
VERTEX
8
0
10
891.000000
20
584.000000
0
VERTEX
8
0
10
888.000000
20
587.000000
0
VERTEX
8
0
10
876.911765
20
590.647059
0
VERTEX
8
0
10
874.088235
20
591.352941
0
VERTEX
8
0
10
873.000000
20
592.000000
0
VERTEX
8
0
10
857.000000
20
592.000000
0
VERTEX
8
0
10
845.100000
20
588.800000
0
VERTEX
8
0
10
842.100000
20
587.700000
0
VERTEX
8
0
10
824.153846
20
579.769231
0
VERTEX
8
0
10
817.820000
20
575.240000
0
VERTEX
8
0
10
807.000000
20
566.000000
0
VERTEX
8
0
10
801.756098
20
559.195122
0
VERTEX
8
0
10
794.200000
20
547.900000
0
VERTEX
8
0
10
791.230769
20
542.846154
0
VERTEX
8
0
10
786.300000
20
531.900000
0
VERTEX
8
0
10
784.000000
20
526.000000
0
VERTEX
8
0
10
784.000000
20
522.000000
0
VERTEX
8
0
10
787.000000
20
519.000000
0
VERTEX
8
0
10
789.100000
20
518.200000
0
VERTEX
8
0
10
789.900000
20
517.800000
0
VERTEX
8
0
10
802.067568
20
513.405405
0
VERTEX
8
0
10
806.932432
20
512.594595
0
VERTEX
8
0
10
813.029183
20
511.466926
0
VERTEX
8
0
10
828.000000
20
511.000000
0
SEQEND
0
POLYLINE
8
0
6
CONTINUOUS
66
1
62
7
10
0.0
20
0.0
30
0.000000
0
VERTEX
8
0
10
265.000000
20
480.000000
0
VERTEX
8
0
10
271.000000
20
483.000000
0
VERTEX
8
0
10
297.760000
20
518.180000
0
VERTEX
8
0
10
305.795082
20
526.245902
0
VERTEX
8
0
10
311.204918
20
530.754098
0
VERTEX
8
0
10
325.100000
20
537.800000
0
VERTEX
8
0
10
325.900000
20
538.200000
0
VERTEX
8
0
10
355.000000
20
542.000000
0
VERTEX
8
0
10
356.000000
20
543.000000
0
VERTEX
8
0
10
352.000000
20
548.000000
0
VERTEX
8
0
10
347.820000
20
550.760000
0
VERTEX
8
0
10
338.900000
20
555.700000
0
VERTEX
8
0
10
337.100000
20
556.300000
0
VERTEX
8
0
10
333.946154
20
557.569231
0
VERTEX
8
0
10
325.964706
20
558.541176
0
VERTEX
8
0
10
314.000000
20
559.000000
0
VERTEX
8
0
10
312.000000
20
561.000000
0
VERTEX
8
0
10
312.000000
20
564.000000
0
VERTEX
8
0
10
313.000000
20
565.000000
0
VERTEX
8
0
10
311.000000
20
567.000000
0
VERTEX
8
0
10
308.000000
20
567.000000
0
VERTEX
8
0
10
303.153846
20
564.769231
0
VERTEX
8
0
10
300.846154
20
563.230769
0
VERTEX
8
0
10
295.000000
20
560.000000
0
VERTEX
8
0
10
282.000000
20
547.000000
0
VERTEX
8
0
10
271.000000
20
530.000000
0
VERTEX
8
0
10
270.000000
20
530.000000
0
VERTEX
8
0
10
266.100000
20
533.200000
0
VERTEX
8
0
10
263.000000
20
534.000000
0
VERTEX
8
0
10
261.000000
20
532.000000
0
VERTEX
8
0
10
260.300000
20
529.900000
0
VERTEX
8
0
10
259.700000
20
528.100000
0
VERTEX
8
0
10
258.000000
20
519.000000
0
VERTEX
8
0
10
258.000000
20
512.000000
0
VERTEX
8
0
10
262.352941
20
496.088235
0
VERTEX
8
0
10
263.000000
20
495.000000
0
VERTEX
8
0
10
262.300000
20
491.900000
0
VERTEX
8
0
10
261.700000
20
490.100000
0
VERTEX
8
0
10
260.000000
20
482.000000
0
VERTEX
8
0
10
263.100000
20
480.300000
0
VERTEX
8
0
10
265.000000
20
480.000000
0
SEQEND
0
POLYLINE
8
0
6
CONTINUOUS
66
1
62
7
10
0.0
20
0.0
30
0.000000
0
VERTEX
8
0
10
730.000000
20
480.000000
0
VERTEX
8
0
10
733.000000
20
482.000000
0
VERTEX
8
0
10
730.700000
20
491.900000
0
VERTEX
8
0
10
730.000000
20
493.000000
0
VERTEX
8
0
10
730.647059
20
497.088235
0
VERTEX
8
0
10
731.352941
20
499.911765
0
VERTEX
8
0
10
735.000000
20
512.000000
0
VERTEX
8
0
10
735.000000
20
519.000000
0
VERTEX
8
0
10
733.569231
20
526.946154
0
VERTEX
8
0
10
733.200000
20
528.100000
0
VERTEX
8
0
10
732.000000
20
532.000000
0
VERTEX
8
0
10
730.000000
20
534.000000
0
VERTEX
8
0
10
728.000000
20
534.000000
0
VERTEX
8
0
10
726.180000
20
532.760000
0
VERTEX
8
0
10
723.000000
20
530.000000
0
VERTEX
8
0
10
721.000000
20
531.000000
0
VERTEX
8
0
10
720.800000
20
531.900000
0
VERTEX
8
0
10
711.000000
20
547.000000
0
VERTEX
8
0
10
698.000000
20
560.000000
0
VERTEX
8
0
10
689.846154
20
564.769231
0
VERTEX
8
0
10
689.100000
20
565.200000
0
VERTEX
8
0
10
685.000000
20
567.000000
0
VERTEX
8
0
10
682.000000
20
567.000000
0
VERTEX
8
0
10
680.000000
20
565.000000
0
VERTEX
8
0
10
681.000000
20
563.000000
0
VERTEX
8
0
10
681.000000
20
561.000000
0
VERTEX
8
0
10
679.000000
20
559.000000
0
VERTEX
8
0
10
665.946154
20
558.430769
0
VERTEX
8
0
10
657.100000
20
556.800000
0
VERTEX
8
0
10
654.100000
20
555.700000
0
VERTEX
8
0
10
645.180000
20
550.760000
0
VERTEX
8
0
10
641.000000
20
548.000000
0
VERTEX
8
0
10
637.000000
20
544.000000
0
VERTEX
8
0
10
638.000000
20
542.000000
0
VERTEX
8
0
10
667.100000
20
538.200000
0
VERTEX
8
0
10
669.100000
20
537.200000
0
VERTEX
8
0
10
681.795082
20
530.754098
0
VERTEX
8
0
10
694.000000
20
520.000000
0
VERTEX
8
0
10
694.240000
20
519.180000
0
VERTEX
8
0
10
722.000000
20
483.000000
0
VERTEX
8
0
10
730.000000
20
480.000000
0
SEQEND
0
POLYLINE
8
0
6
CONTINUOUS
66
1
62
7
10
0.0
20
0.0
30
0.000000
0
VERTEX
8
0
10
325.000000
20
477.000000
0
VERTEX
8
0
10
326.076923
20
477.615385
0
VERTEX
8
0
10
345.000000
20
482.000000
0
VERTEX
8
0
10
347.000000
20
484.000000
0
VERTEX
8
0
10
339.248276
20
492.220690
0
VERTEX
8
0
10
338.000000
20
495.000000
0
VERTEX
8
0
10
342.088235
20
496.647059
0
VERTEX
8
0
10
344.911765
20
497.352941
0
VERTEX
8
0
10
351.000000
20
499.000000
0
VERTEX
8
0
10
359.000000
20
499.000000
0
VERTEX
8
0
10
366.900000
20
496.800000
0
VERTEX
8
0
10
377.000000
20
492.000000
0
VERTEX
8
0
10
378.000000
20
493.000000
0
VERTEX
8
0
10
378.000000
20
500.000000
0
VERTEX
8
0
10
381.000000
20
503.000000
0
VERTEX
8
0
10
385.000000
20
503.000000
0
VERTEX
8
0
10
393.820000
20
495.760000
0
VERTEX
8
0
10
399.000000
20
492.000000
0
VERTEX
8
0
10
402.000000
20
495.000000
0
VERTEX
8
0
10
404.000000
20
500.000000
0
VERTEX
8
0
10
404.000000
20
502.000000
0
VERTEX
8
0
10
399.000000
20
514.000000
0
VERTEX
8
0
10
391.000000
20
522.000000
0
VERTEX
8
0
10
384.900000
20
525.800000
0
VERTEX
8
0
10
384.100000
20
526.200000
0
VERTEX
8
0
10
364.000000
20
531.000000
0
VERTEX
8
0
10
354.000000
20
531.000000
0
VERTEX
8
0
10
344.088235
20
528.647059
0
VERTEX
8
0
10
330.900000
20
523.200000
0
VERTEX
8
0
10
319.180000
20
517.760000
0
VERTEX
8
0
10
315.820000
20
515.240000
0
VERTEX
8
0
10
311.000000
20
512.000000
0
VERTEX
8
0
10
291.000000
20
492.000000
0
VERTEX
8
0
10
288.240000
20
487.820000
0
VERTEX
8
0
10
287.800000
20
487.100000
0
VERTEX
8
0
10
287.250000
20
482.250000
0
VERTEX
8
0
10
288.000000
20
482.000000
0
VERTEX
8
0
10
301.000000
20
483.000000
0
VERTEX
8
0
10
304.100000
20
481.200000
0
VERTEX
8
0
10
316.076923
20
478.384615
0
VERTEX
8
0
10
325.000000
20
477.000000
0
SEQEND
0
POLYLINE
8
0
6
CONTINUOUS
66
1
62
7
10
0.0
20
0.0
30
0.000000
0
VERTEX
8
0
10
672.000000
20
477.000000
0
VERTEX
8
0
10
678.067568
20
478.594595
0
VERTEX
8
0
10
688.900000
20
481.200000
0
VERTEX
8
0
10
692.000000
20
483.000000
0
VERTEX
8
0
10
705.750000
20
482.250000
0
VERTEX
8
0
10
706.000000
20
483.000000
0
VERTEX
8
0
10
704.760000
20
487.820000
0
VERTEX
8
0
10
702.240000
20
491.180000
0
VERTEX
8
0
10
682.000000
20
512.000000
0
VERTEX
8
0
10
673.820000
20
517.760000
0
VERTEX
8
0
10
660.900000
20
523.700000
0
VERTEX
8
0
10
646.088235
20
529.352941
0
VERTEX
8
0
10
639.000000
20
531.000000
0
VERTEX
8
0
10
629.000000
20
531.000000
0
VERTEX
8
0
10
608.900000
20
526.200000
0
VERTEX
8
0
10
606.900000
20
525.200000
0
VERTEX
8
0
10
602.000000
20
522.000000
0
VERTEX
8
0
10
594.000000
20
514.000000
0
VERTEX
8
0
10
589.000000
20
502.000000
0
VERTEX
8
0
10
591.000000
20
495.000000
0
VERTEX
8
0
10
594.000000
20
492.000000
0
VERTEX
8
0
10
595.820000
20
493.240000
0
VERTEX
8
0
10
608.000000
20
503.000000
0
VERTEX
8
0
10
612.000000
20
503.000000
0
VERTEX
8
0
10
615.000000
20
500.000000
0
VERTEX
8
0
10
615.000000
20
493.000000
0
VERTEX
8
0
10
616.000000
20
492.000000
0
VERTEX
8
0
10
626.900000
20
497.200000
0
VERTEX
8
0
10
634.000000
20
499.000000
0
VERTEX
8
0
10
642.000000
20
499.000000
0
VERTEX
8
0
10
650.911765
20
496.647059
0
VERTEX
8
0
10
655.000000
20
495.000000
0
VERTEX
8
0
10
655.000000
20
494.000000
0
VERTEX
8
0
10
646.000000
20
484.000000
0
VERTEX
8
0
10
648.000000
20
482.000000
0
VERTEX
8
0
10
668.076923
20
477.384615
0
VERTEX
8
0
10
672.000000
20
477.000000
0
SEQEND
0
POLYLINE
8
0
6
CONTINUOUS
66
1
62
7
10
0.0
20
0.0
30
0.000000
0
VERTEX
8
0
10
252.000000
20
393.000000
0
VERTEX
8
0
10
247.900000
20
393.700000
0
VERTEX
8
0
10
244.195122
20
395.243902
0
VERTEX
8
0
10
239.804878
20
398.756098
0
VERTEX
8
0
10
233.000000
20
405.000000
0
VERTEX
8
0
10
216.240000
20
426.180000
0
VERTEX
8
0
10
211.760000
20
431.820000
0
VERTEX
8
0
10
206.000000
20
439.000000
0
VERTEX
8
0
10
202.100000
20
441.200000
0
VERTEX
8
0
10
198.000000
20
443.000000
0
VERTEX
8
0
10
191.000000
20
442.000000
0
VERTEX
8
0
10
190.000000
20
441.000000
0
VERTEX
8
0
10
188.300000
20
434.900000
0
VERTEX
8
0
10
186.200000
20
427.900000
0
VERTEX
8
0
10
184.000000
20
425.000000
0
VERTEX
8
0
10
181.000000
20
425.000000
0
VERTEX
8
0
10
176.000000
20
428.000000
0
VERTEX
8
0
10
173.800000
20
430.900000
0
VERTEX
8
0
10
172.800000
20
432.900000
0
VERTEX
8
0
10
172.000000
20
434.000000
0
VERTEX
8
0
10
172.647059
20
439.088235
0
VERTEX
8
0
10
176.000000
20
447.000000
0
VERTEX
8
0
10
184.000000
20
455.000000
0
VERTEX
8
0
10
194.000000
20
459.000000
0
VERTEX
8
0
10
200.000000
20
459.000000
0
VERTEX
8
0
10
205.100000
20
457.300000
0
VERTEX
8
0
10
210.000000
20
455.000000
0
VERTEX
8
0
10
216.000000
20
449.000000
0
VERTEX
8
0
10
219.756098
20
443.804878
0
VERTEX
8
0
10
233.800000
20
420.900000
0
VERTEX
8
0
10
236.769231
20
415.846154
0
VERTEX
8
0
10
244.240000
20
404.180000
0
VERTEX
8
0
10
252.000000
20
394.000000
0
SEQEND
0
POLYLINE
8
0
6
CONTINUOUS
66
1
62
7
10
0.0
20
0.0
30
0.000000
0
VERTEX
8
0
10
252.000000
20
393.000000
0
VERTEX
8
0
10
252.000000
20
394.000000
0
SEQEND
0
POLYLINE
8
0
6
CONTINUOUS
66
1
62
7
10
0.0
20
0.0
30
0.000000
0
VERTEX
8
0
10
744.000000
20
393.000000
0
VERTEX
8
0
10
754.000000
20
399.000000
0
VERTEX
8
0
10
787.000000
20
439.000000
0
VERTEX
8
0
10
795.000000
20
443.000000
0
VERTEX
8
0
10
802.000000
20
442.000000
0
VERTEX
8
0
10
803.000000
20
441.000000
0
VERTEX
8
0
10
807.000000
20
427.000000
0
VERTEX
8
0
10
809.000000
20
425.000000
0
VERTEX
8
0
10
812.000000
20
425.000000
0
VERTEX
8
0
10
817.000000
20
428.000000
0
VERTEX
8
0
10
819.200000
20
431.900000
0
VERTEX
8
0
10
821.000000
20
435.000000
0
VERTEX
8
0
10
819.647059
20
441.911765
0
VERTEX
8
0
10
819.200000
20
443.100000
0
VERTEX
8
0
10
817.000000
20
447.000000
0
VERTEX
8
0
10
809.000000
20
455.000000
0
VERTEX
8
0
10
799.000000
20
459.000000
0
VERTEX
8
0
10
793.000000
20
459.000000
0
VERTEX
8
0
10
787.900000
20
457.300000
0
VERTEX
8
0
10
783.000000
20
455.000000
0
VERTEX
8
0
10
777.000000
20
449.000000
0
VERTEX
8
0
10
773.243902
20
443.804878
0
VERTEX
8
0
10
757.230769
20
417.846154
0
VERTEX
8
0
10
756.200000
20
415.900000
0
VERTEX
8
0
10
742.769231
20
396.153846
0
VERTEX
8
0
10
741.000000
20
394.000000
0
VERTEX
8
0
10
742.000000
20
393.000000
0
VERTEX
8
0
10
744.000000
20
393.000000
0
SEQEND
0
POLYLINE
8
0
6
CONTINUOUS
66
1
62
7
10
0.0
20
0.0
30
0.000000
0
VERTEX
8
0
10
253.000000
20
392.000000
0
VERTEX
8
0
10
252.000000
20
393.000000
0
SEQEND
0
POLYLINE
8
0
6
CONTINUOUS
66
1
62
7
10
0.0
20
0.0
30
0.000000
0
VERTEX
8
0
10
318.000000
20
341.000000
0
VERTEX
8
0
10
321.756098
20
345.195122
0
VERTEX
8
0
10
328.000000
20
355.000000
0
VERTEX
8
0
10
326.000000
20
357.000000
0
VERTEX
8
0
10
304.000000
20
376.000000
0
VERTEX
8
0
10
277.249201
20
404.230032
0
VERTEX
8
0
10
268.240000
20
416.180000
0
VERTEX
8
0
10
265.240000
20
420.180000
0
VERTEX
8
0
10
255.200000
20
437.100000
0
VERTEX
8
0
10
251.800000
20
443.900000
0
VERTEX
8
0
10
246.420000
20
461.060000
0
VERTEX
8
0
10
245.445545
20
468.044554
0
VERTEX
8
0
10
244.000000
20
490.000000
0
VERTEX
8
0
10
242.000000
20
492.000000
0
VERTEX
8
0
10
241.000000
20
492.000000
0
VERTEX
8
0
10
238.000000
20
489.000000
0
VERTEX
8
0
10
235.000000
20
476.000000
0
VERTEX
8
0
10
237.615385
20
451.923077
0
VERTEX
8
0
10
243.300000
20
434.100000
0
VERTEX
8
0
10
246.800000
20
426.900000
0
VERTEX
8
0
10
257.230769
20
408.153846
0
VERTEX
8
0
10
267.769231
20
392.846154
0
VERTEX
8
0
10
278.248619
20
379.223757
0
VERTEX
8
0
10
287.000000
20
369.000000
0
VERTEX
8
0
10
313.804878
20
344.756098
0
VERTEX
8
0
10
318.000000
20
341.000000
0
SEQEND
0
POLYLINE
8
0
6
CONTINUOUS
66
1
62
7
10
0.0
20
0.0
30
0.000000
0
VERTEX
8
0
10
675.000000
20
341.000000
0
VERTEX
8
0
10
706.000000
20
369.000000
0
VERTEX
8
0
10
725.230769
20
392.846154
0
VERTEX
8
0
10
733.769231
20
405.153846
0
VERTEX
8
0
10
746.800000
20
428.100000
0
VERTEX
8
0
10
749.700000
20
434.100000
0
VERTEX
8
0
10
755.569231
20
453.053846
0
VERTEX
8
0
10
758.000000
20
475.000000
0
VERTEX
8
0
10
755.000000
20
489.000000
0
VERTEX
8
0
10
752.000000
20
492.000000
0
VERTEX
8
0
10
750.000000
20
492.000000
0
VERTEX
8
0
10
749.000000
20
491.000000
0
VERTEX
8
0
10
748.445545
20
476.955446
0
VERTEX
8
0
10
746.580000
20
461.060000
0
VERTEX
8
0
10
741.700000
20
445.100000
0
VERTEX
8
0
10
738.200000
20
437.900000
0
VERTEX
8
0
10
727.760000
20
420.180000
0
VERTEX
8
0
10
722.240000
20
412.820000
0
VERTEX
8
0
10
715.750799
20
404.230032
0
VERTEX
8
0
10
689.000000
20
376.000000
0
VERTEX
8
0
10
667.779310
20
357.248276
0
VERTEX
8
0
10
665.000000
20
355.000000
0
VERTEX
8
0
10
668.240000
20
349.180000
0
VERTEX
8
0
10
675.000000
20
341.000000
0
SEQEND
0
POLYLINE
8
0
6
CONTINUOUS
66
1
62
7
10
0.0
20
0.0
30
0.000000
0
VERTEX
8
0
10
456.000000
20
261.000000
0
VERTEX
8
0
10
457.200000
20
262.900000
0
VERTEX
8
0
10
460.000000
20
270.000000
0
VERTEX
8
0
10
460.000000
20
273.000000
0
VERTEX
8
0
10
457.100000
20
275.200000
0
VERTEX
8
0
10
443.100000
20
281.200000
0
VERTEX
8
0
10
433.900000
20
285.800000
0
VERTEX
8
0
10
416.153846
20
294.230769
0
VERTEX
8
0
10
411.900000
20
296.800000
0
VERTEX
8
0
10
379.180000
20
317.240000
0
VERTEX
8
0
10
370.000000
20
324.000000
0
VERTEX
8
0
10
366.769231
20
320.153846
0
VERTEX
8
0
10
362.000000
20
310.000000
0
VERTEX
8
0
10
362.000000
20
308.000000
0
VERTEX
8
0
10
382.846154
20
294.769231
0
VERTEX
8
0
10
392.846154
20
288.769231
0
VERTEX
8
0
10
412.067568
20
277.405405
0
VERTEX
8
0
10
418.900000
20
275.800000
0
VERTEX
8
0
10
420.100000
20
275.200000
0
VERTEX
8
0
10
449.911765
20
262.647059
0
VERTEX
8
0
10
456.000000
20
261.000000
0
SEQEND
0
POLYLINE
8
0
6
CONTINUOUS
66
1
62
7
10
0.0
20
0.0
30
0.000000
0
VERTEX
8
0
10
538.000000
20
261.000000
0
VERTEX
8
0
10
543.088235
20
262.647059
0
VERTEX
8
0
10
572.900000
20
275.200000
0
VERTEX
8
0
10
576.067568
20
276.594595
0
VERTEX
8
0
10
580.932432
20
277.405405
0
VERTEX
8
0
10
602.846154
20
290.230769
0
VERTEX
8
0
10
615.900000
20
298.200000
0
VERTEX
8
0
10
631.000000
20
308.000000
0
VERTEX
8
0
10
631.000000
20
310.000000
0
VERTEX
8
0
10
625.000000
20
322.000000
0
VERTEX
8
0
10
623.000000
20
324.000000
0
VERTEX
8
0
10
620.000000
20
323.000000
0
VERTEX
8
0
10
618.000000
20
320.000000
0
VERTEX
8
0
10
581.100000
20
296.800000
0
VERTEX
8
0
10
576.846154
20
294.230769
0
VERTEX
8
0
10
559.900000
20
286.200000
0
VERTEX
8
0
10
549.100000
20
280.800000
0
VERTEX
8
0
10
535.900000
20
275.200000
0
VERTEX
8
0
10
535.000000
20
275.000000
0
VERTEX
8
0
10
533.000000
20
273.000000
0
VERTEX
8
0
10
533.000000
20
270.000000
0
VERTEX
8
0
10
536.000000
20
262.000000
0
VERTEX
8
0
10
538.000000
20
261.000000
0
SEQEND
0
POLYLINE
8
0
6
CONTINUOUS
66
1
62
7
10
0.0
20
0.0
30
0.000000
0
VERTEX
8
0
10
307.000000
20
236.000000
0
VERTEX
8
0
10
306.000000
20
236.000000
0
SEQEND
0
POLYLINE
8
0
6
CONTINUOUS
66
1
62
7
10
0.0
20
0.0
30
0.000000
0
VERTEX
8
0
10
529.000000
20
199.000000
0
VERTEX
8
0
10
540.756098
20
214.195122
0
VERTEX
8
0
10
551.000000
20
229.000000
0
VERTEX
8
0
10
544.100000
20
233.200000
0
VERTEX
8
0
10
525.100000
20
241.300000
0
VERTEX
8
0
10
513.923077
20
245.615385
0
VERTEX
8
0
10
510.076923
20
246.384615
0
VERTEX
8
0
10
501.000000
20
248.000000
0
VERTEX
8
0
10
493.000000
20
248.000000
0
VERTEX
8
0
10
475.900000
20
244.300000
0
VERTEX
8
0
10
472.900000
20
243.300000
0
VERTEX
8
0
10
450.100000
20
233.800000
0
VERTEX
8
0
10
442.000000
20
229.000000
0
VERTEX
8
0
10
442.800000
20
227.900000
0
VERTEX
8
0
10
455.243902
20
210.195122
0
VERTEX
8
0
10
459.240000
20
205.180000
0
VERTEX
8
0
10
464.000000
20
199.000000
0
VERTEX
8
0
10
468.153846
20
201.769231
0
VERTEX
8
0
10
479.100000
20
206.800000
0
VERTEX
8
0
10
484.923077
20
208.384615
0
VERTEX
8
0
10
499.000000
20
210.000000
0
VERTEX
8
0
10
506.946154
20
208.569231
0
VERTEX
8
0
10
518.100000
20
205.200000
0
VERTEX
8
0
10
529.000000
20
199.000000
0
SEQEND
0
POLYLINE
8
0
6
CONTINUOUS
66
1
62
7
10
0.0
20
0.0
30
0.000000
0
VERTEX
8
0
10
497.000000
20
159.000000
0
VERTEX
8
0
10
504.752941
20
169.211765
0
VERTEX
8
0
10
520.000000
20
185.000000
0
VERTEX
8
0
10
522.783186
20
186.247788
0
VERTEX
8
0
10
530.216814
20
192.752212
0
VERTEX
8
0
10
571.153846
20
217.769231
0
VERTEX
8
0
10
583.846154
20
225.230769
0
VERTEX
8
0
10
622.100000
20
247.700000
0
VERTEX
8
0
10
633.100000
20
252.800000
0
VERTEX
8
0
10
672.820000
20
276.240000
0
VERTEX
8
0
10
694.180000
20
291.760000
0
VERTEX
8
0
10
743.771698
20
330.249057
0
VERTEX
8
0
10
767.195122
20
350.756098
0
VERTEX
8
0
10
811.000000
20
390.000000
0
VERTEX
8
0
10
811.000000
20
391.000000
0
VERTEX
8
0
10
823.000000
20
403.000000
0
VERTEX
8
0
10
824.000000
20
403.000000
0
VERTEX
8
0
10
828.000000
20
407.000000
0
VERTEX
8
0
10
858.754098
20
445.204918
0
VERTEX
8
0
10
871.769231
20
467.153846
0
VERTEX
8
0
10
890.700000
20
506.100000
0
VERTEX
8
0
10
895.200000
20
516.900000
0
VERTEX
8
0
10
910.647059
20
558.088235
0
VERTEX
8
0
10
915.647059
20
575.088235
0
VERTEX
8
0
10
924.580000
20
614.060000
0
VERTEX
8
0
10
925.420000
20
619.940000
0
VERTEX
8
0
10
930.000000
20
644.000000
0
VERTEX
8
0
10
930.000000
20
680.000000
0
VERTEX
8
0
10
926.615385
20
704.923077
0
VERTEX
8
0
10
921.594595
20
727.932432
0
VERTEX
8
0
10
915.700000
20
741.900000
0
VERTEX
8
0
10
902.200000
20
772.100000
0
VERTEX
8
0
10
890.754098
20
788.795082
0
VERTEX
8
0
10
869.240000
20
815.180000
0
VERTEX
8
0
10
869.000000
20
816.000000
0
VERTEX
8
0
10
856.204918
20
827.245902
0
VERTEX
8
0
10
850.795082
20
831.754098
0
VERTEX
8
0
10
840.846154
20
837.769231
0
VERTEX
8
0
10
824.900000
20
845.800000
0
VERTEX
8
0
10
822.100000
20
847.200000
0
VERTEX
8
0
10
796.911765
20
856.647059
0
VERTEX
8
0
10
788.900000
20
858.800000
0
VERTEX
8
0
10
767.088235
20
865.352941
0
VERTEX
8
0
10
756.100000
20
867.300000
0
VERTEX
8
0
10
742.959016
20
869.549180
0
VERTEX
8
0
10
733.040984
20
870.450820
0
VERTEX
8
0
10
721.000000
20
872.000000
0
VERTEX
8
0
10
696.000000
20
872.000000
0
VERTEX
8
0
10
686.044554
20
870.554455
0
VERTEX
8
0
10
679.060000
20
869.580000
0
VERTEX
8
0
10
655.088235
20
864.647059
0
VERTEX
8
0
10
653.911765
20
864.352941
0
VERTEX
8
0
10
640.100000
20
860.800000
0
VERTEX
8
0
10
636.900000
20
859.200000
0
VERTEX
8
0
10
611.153846
20
846.769231
0
VERTEX
8
0
10
606.180000
20
843.760000
0
VERTEX
8
0
10
577.000000
20
821.000000
0
VERTEX
8
0
10
559.000000
20
803.000000
0
VERTEX
8
0
10
555.752941
20
798.211765
0
VERTEX
8
0
10
550.247059
20
791.788235
0
VERTEX
8
0
10
539.230769
20
775.846154
0
VERTEX
8
0
10
534.800000
20
769.100000
0
VERTEX
8
0
10
519.517241
20
740.793103
0
VERTEX
8
0
10
518.647059
20
738.088235
0
VERTEX
8
0
10
505.769231
20
715.153846
0
VERTEX
8
0
10
496.000000
20
699.000000
0
VERTEX
8
0
10
485.800000
20
716.900000
0
VERTEX
8
0
10
460.240000
20
765.180000
0
VERTEX
8
0
10
445.240000
20
788.180000
0
VERTEX
8
0
10
433.000000
20
804.000000
0
VERTEX
8
0
10
416.000000
20
821.000000
0
VERTEX
8
0
10
404.220690
20
830.248276
0
VERTEX
8
0
10
395.779310
20
837.751724
0
VERTEX
8
0
10
381.846154
20
846.769231
0
VERTEX
8
0
10
373.100000
20
851.200000
0
VERTEX
8
0
10
350.911765
20
861.647059
0
VERTEX
8
0
10
331.088235
20
866.352941
0
VERTEX
8
0
10
308.060000
20
870.420000
0
VERTEX
8
0
10
297.000000
20
872.000000
0
VERTEX
8
0
10
270.959016
20
871.450820
0
VERTEX
8
0
10
250.040984
20
869.549180
0
VERTEX
8
0
10
236.900000
20
867.300000
0
VERTEX
8
0
10
227.053846
20
865.569231
0
VERTEX
8
0
10
200.088235
20
857.647059
0
VERTEX
8
0
10
194.911765
20
856.352941
0
VERTEX
8
0
10
161.100000
20
842.800000
0
VERTEX
8
0
10
154.846154
20
839.230769
0
VERTEX
8
0
10
142.204918
20
831.754098
0
VERTEX
8
0
10
136.795082
20
827.245902
0
VERTEX
8
0
10
123.000000
20
815.000000
0
VERTEX
8
0
10
122.769231
20
814.153846
0
VERTEX
8
0
10
110.756098
20
799.195122
0
VERTEX
8
0
10
106.754098
20
794.204918
0
VERTEX
8
0
10
91.200000
20
772.900000
0
VERTEX
8
0
10
89.800000
20
770.100000
0
VERTEX
8
0
10
71.405405
20
727.932432
0
VERTEX
8
0
10
68.700000
20
715.100000
0
VERTEX
8
0
10
65.445545
20
699.955446
0
VERTEX
8
0
10
64.554455
20
691.044554
0
VERTEX
8
0
10
63.000000
20
680.000000
0
VERTEX
8
0
10
63.000000
20
643.000000
0
VERTEX
8
0
10
75.647059
20
580.911765
0
VERTEX
8
0
10
82.352941
20
558.088235
0
VERTEX
8
0
10
98.300000
20
515.100000
0
VERTEX
8
0
10
104.800000
20
499.900000
0
VERTEX
8
0
10
115.230769
20
478.153846
0
VERTEX
8
0
10
117.800000
20
473.900000
0
VERTEX
8
0
10
130.230769
20
451.153846
0
VERTEX
8
0
10
133.769231
20
445.846154
0
VERTEX
8
0
10
153.752941
20
420.788235
0
VERTEX
8
0
10
159.245902
20
414.204918
0
VERTEX
8
0
10
169.000000
20
403.000000
0
VERTEX
8
0
10
170.000000
20
403.000000
0
VERTEX
8
0
10
181.000000
20
392.000000
0
VERTEX
8
0
10
181.000000
20
391.000000
0
VERTEX
8
0
10
209.776243
20
364.751381
0
VERTEX
8
0
10
249.228302
20
330.249057
0
VERTEX
8
0
10
298.180000
20
292.240000
0
VERTEX
8
0
10
325.153846
20
273.230769
0
VERTEX
8
0
10
350.900000
20
257.800000
0
VERTEX
8
0
10
369.100000
20
248.300000
0
VERTEX
8
0
10
406.100000
20
227.200000
0
VERTEX
8
0
10
416.100000
20
221.200000
0
VERTEX
8
0
10
462.783186
20
192.752212
0
VERTEX
8
0
10
472.100000
20
185.200000
0
VERTEX
8
0
10
473.000000
20
185.000000
0
VERTEX
8
0
10
487.248276
20
170.220690
0
VERTEX
8
0
10
497.000000
20
159.000000
0
SEQEND
0
POLYLINE
8
0
6
CONTINUOUS
66
1
62
7
10
0.0
20
0.0
30
0.000000
0
VERTEX
8
0
10
357.000000
20
157.000000
0
VERTEX
8
0
10
390.932432
20
162.405405
0
VERTEX
8
0
10
406.900000
20
169.300000
0
VERTEX
8
0
10
408.100000
20
169.800000
0
VERTEX
8
0
10
415.000000
20
173.000000
0
VERTEX
8
0
10
417.000000
20
175.000000
0
VERTEX
8
0
10
416.300000
20
178.100000
0
VERTEX
8
0
10
416.000000
20
180.000000
0
VERTEX
8
0
10
408.100000
20
184.200000
0
VERTEX
8
0
10
406.900000
20
184.800000
0
VERTEX
8
0
10
389.153846
20
197.230769
0
VERTEX
8
0
10
387.000000
20
199.000000
0
VERTEX
8
0
10
361.000000
20
194.000000
0
VERTEX
8
0
10
349.000000
20
194.000000
0
VERTEX
8
0
10
343.067568
20
195.405405
0
VERTEX
8
0
10
335.100000
20
199.200000
0
VERTEX
8
0
10
333.900000
20
199.800000
0
VERTEX
8
0
10
327.195122
20
203.243902
0
VERTEX
8
0
10
317.000000
20
212.000000
0
VERTEX
8
0
10
317.000000
20
213.000000
0
VERTEX
8
0
10
313.000000
20
216.000000
0
VERTEX
8
0
10
311.000000
20
214.000000
0
VERTEX
8
0
10
311.000000
20
201.000000
0
VERTEX
8
0
10
312.405405
20
195.067568
0
VERTEX
8
0
10
317.200000
20
184.100000
0
VERTEX
8
0
10
326.000000
20
169.000000
0
VERTEX
8
0
10
332.846154
20
163.769231
0
VERTEX
8
0
10
335.153846
20
162.230769
0
VERTEX
8
0
10
350.053846
20
157.430769
0
VERTEX
8
0
10
357.000000
20
157.000000
0
SEQEND
0
POLYLINE
8
0
6
CONTINUOUS
66
1
62
7
10
0.0
20
0.0
30
0.000000
0
VERTEX
8
0
10
643.000000
20
157.000000
0
VERTEX
8
0
10
646.911765
20
158.352941
0
VERTEX
8
0
10
660.153846
20
163.769231
0
VERTEX
8
0
10
665.000000
20
167.000000
0
VERTEX
8
0
10
667.230769
20
169.846154
0
VERTEX
8
0
10
668.769231
20
172.153846
0
VERTEX
8
0
10
676.800000
20
186.100000
0
VERTEX
8
0
10
677.200000
20
186.900000
0
VERTEX
8
0
10
680.580000
20
195.060000
0
VERTEX
8
0
10
681.420000
20
200.940000
0
VERTEX
8
0
10
682.000000
20
214.000000
0
VERTEX
8
0
10
680.000000
20
216.000000
0
VERTEX
8
0
10
676.000000
20
213.000000
0
VERTEX
8
0
10
676.000000
20
212.000000
0
VERTEX
8
0
10
670.195122
20
206.756098
0
VERTEX
8
0
10
665.804878
20
203.243902
0
VERTEX
8
0
10
657.900000
20
199.200000
0
VERTEX
8
0
10
655.100000
20
197.800000
0
VERTEX
8
0
10
649.932432
20
195.405405
0
VERTEX
8
0
10
645.067568
20
194.594595
0
VERTEX
8
0
10
644.000000
20
194.000000
0
VERTEX
8
0
10
632.000000
20
194.000000
0
VERTEX
8
0
10
626.067568
20
195.405405
0
VERTEX
8
0
10
619.932432
20
196.594595
0
VERTEX
8
0
10
606.000000
20
199.000000
0
VERTEX
8
0
10
598.804878
20
193.243902
0
VERTEX
8
0
10
584.900000
20
184.200000
0
VERTEX
8
0
10
582.100000
20
182.800000
0
VERTEX
8
0
10
577.000000
20
180.000000
0
VERTEX
8
0
10
576.000000
20
175.000000
0
VERTEX
8
0
10
578.900000
20
172.800000
0
VERTEX
8
0
10
589.900000
20
167.800000
0
VERTEX
8
0
10
602.067568
20
162.405405
0
VERTEX
8
0
10
606.932432
20
161.594595
0
VERTEX
8
0
10
636.053846
20
157.430769
0
VERTEX
8
0
10
643.000000
20
157.000000
0
SEQEND
0
POLYLINE
8
0
6
CONTINUOUS
66
1
62
7
10
0.0
20
0.0
30
0.000000
0
VERTEX
8
0
10
497.000000
20
124.000000
0
VERTEX
8
0
10
492.230769
20
130.153846
0
VERTEX
8
0
10
481.751724
20
144.779310
0
VERTEX
8
0
10
464.000000
20
164.000000
0
VERTEX
8
0
10
444.153846
20
179.230769
0
VERTEX
8
0
10
421.846154
20
193.769231
0
VERTEX
8
0
10
340.100000
20
240.200000
0
VERTEX
8
0
10
333.846154
20
243.769231
0
VERTEX
8
0
10
295.180000
20
268.240000
0
VERTEX
8
0
10
283.820000
20
276.760000
0
VERTEX
8
0
10
251.211765
20
302.247059
0
VERTEX
8
0
10
231.788235
20
318.752941
0
VERTEX
8
0
10
195.231507
20
350.249315
0
VERTEX
8
0
10
181.768493
20
362.750685
0
VERTEX
8
0
10
152.000000
20
391.000000
0
VERTEX
8
0
10
128.760000
20
418.820000
0
VERTEX
8
0
10
126.240000
20
422.180000
0
VERTEX
8
0
10
104.230769
20
454.153846
0
VERTEX
8
0
10
103.800000
20
454.900000
0
VERTEX
8
0
10
81.300000
20
503.100000
0
VERTEX
8
0
10
73.200000
20
523.100000
0
VERTEX
8
0
10
62.700000
20
551.900000
0
VERTEX
8
0
10
54.647059
20
579.911765
0
VERTEX
8
0
10
45.405405
20
625.067568
0
VERTEX
8
0
10
44.594595
20
629.932432
0
VERTEX
8
0
10
42.000000
20
649.000000
0
VERTEX
8
0
10
42.000000
20
682.000000
0
VERTEX
8
0
10
48.405405
20
719.932432
0
VERTEX
8
0
10
51.384615
20
732.923077
0
VERTEX
8
0
10
62.300000
20
758.900000
0
VERTEX
8
0
10
64.615385
20
764.076923
0
VERTEX
8
0
10
65.384615
20
767.923077
0
VERTEX
8
0
10
73.230769
20
782.846154
0
VERTEX
8
0
10
76.800000
20
789.100000
0
VERTEX
8
0
10
89.756098
20
806.195122
0
VERTEX
8
0
10
105.000000
20
826.000000
0
VERTEX
8
0
10
125.846154
20
845.230769
0
VERTEX
8
0
10
139.153846
20
853.769231
0
VERTEX
8
0
10
169.100000
20
868.800000
0
VERTEX
8
0
10
198.900000
20
879.300000
0
VERTEX
8
0
10
224.923077
20
885.384615
0
VERTEX
8
0
10
265.000000
20
892.000000
0
VERTEX
8
0
10
303.000000
20
892.000000
0
VERTEX
8
0
10
310.946154
20
890.569231
0
VERTEX
8
0
10
317.940000
20
889.580000
0
VERTEX
8
0
10
342.076923
20
885.384615
0
VERTEX
8
0
10
347.088235
20
884.352941
0
VERTEX
8
0
10
364.100000
20
878.200000
0
VERTEX
8
0
10
367.900000
20
876.700000
0
VERTEX
8
0
10
393.153846
20
863.230769
0
VERTEX
8
0
10
395.900000
20
861.800000
0
VERTEX
8
0
10
416.804878
20
846.756098
0
VERTEX
8
0
10
427.204918
20
838.245902
0
VERTEX
8
0
10
443.000000
20
824.000000
0
VERTEX
8
0
10
452.751131
20
812.773756
0
VERTEX
8
0
10
464.760000
20
796.820000
0
VERTEX
8
0
10
473.769231
20
783.846154
0
VERTEX
8
0
10
484.800000
20
762.900000
0
VERTEX
8
0
10
497.000000
20
738.000000
0
SEQEND
0
POLYLINE
8
0
6
CONTINUOUS
66
1
62
7
10
0.0
20
0.0
30
0.000000
0
VERTEX
8
0
10
497.000000
20
124.000000
0
VERTEX
8
0
10
500.769231
20
130.153846
0
VERTEX
8
0
10
511.248276
20
144.779310
0
VERTEX
8
0
10
518.751724
20
153.220690
0
VERTEX
8
0
10
529.783186
20
164.247788
0
VERTEX
8
0
10
537.216814
20
170.752212
0
VERTEX
8
0
10
566.153846
20
190.769231
0
VERTEX
8
0
10
588.153846
20
203.769231
0
VERTEX
8
0
10
634.100000
20
229.800000
0
VERTEX
8
0
10
640.100000
20
232.800000
0
VERTEX
8
0
10
693.100000
20
264.800000
0
VERTEX
8
0
10
705.180000
20
273.760000
0
VERTEX
8
0
10
741.788235
20
302.247059
0
VERTEX
8
0
10
767.204918
20
323.754098
0
VERTEX
8
0
10
797.768493
20
350.249315
0
VERTEX
8
0
10
823.228302
20
373.750943
0
VERTEX
8
0
10
840.000000
20
390.000000
0
VERTEX
8
0
10
853.750594
20
405.232779
0
VERTEX
8
0
10
863.756098
20
418.195122
0
VERTEX
8
0
10
866.760000
20
422.180000
0
VERTEX
8
0
10
888.769231
20
454.153846
0
VERTEX
8
0
10
889.200000
20
454.900000
0
VERTEX
8
0
10
911.700000
20
503.100000
0
VERTEX
8
0
10
919.800000
20
523.100000
0
VERTEX
8
0
10
929.647059
20
550.088235
0
VERTEX
8
0
10
937.647059
20
577.088235
0
VERTEX
8
0
10
947.594595
20
625.067568
0
VERTEX
8
0
10
948.405405
20
629.932432
0
VERTEX
8
0
10
951.000000
20
649.000000
0
VERTEX
8
0
10
951.000000
20
682.000000
0
VERTEX
8
0
10
944.594595
20
719.932432
0
VERTEX
8
0
10
941.615385
20
732.923077
0
VERTEX
8
0
10
930.700000
20
758.900000
0
VERTEX
8
0
10
927.647059
20
766.911765
0
VERTEX
8
0
10
920.800000
20
780.900000
0
VERTEX
8
0
10
917.200000
20
787.100000
0
VERTEX
8
0
10
907.240000
20
801.180000
0
VERTEX
8
0
10
888.000000
20
826.000000
0
VERTEX
8
0
10
878.000000
20
836.000000
0
VERTEX
8
0
10
864.846154
20
846.769231
0
VERTEX
8
0
10
848.846154
20
856.769231
0
VERTEX
8
0
10
831.900000
20
864.800000
0
VERTEX
8
0
10
827.900000
20
866.800000
0
VERTEX
8
0
10
801.900000
20
876.700000
0
VERTEX
8
0
10
797.100000
20
878.300000
0
VERTEX
8
0
10
776.923077
20
883.615385
0
VERTEX
8
0
10
768.076923
20
885.384615
0
VERTEX
8
0
10
743.946154
20
889.569231
0
VERTEX
8
0
10
729.053846
20
891.430769
0
VERTEX
8
0
10
728.000000
20
892.000000
0
VERTEX
8
0
10
690.000000
20
892.000000
0
VERTEX
8
0
10
647.076923
20
884.615385
0
VERTEX
8
0
10
632.100000
20
879.700000
0
VERTEX
8
0
10
626.900000
20
877.300000
0
VERTEX
8
0
10
602.900000
20
865.200000
0
VERTEX
8
0
10
597.900000
20
862.200000
0
VERTEX
8
0
10
584.820000
20
853.240000
0
VERTEX
8
0
10
559.000000
20
833.000000
0
VERTEX
8
0
10
549.000000
20
823.000000
0
VERTEX
8
0
10
535.240000
20
805.820000
0
VERTEX
8
0
10
519.240000
20
783.820000
0
VERTEX
8
0
10
512.200000
20
770.900000
0
VERTEX
8
0
10
509.800000
20
766.100000
0
VERTEX
8
0
10
500.300000
20
745.900000
0
VERTEX
8
0
10
497.000000
20
738.000000
0
SEQEND
0
POLYLINE
8
0
6
CONTINUOUS
66
1
62
7
10
0.0
20
0.0
30
0.000000
0
VERTEX
8
0
10
497.000000
20
123.000000
0
VERTEX
8
0
10
497.000000
20
124.000000
0
SEQEND
0
POLYLINE
8
0
6
CONTINUOUS
66
1
62
7
10
0.0
20
0.0
30
0.000000
0
VERTEX
8
0
10
306.000000
20
236.000000
0
VERTEX
8
0
10
304.900000
20
235.300000
0
VERTEX
8
0
10
301.000000
20
234.000000
0
VERTEX
8
0
10
294.000000
20
227.000000
0
VERTEX
8
0
10
292.200000
20
222.900000
0
VERTEX
8
0
10
291.800000
20
222.100000
0
VERTEX
8
0
10
290.000000
20
217.000000
0
VERTEX
8
0
10
290.000000
20
200.000000
0
VERTEX
8
0
10
292.300000
20
190.100000
0
VERTEX
8
0
10
293.647059
20
185.911765
0
VERTEX
8
0
10
297.800000
20
175.900000
0
VERTEX
8
0
10
298.800000
20
173.900000
0
VERTEX
8
0
10
303.247059
20
165.211765
0
VERTEX
8
0
10
310.769231
20
155.846154
0
VERTEX
8
0
10
311.000000
20
155.000000
0
VERTEX
8
0
10
320.846154
20
147.769231
0
VERTEX
8
0
10
326.153846
20
144.230769
0
VERTEX
8
0
10
334.100000
20
140.200000
0
VERTEX
8
0
10
337.900000
20
138.700000
0
VERTEX
8
0
10
347.000000
20
136.000000
0
VERTEX
8
0
10
370.067568
20
137.594595
0
VERTEX
8
0
10
400.911765
20
143.352941
0
VERTEX
8
0
10
404.100000
20
144.700000
0
VERTEX
8
0
10
431.000000
20
158.000000
0
VERTEX
8
0
10
434.000000
20
162.000000
0
VERTEX
8
0
10
436.153846
20
160.230769
0
VERTEX
8
0
10
445.000000
20
154.000000
0
VERTEX
8
0
10
453.000000
20
146.000000
0
VERTEX
8
0
10
470.752941
20
124.788235
0
VERTEX
8
0
10
471.240000
20
124.180000
0
VERTEX
8
0
10
490.230769
20
96.153846
0
VERTEX
8
0
10
497.000000
20
86.000000
0
VERTEX
8
0
10
509.230769
20
105.846154
0
VERTEX
8
0
10
517.769231
20
119.153846
0
VERTEX
8
0
10
539.000000
20
145.000000
0
VERTEX
8
0
10
548.795082
20
154.245902
0
VERTEX
8
0
10
559.000000
20
162.000000
0
VERTEX
8
0
10
562.000000
20
158.000000
0
VERTEX
8
0
10
579.100000
20
149.200000
0
VERTEX
8
0
10
588.900000
20
144.700000
0
VERTEX
8
0
10
604.044554
20
140.445545
0
VERTEX
8
0
10
612.955446
20
139.554455
0
VERTEX
8
0
10
636.000000
20
136.000000
0
VERTEX
8
0
10
646.000000
20
136.000000
0
VERTEX
8
0
10
658.900000
20
140.200000
0
VERTEX
8
0
10
661.900000
20
141.300000
0
VERTEX
8
0
10
675.804878
20
150.243902
0
VERTEX
8
0
10
681.000000
20
154.000000
0
VERTEX
8
0
10
682.230769
20
155.846154
0
VERTEX
8
0
10
689.520000
20
165.360000
0
VERTEX
8
0
10
694.800000
20
175.100000
0
VERTEX
8
0
10
696.200000
20
177.900000
0
VERTEX
8
0
10
700.647059
20
190.088235
0
VERTEX
8
0
10
701.352941
20
192.911765
0
VERTEX
8
0
10
703.000000
20
201.000000
0
VERTEX
8
0
10
703.000000
20
216.000000
0
VERTEX
8
0
10
700.700000
20
222.900000
0
VERTEX
8
0
10
700.200000
20
224.100000
0
VERTEX
8
0
10
699.000000
20
227.000000
0
VERTEX
8
0
10
692.000000
20
234.000000
0
VERTEX
8
0
10
687.000000
20
236.000000
0
VERTEX
8
0
10
705.100000
20
247.800000
0
VERTEX
8
0
10
756.195122
20
286.756098
0
VERTEX
8
0
10
767.211765
20
295.752941
0
VERTEX
8
0
10
811.761106
20
334.249753
0
VERTEX
8
0
10
853.000000
20
373.000000
0
VERTEX
8
0
10
880.230769
20
404.846154
0
VERTEX
8
0
10
886.754098
20
413.204918
0
VERTEX
8
0
10
901.769231
20
436.153846
0
VERTEX
8
0
10
904.200000
20
439.900000
0
VERTEX
8
0
10
923.200000
20
477.900000
0
VERTEX
8
0
10
927.200000
20
486.900000
0
VERTEX
8
0
10
946.300000
20
532.900000
0
VERTEX
8
0
10
949.700000
20
543.100000
0
VERTEX
8
0
10
964.580000
20
602.060000
0
VERTEX
8
0
10
972.000000
20
645.000000
0
VERTEX
8
0
10
971.455172
20
678.037931
0
VERTEX
8
0
10
968.549180
20
705.959016
0
VERTEX
8
0
10
966.700000
20
713.900000
0
VERTEX
8
0
10
964.594595
20
723.932432
0
VERTEX
8
0
10
961.200000
20
740.100000
0
VERTEX
8
0
10
960.800000
20
740.900000
0
VERTEX
8
0
10
946.647059
20
775.911765
0
VERTEX
8
0
10
939.769231
20
789.846154
0
VERTEX
8
0
10
932.200000
20
802.100000
0
VERTEX
8
0
10
912.243902
20
828.195122
0
VERTEX
8
0
10
896.000000
20
848.000000
0
VERTEX
8
0
10
877.153846
20
863.230769
0
VERTEX
8
0
10
862.153846
20
873.230769
0
VERTEX
8
0
10
849.100000
20
880.300000
0
VERTEX
8
0
10
839.900000
20
884.800000
0
VERTEX
8
0
10
804.911765
20
897.647059
0
VERTEX
8
0
10
800.100000
20
899.200000
0
VERTEX
8
0
10
757.951220
20
909.560976
0
VERTEX
8
0
10
741.048780
20
911.439024
0
VERTEX
8
0
10
732.000000
20
913.000000
0
VERTEX
8
0
10
689.000000
20
913.000000
0
VERTEX
8
0
10
665.053846
20
909.569231
0
VERTEX
8
0
10
635.088235
20
902.647059
0
VERTEX
8
0
10
625.100000
20
899.700000
0
VERTEX
8
0
10
587.100000
20
880.800000
0
VERTEX
8
0
10
585.100000
20
879.800000
0
VERTEX
8
0
10
549.000000
20
852.000000
0
VERTEX
8
0
10
528.000000
20
831.000000
0
VERTEX
8
0
10
501.800000
20
795.100000
0
VERTEX
8
0
10
501.200000
20
793.900000
0
VERTEX
8
0
10
497.000000
20
787.000000
0
VERTEX
8
0
10
496.000000
20
787.000000
0
VERTEX
8
0
10
492.769231
20
791.846154
0
VERTEX
8
0
10
486.230769
20
802.153846
0
VERTEX
8
0
10
465.000000
20
831.000000
0
VERTEX
8
0
10
444.000000
20
852.000000
0
VERTEX
8
0
10
409.846154
20
878.769231
0
VERTEX
8
0
10
409.100000
20
879.200000
0
VERTEX
8
0
10
367.900000
20
899.700000
0
VERTEX
8
0
10
366.100000
20
900.300000
0
VERTEX
8
0
10
333.088235
20
908.352941
0
VERTEX
8
0
10
315.962069
20
911.544828
0
VERTEX
8
0
10
305.037931
20
912.455172
0
VERTEX
8
0
10
261.000000
20
913.000000
0
VERTEX
8
0
10
244.048780
20
910.560976
0
VERTEX
8
0
10
235.048780
20
909.560976
0
VERTEX
8
0
10
218.088235
20
905.647059
0
VERTEX
8
0
10
201.088235
20
901.647059
0
VERTEX
8
0
10
168.100000
20
890.700000
0
VERTEX
8
0
10
166.900000
20
890.200000
0
VERTEX
8
0
10
140.153846
20
878.769231
0
VERTEX
8
0
10
137.846154
20
877.230769
0
VERTEX
8
0
10
112.195122
20
860.756098
0
VERTEX
8
0
10
97.000000
20
848.000000
0
VERTEX
8
0
10
64.760000
20
808.180000
0
VERTEX
8
0
10
60.230769
20
801.846154
0
VERTEX
8
0
10
47.230769
20
778.846154
0
VERTEX
8
0
10
45.615385
20
773.076923
0
VERTEX
8
0
10
36.800000
20
752.100000
0
VERTEX
8
0
10
35.700000
20
749.100000
0
VERTEX
8
0
10
30.430769
20
736.946154
0
VERTEX
8
0
10
29.569231
20
730.053846
0
VERTEX
8
0
10
25.700000
20
712.100000
0
VERTEX
8
0
10
24.450820
20
706.959016
0
VERTEX
8
0
10
22.594595
20
691.067568
0
VERTEX
8
0
10
21.000000
20
678.000000
0
VERTEX
8
0
10
21.000000
20
644.000000
0
VERTEX
8
0
10
22.445545
20
634.044554
0
VERTEX
8
0
10
22.615385
20
632.923077
0
VERTEX
8
0
10
33.647059
20
579.911765
0
VERTEX
8
0
10
34.352941
20
577.088235
0
VERTEX
8
0
10
44.300000
20
540.100000
0
VERTEX
8
0
10
62.800000
20
492.900000
0
VERTEX
8
0
10
68.800000
20
479.900000
0
VERTEX
8
0
10
88.230769
20
440.153846
0
VERTEX
8
0
10
99.800000
20
421.900000
0
VERTEX
8
0
10
115.248276
20
401.220690
0
VERTEX
8
0
10
122.751724
20
392.779310
0
VERTEX
8
0
10
140.000000
20
373.000000
0
VERTEX
8
0
10
152.000000
20
361.000000
0
VERTEX
8
0
10
203.204918
20
315.245902
0
VERTEX
8
0
10
225.216814
20
296.247788
0
VERTEX
8
0
10
268.846154
20
261.769231
0
VERTEX
8
0
10
275.180000
20
257.240000
0
VERTEX
8
0
10
302.900000
20
237.800000
0
VERTEX
8
0
10
306.000000
20
236.000000
0
SEQEND
0
ENDSEC
0
EOF
