999
"DXF R12 Output" (www.mydxf.blogspot.com)
 0 
SECTION
 2 
HEADER
 9 
$ACADVER
 1 
AC1009
 9 
$EXTMIN
 10 
 0 
 20 
 0 
 9 
$EXTMAX
 10 
 8.5 
 20 
 11 
 0 
ENDSEC
 0 
SECTION
 2 
ENTITIES
0
LINE
8
Layer 1
10
281.947397
20
88.486307
11
281.288875
21
88.277858
0
LINE
8
Layer 1
10
281.288875
20
88.277858
11
280.307206
21
87.757162
0
LINE
8
Layer 1
10
280.307206
20
87.757162
11
277.564147
21
85.866932
0
LINE
8
Layer 1
10
277.564147
20
85.866932
11
276.531288
21
84.976446
0
LINE
8
Layer 1
10
276.531288
20
84.976446
11
275.678608
21
84.014298
0
LINE
8
Layer 1
10
275.678608
20
84.014298
11
275.003610
21
82.977461
0
LINE
8
Layer 1
10
275.003610
20
82.977461
11
274.503800
21
81.862904
0
LINE
8
Layer 1
10
274.503800
20
81.862904
11
274.203939
21
81.016237
0
LINE
8
Layer 1
10
274.203939
20
81.016237
11
271.258244
21
80.980959
0
LINE
8
Layer 1
10
271.258244
20
80.980959
11
268.359335
21
80.785563
0
LINE
8
Layer 1
10
268.359335
20
80.785563
11
265.640258
21
79.878529
0
LINE
8
Layer 1
10
265.640258
20
79.878529
11
262.712203
21
78.582070
0
LINE
8
Layer 1
10
262.712203
20
78.582070
11
262.858433
21
78.367054
0
LINE
8
Layer 1
10
262.858433
20
78.367054
11
263.558869
21
78.176376
0
LINE
8
Layer 1
10
263.558869
20
78.176376
11
266.883726
21
77.537380
0
LINE
8
Layer 1
10
266.883726
20
77.537380
11
267.852738
21
77.225051
0
LINE
8
Layer 1
10
267.852738
20
77.225051
11
268.471300
21
76.888737
0
LINE
8
Layer 1
10
268.471300
20
76.888737
11
268.912969
21
76.481916
0
LINE
8
Layer 1
10
268.912969
20
76.481916
11
269.009286
21
76.227279
0
LINE
8
Layer 1
10
269.009286
20
76.227279
11
265.622619
21
75.786307
0
LINE
8
Layer 1
10
265.622619
20
75.786307
11
261.838272
21
75.296983
0
LINE
8
Layer 1
10
261.838272
20
75.296983
11
259.766508
21
74.772070
0
LINE
8
Layer 1
10
259.766508
20
74.772070
11
260.824842
21
72.911168
0
LINE
8
Layer 1
10
260.824842
20
72.911168
11
261.971369
21
70.768043
0
LINE
8
Layer 1
10
261.971369
20
70.768043
11
262.448611
21
70.037192
0
LINE
8
Layer 1
10
262.448611
20
70.037192
11
263.594147
21
68.766029
0
LINE
8
Layer 1
10
263.594147
20
68.766029
11
265.216925
21
67.107973
0
LINE
8
Layer 1
10
265.216925
20
67.107973
11
263.602967
21
64.911932
0
LINE
8
Layer 1
10
263.602967
20
64.911932
11
262.194130
21
63.194618
0
LINE
8
Layer 1
10
262.194130
20
63.194618
11
261.080606
21
62.160266
0
LINE
8
Layer 1
10
261.080606
20
62.160266
11
260.525856
21
61.740399
0
LINE
8
Layer 1
10
260.525856
20
61.740399
11
260.455674
21
61.571707
0
LINE
8
Layer 1
10
260.455674
20
61.571707
11
260.537061
21
61.418339
0
LINE
8
Layer 1
10
260.537061
20
61.418339
11
261.194865
21
61.121079
0
LINE
8
Layer 1
10
261.194865
20
61.121079
11
262.579911
21
60.775613
0
LINE
8
Layer 1
10
262.579911
20
60.775613
11
264.229147
21
60.255266
0
LINE
8
Layer 1
10
264.229147
20
60.255266
11
261.273817
21
58.450815
0
LINE
8
Layer 1
10
261.273817
20
58.450815
11
257.332342
21
56.357071
0
LINE
8
Layer 1
10
257.332342
20
56.357071
11
256.811183
21
56.187221
0
LINE
8
Layer 1
10
256.811183
20
56.187221
11
256.230884
21
56.156302
0
LINE
8
Layer 1
10
256.230884
20
56.156302
11
254.219078
21
56.559918
0
LINE
8
Layer 1
10
254.219078
20
56.559918
11
250.438565
21
57.377619
0
LINE
8
Layer 1
10
250.438565
20
57.377619
11
244.473592
21
58.288530
0
LINE
8
Layer 1
10
244.473592
20
58.288530
11
239.584183
21
58.720291
0
LINE
8
Layer 1
10
239.584183
20
58.720291
11
233.835503
21
58.861871
0
LINE
8
Layer 1
10
233.835503
20
58.861871
11
228.325868
21
58.714576
0
LINE
8
Layer 1
10
228.325868
20
58.714576
11
224.153592
21
58.279710
0
LINE
8
Layer 1
10
224.153592
20
58.279710
11
220.603791
21
57.523023
0
LINE
8
Layer 1
10
220.603791
20
57.523023
11
217.233077
21
56.586573
0
LINE
8
Layer 1
10
217.233077
20
56.586573
11
213.991075
21
55.449383
0
LINE
8
Layer 1
10
213.991075
20
55.449383
11
210.827411
21
54.090474
0
LINE
8
Layer 1
10
210.827411
20
54.090474
11
211.350226
21
55.356346
0
LINE
8
Layer 1
10
211.350226
20
55.356346
11
211.620974
21
57.028113
0
LINE
8
Layer 1
10
211.620974
20
57.028113
11
211.693378
21
59.422692
0
LINE
8
Layer 1
10
211.693378
20
59.422692
11
211.621161
21
62.857002
0
LINE
8
Layer 1
10
211.621161
20
62.857002
11
211.557271
21
67.746973
0
LINE
8
Layer 1
10
211.557271
20
67.746973
11
211.735814
21
70.300612
0
LINE
8
Layer 1
10
211.735814
20
70.300612
11
211.885744
21
71.808737
0
LINE
8
Layer 1
10
211.885744
20
71.808737
11
211.426945
21
71.667223
0
LINE
8
Layer 1
10
211.426945
20
71.667223
11
210.582401
21
70.884169
0
LINE
8
Layer 1
10
210.582401
20
70.884169
11
208.184508
21
67.985053
0
LINE
8
Layer 1
10
208.184508
20
67.985053
11
205.588917
21
64.294619
0
LINE
8
Layer 1
10
205.588917
20
64.294619
11
203.692481
21
60.996099
0
LINE
8
Layer 1
10
203.692481
20
60.996099
11
202.314923
21
57.563744
0
LINE
8
Layer 1
10
202.314923
20
57.563744
11
201.632466
21
54.758052
0
LINE
8
Layer 1
10
201.632466
20
54.758052
11
201.551828
21
53.591853
0
LINE
8
Layer 1
10
201.551828
20
53.591853
11
201.644877
21
52.584299
0
LINE
8
Layer 1
10
201.644877
20
52.584299
11
201.911586
21
51.736050
0
LINE
8
Layer 1
10
201.911586
20
51.736050
11
202.351925
21
51.047766
0
LINE
8
Layer 1
10
202.351925
20
51.047766
11
202.947535
21
50.503390
0
LINE
8
Layer 1
10
202.947535
20
50.503390
11
203.657203
21
50.059988
0
LINE
8
Layer 1
10
203.657203
20
50.059988
11
200.244078
21
47.714016
0
LINE
8
Layer 1
10
200.244078
20
47.714016
11
196.513453
21
45.006446
0
LINE
8
Layer 1
10
196.513453
20
45.006446
11
192.906300
21
44.715405
0
LINE
8
Layer 1
10
192.906300
20
44.715405
11
188.448343
21
44.180292
0
LINE
8
Layer 1
10
188.448343
20
44.180292
11
183.878779
21
43.306588
0
LINE
8
Layer 1
10
183.878779
20
43.306588
11
179.452941
21
42.151720
0
LINE
8
Layer 1
10
179.452941
20
42.151720
11
175.426161
21
40.773113
0
LINE
8
Layer 1
10
175.426161
20
40.773113
11
172.145328
21
39.644224
0
LINE
8
Layer 1
10
172.145328
20
39.644224
11
170.719776
21
40.071312
0
LINE
8
Layer 1
10
170.719776
20
40.071312
11
169.684703
21
40.658460
0
LINE
8
Layer 1
10
169.684703
20
40.658460
11
170.381439
21
41.725613
0
LINE
8
Layer 1
10
170.381439
20
41.725613
11
171.160505
21
42.910852
0
LINE
8
Layer 1
10
171.160505
20
42.910852
11
171.637650
21
44.135016
0
LINE
8
Layer 1
10
171.637650
20
44.135016
11
171.876950
21
45.642759
0
LINE
8
Layer 1
10
171.876950
20
45.642759
11
171.942481
21
47.678738
0
LINE
8
Layer 1
10
171.942481
20
47.678738
11
171.910653
21
49.499346
0
LINE
8
Layer 1
10
171.910653
20
49.499346
11
171.753980
21
50.403539
0
LINE
8
Layer 1
10
171.753980
20
50.403539
11
171.600142
21
50.571047
0
LINE
8
Layer 1
10
171.600142
20
50.571047
11
171.380671
21
50.580331
0
LINE
8
Layer 1
10
171.380671
20
50.580331
11
170.698939
21
50.218738
0
LINE
8
Layer 1
10
170.698939
20
50.218738
11
169.475336
21
49.729829
0
LINE
8
Layer 1
10
169.475336
20
49.729829
11
167.505525
21
49.153804
0
LINE
8
Layer 1
10
167.505525
20
49.153804
11
165.648550
21
48.717781
0
LINE
8
Layer 1
10
165.648550
20
48.717781
11
164.763453
21
48.648877
0
LINE
8
Layer 1
10
164.763453
20
48.648877
11
164.057897
21
50.994849
0
LINE
8
Layer 1
10
164.057897
20
50.994849
11
162.913645
21
54.440482
0
LINE
8
Layer 1
10
162.913645
20
54.440482
11
162.408523
21
55.580197
0
LINE
8
Layer 1
10
162.408523
20
55.580197
11
162.073522
21
56.013113
0
LINE
8
Layer 1
10
162.073522
20
56.013113
11
161.797703
21
55.524301
0
LINE
8
Layer 1
10
161.797703
20
55.524301
11
161.412064
21
54.346238
0
LINE
8
Layer 1
10
161.412064
20
54.346238
11
161.102249
21
53.402525
0
LINE
8
Layer 1
10
161.102249
20
53.402525
11
160.690373
21
52.654906
0
LINE
8
Layer 1
10
160.690373
20
52.654906
11
158.951439
21
50.889016
0
LINE
8
Layer 1
10
158.951439
20
50.889016
11
157.021920
21
49.198233
0
LINE
8
Layer 1
10
157.021920
20
49.198233
11
156.386406
21
48.753995
0
LINE
8
Layer 1
10
156.386406
20
48.753995
11
155.877730
21
48.564281
0
LINE
8
Layer 1
10
155.877730
20
48.564281
11
155.426396
21
48.619409
0
LINE
8
Layer 1
10
155.426396
20
48.619409
11
154.962911
21
48.909694
0
LINE
8
Layer 1
10
154.962911
20
48.909694
11
153.721508
21
50.157002
0
LINE
8
Layer 1
10
153.721508
20
50.157002
11
152.180817
21
51.964443
0
LINE
8
Layer 1
10
152.180817
20
51.964443
11
151.022758
21
53.631863
0
LINE
8
Layer 1
10
151.022758
20
53.631863
11
150.228615
21
54.859441
0
LINE
8
Layer 1
10
150.228615
20
54.859441
11
150.007828
21
54.914938
0
LINE
8
Layer 1
10
150.007828
20
54.914938
11
149.796856
21
54.690196
0
LINE
8
Layer 1
10
149.796856
20
54.690196
11
149.163200
21
53.449626
0
LINE
8
Layer 1
10
149.163200
20
53.449626
11
148.432818
21
51.612505
0
LINE
8
Layer 1
10
148.432818
20
51.612505
11
147.802372
21
49.717911
0
LINE
8
Layer 1
10
147.802372
20
49.717911
11
147.468522
21
48.304918
0
LINE
8
Layer 1
10
147.468522
20
48.304918
11
147.300953
21
46.946724
0
LINE
8
Layer 1
10
147.300953
20
46.946724
11
146.207342
21
47.131932
0
LINE
8
Layer 1
10
146.207342
20
47.131932
11
142.838766
21
47.884693
0
LINE
8
Layer 1
10
142.838766
20
47.884693
11
139.416369
21
48.878182
0
LINE
8
Layer 1
10
139.416369
20
48.878182
11
138.270284
21
49.198497
0
LINE
8
Layer 1
10
138.270284
20
49.198497
11
137.793592
21
49.186863
0
LINE
8
Layer 1
10
137.793592
20
49.186863
11
138.516379
21
47.598514
0
LINE
8
Layer 1
10
138.516379
20
47.598514
11
140.146563
21
44.659970
0
LINE
8
Layer 1
10
140.146563
20
44.659970
11
141.876876
21
41.771192
0
LINE
8
Layer 1
10
141.876876
20
41.771192
11
142.900050
21
40.332141
0
LINE
8
Layer 1
10
142.900050
20
40.332141
11
143.136185
21
40.064766
0
LINE
8
Layer 1
10
143.136185
20
40.064766
11
143.103342
21
39.751095
0
LINE
8
Layer 1
10
143.103342
20
39.751095
11
142.818922
21
39.425881
0
LINE
8
Layer 1
10
142.818922
20
39.425881
11
142.300328
21
39.123877
0
LINE
8
Layer 1
10
142.300328
20
39.123877
11
141.370292
21
38.909341
0
LINE
8
Layer 1
10
141.370292
20
38.909341
11
140.130744
21
39.362002
0
LINE
8
Layer 1
10
140.130744
20
39.362002
11
135.422352
21
41.252596
0
LINE
8
Layer 1
10
135.422352
20
41.252596
11
130.106721
21
42.829550
0
LINE
8
Layer 1
10
130.106721
20
42.829550
11
124.500410
21
44.013286
0
LINE
8
Layer 1
10
124.500410
20
44.013286
11
118.919981
21
44.724224
0
LINE
8
Layer 1
10
118.919981
20
44.724224
11
115.427481
21
45.015266
0
LINE
8
Layer 1
10
115.427481
20
45.015266
11
112.711092
21
47.052557
0
LINE
8
Layer 1
10
112.711092
20
47.052557
11
107.957411
21
50.333391
0
LINE
8
Layer 1
10
107.957411
20
50.333391
11
108.036786
21
50.359849
0
LINE
8
Layer 1
10
108.036786
20
50.359849
11
109.170968
21
50.859573
0
LINE
8
Layer 1
10
109.170968
20
50.859573
11
109.904844
21
51.614692
0
LINE
8
Layer 1
10
109.904844
20
51.614692
11
110.300004
21
52.727962
0
LINE
8
Layer 1
10
110.300004
20
52.727962
11
110.418036
21
54.302141
0
LINE
8
Layer 1
10
110.418036
20
54.302141
11
110.301916
21
55.782572
0
LINE
8
Layer 1
10
110.301916
20
55.782572
11
109.956836
21
57.385343
0
LINE
8
Layer 1
10
109.956836
20
57.385343
11
109.387715
21
59.100171
0
LINE
8
Layer 1
10
109.387715
20
59.100171
11
108.599471
21
60.916775
0
LINE
8
Layer 1
10
108.599471
20
60.916775
11
106.385295
21
64.814189
0
LINE
8
Layer 1
10
106.385295
20
64.814189
11
103.353661
21
68.995334
0
LINE
8
Layer 1
10
103.353661
20
68.995334
11
101.246525
21
71.391672
0
LINE
8
Layer 1
10
101.246525
20
71.391672
11
100.505248
21
72.060790
0
LINE
8
Layer 1
10
100.505248
20
72.060790
11
100.134564
21
72.214432
0
LINE
8
Layer 1
10
100.134564
20
72.214432
11
100.275675
21
70.962070
0
LINE
8
Layer 1
10
100.275675
20
70.962070
11
100.425390
21
68.436071
0
LINE
8
Layer 1
10
100.425390
20
68.436071
11
100.372689
21
63.633112
0
LINE
8
Layer 1
10
100.372689
20
63.633112
11
100.307915
21
58.261461
0
LINE
8
Layer 1
10
100.307915
20
58.261461
11
100.422251
21
56.898289
0
LINE
8
Layer 1
10
100.422251
20
56.898289
11
100.654911
21
55.872002
0
LINE
8
Layer 1
10
100.654911
20
55.872002
11
101.916092
21
53.737696
0
LINE
8
Layer 1
10
101.916092
20
53.737696
11
96.699170
21
55.973557
0
LINE
8
Layer 1
10
96.699170
20
55.973557
11
94.099431
21
56.844085
0
LINE
8
Layer 1
10
94.099431
20
56.844085
11
91.509147
21
57.547696
0
LINE
8
Layer 1
10
91.509147
20
57.547696
11
88.403979
21
58.217836
0
LINE
8
Layer 1
10
88.403979
20
58.217836
11
85.558723
21
58.619885
0
LINE
8
Layer 1
10
85.558723
20
58.619885
11
82.372568
21
58.812159
0
LINE
8
Layer 1
10
82.372568
20
58.812159
11
78.244703
21
58.852974
0
LINE
8
Layer 1
10
78.244703
20
58.852974
11
72.641732
21
58.691256
0
LINE
8
Layer 1
10
72.641732
20
58.691256
11
67.319957
21
58.246898
0
LINE
8
Layer 1
10
67.319957
20
58.246898
11
62.332047
21
57.525700
0
LINE
8
Layer 1
10
62.332047
20
57.525700
11
57.730675
21
56.533460
0
LINE
8
Layer 1
10
57.730675
20
56.533460
11
55.428800
21
55.942557
0
LINE
8
Layer 1
10
55.428800
20
55.942557
11
52.730050
21
57.388946
0
LINE
8
Layer 1
10
52.730050
20
57.388946
11
48.840675
21
59.576168
0
LINE
8
Layer 1
10
48.840675
20
59.576168
11
47.650050
21
60.325821
0
LINE
8
Layer 1
10
47.650050
20
60.325821
11
49.749078
21
60.872627
0
LINE
8
Layer 1
10
49.749078
20
60.872627
11
51.945119
21
61.516446
0
LINE
8
Layer 1
10
51.945119
20
61.516446
11
51.248383
21
62.036793
0
LINE
8
Layer 1
10
51.248383
20
62.036793
11
50.553275
21
62.491835
0
LINE
8
Layer 1
10
50.553275
20
62.491835
11
49.805211
21
63.188349
0
LINE
8
Layer 1
10
49.805211
20
63.188349
11
47.826439
21
65.652765
0
LINE
8
Layer 1
10
47.826439
20
65.652765
11
46.662272
21
67.249084
0
LINE
8
Layer 1
10
46.662272
20
67.249084
11
47.623592
21
67.910543
0
LINE
8
Layer 1
10
47.623592
20
67.910543
11
48.560863
21
68.790910
0
LINE
8
Layer 1
10
48.560863
20
68.790910
11
49.466856
21
69.983112
0
LINE
8
Layer 1
10
49.466856
20
69.983112
11
51.489873
21
73.376029
0
LINE
8
Layer 1
10
51.489873
20
73.376029
11
52.156786
21
74.851445
0
LINE
8
Layer 1
10
52.156786
20
74.851445
11
49.349349
21
75.374549
0
LINE
8
Layer 1
10
49.349349
20
75.374549
11
44.871925
21
75.927418
0
LINE
8
Layer 1
10
44.871925
20
75.927418
11
43.526519
21
76.113315
0
LINE
8
Layer 1
10
43.526519
20
76.113315
11
42.966925
21
76.324293
0
LINE
8
Layer 1
10
42.966925
20
76.324293
11
43.212083
21
76.703658
0
LINE
8
Layer 1
10
43.212083
20
76.703658
11
43.881589
21
77.098651
0
LINE
8
Layer 1
10
43.881589
20
77.098651
11
46.097828
21
77.753043
0
LINE
8
Layer 1
10
46.097828
20
77.753043
11
48.752481
21
78.299848
0
LINE
8
Layer 1
10
48.752481
20
78.299848
11
49.599147
21
78.511515
0
LINE
8
Layer 1
10
49.599147
20
78.511515
11
48.188036
21
79.146515
0
LINE
8
Layer 1
10
48.188036
20
79.146515
11
46.068734
21
80.041502
0
LINE
8
Layer 1
10
46.068734
20
80.041502
11
44.363603
21
80.580149
0
LINE
8
Layer 1
10
44.363603
20
80.580149
11
42.705376
21
80.851771
0
LINE
8
Layer 1
10
42.705376
20
80.851771
11
40.726786
21
80.945682
0
LINE
8
Layer 1
10
40.726786
20
80.945682
11
38.132476
21
81.079579
0
LINE
8
Layer 1
10
38.132476
20
81.079579
11
37.749622
21
81.306860
0
LINE
8
Layer 1
10
37.749622
20
81.306860
11
37.587064
21
81.739432
0
LINE
8
Layer 1
10
37.587064
20
81.739432
11
37.162242
21
82.718083
0
LINE
8
Layer 1
10
37.162242
20
82.718083
11
36.426331
21
83.860254
0
LINE
8
Layer 1
10
36.426331
20
83.860254
11
35.518929
21
84.973889
0
LINE
8
Layer 1
10
35.518929
20
84.973889
11
34.579633
21
85.866932
0
LINE
8
Layer 1
10
34.579633
20
85.866932
11
32.081222
21
87.545209
0
LINE
8
Layer 1
10
32.081222
20
87.545209
11
30.231647
21
88.468668
0
LINE
8
Layer 1
10
30.231647
20
88.468668
11
30.068417
21
88.079539
0
LINE
8
Layer 1
10
30.068417
20
88.079539
11
30.134633
21
86.969362
0
LINE
8
Layer 1
10
30.134633
20
86.969362
11
30.170102
21
85.486376
0
LINE
8
Layer 1
10
30.170102
20
85.486376
11
29.896508
21
84.041307
0
LINE
8
Layer 1
10
29.896508
20
84.041307
11
29.079229
21
81.879347
0
LINE
8
Layer 1
10
29.079229
20
81.879347
11
28.683852
21
81.135402
0
LINE
8
Layer 1
10
28.683852
20
81.135402
11
28.406022
21
80.848668
0
LINE
8
Layer 1
10
28.406022
20
80.848668
11
24.816508
21
82.506723
0
LINE
8
Layer 1
10
24.816508
20
82.506723
11
19.883677
21
84.752980
0
LINE
8
Layer 1
10
19.883677
20
84.752980
11
18.533660
21
85.242056
0
LINE
8
Layer 1
10
18.533660
20
85.242056
11
17.963800
21
85.293668
0
LINE
8
Layer 1
10
17.963800
20
85.293668
11
18.048300
21
84.729327
0
LINE
8
Layer 1
10
18.048300
20
84.729327
11
18.492966
21
83.617973
0
LINE
8
Layer 1
10
18.492966
20
83.617973
11
19.874406
21
79.964143
0
LINE
8
Layer 1
10
19.874406
20
79.964143
11
20.671369
21
77.056307
0
LINE
8
Layer 1
10
20.671369
20
77.056307
11
20.497615
21
76.737762
0
LINE
8
Layer 1
10
20.497615
20
76.737762
11
20.036369
21
76.615334
0
LINE
8
Layer 1
10
20.036369
20
76.615334
11
18.301969
21
76.232013
0
LINE
8
Layer 1
10
18.301969
20
76.232013
11
15.669177
21
75.361605
0
LINE
8
Layer 1
10
15.669177
20
75.361605
11
13.262064
21
74.410301
0
LINE
8
Layer 1
10
13.262064
20
74.410301
11
12.204703
21
73.784293
0
LINE
8
Layer 1
10
12.204703
20
73.784293
11
13.263036
21
73.246307
0
LINE
8
Layer 1
10
13.263036
20
73.246307
11
15.019041
21
72.350691
0
LINE
8
Layer 1
10
15.019041
20
72.350691
11
17.091507
21
70.972513
0
LINE
8
Layer 1
10
17.091507
20
70.972513
11
18.819598
21
69.591318
0
LINE
8
Layer 1
10
18.819598
20
69.591318
11
19.347992
21
69.049448
0
LINE
8
Layer 1
10
19.347992
20
69.049448
11
19.542480
21
68.686654
0
LINE
8
Layer 1
10
19.542480
20
68.686654
11
17.919703
21
66.596445
0
LINE
8
Layer 1
10
17.919703
20
66.596445
11
16.601265
21
65.208144
0
LINE
8
Layer 1
10
16.601265
20
65.208144
11
15.352641
21
64.203305
0
LINE
8
Layer 1
10
15.352641
20
64.203305
11
14.117548
21
63.543961
0
LINE
8
Layer 1
10
14.117548
20
63.543961
11
12.839703
21
63.192141
0
LINE
8
Layer 1
10
12.839703
20
63.192141
11
11.992595
21
62.990196
0
LINE
8
Layer 1
10
11.992595
20
62.990196
11
11.640258
21
62.777627
0
LINE
8
Layer 1
10
11.640258
20
62.777627
11
11.889400
21
62.545132
0
LINE
8
Layer 1
10
11.889400
20
62.545132
11
12.559344
21
62.226808
0
LINE
8
Layer 1
10
12.559344
20
62.226808
11
14.696757
21
61.476546
0
LINE
8
Layer 1
10
14.696757
20
61.476546
11
17.122725
21
60.814585
0
LINE
8
Layer 1
10
17.122725
20
60.814585
11
18.907480
21
60.528668
0
LINE
8
Layer 1
10
18.907480
20
60.528668
11
19.627774
21
60.418806
0
LINE
8
Layer 1
10
19.627774
20
60.418806
11
19.824703
21
60.017141
0
LINE
8
Layer 1
10
19.824703
20
60.017141
11
19.242354
21
57.312323
0
LINE
8
Layer 1
10
19.242354
20
57.312323
11
18.307758
21
54.751932
0
LINE
8
Layer 1
10
18.307758
20
54.751932
11
17.849147
21
53.799432
0
LINE
8
Layer 1
10
17.849147
20
53.799432
11
18.105819
21
53.679405
0
LINE
8
Layer 1
10
18.105819
20
53.679405
11
18.794682
21
53.624080
0
LINE
8
Layer 1
10
18.794682
20
53.624080
11
20.982055
21
53.678215
0
LINE
8
Layer 1
10
20.982055
20
53.678215
11
23.437419
21
53.903203
0
LINE
8
Layer 1
10
23.437419
20
53.903203
11
25.186925
21
54.240405
0
LINE
8
Layer 1
10
25.186925
20
54.240405
11
26.348360
21
54.749613
0
LINE
8
Layer 1
10
26.348360
20
54.749613
11
27.356510
21
55.351655
0
LINE
8
Layer 1
10
27.356510
20
55.351655
11
28.547133
21
56.013113
0
LINE
8
Layer 1
10
28.547133
20
56.013113
11
28.967817
21
55.663600
0
LINE
8
Layer 1
10
28.967817
20
55.663600
11
29.437948
21
54.817966
0
LINE
8
Layer 1
10
29.437948
20
54.817966
11
29.819860
21
53.780565
0
LINE
8
Layer 1
10
29.819860
20
53.780565
11
29.975883
21
52.855752
0
LINE
8
Layer 1
10
29.975883
20
52.855752
11
29.767225
21
51.837201
0
LINE
8
Layer 1
10
29.767225
20
51.837201
11
29.270328
21
50.694988
0
LINE
8
Layer 1
10
29.270328
20
50.694988
11
28.573592
21
49.345613
0
LINE
8
Layer 1
10
28.573592
20
49.345613
11
28.923157
21
49.289440
0
LINE
8
Layer 1
10
28.923157
20
49.289440
11
29.765206
21
49.447350
0
LINE
8
Layer 1
10
29.765206
20
49.447350
11
31.686856
21
50.104085
0
LINE
8
Layer 1
10
31.686856
20
50.104085
11
32.725868
21
50.813210
0
LINE
8
Layer 1
10
32.725868
20
50.813210
11
33.839152
21
51.873720
0
LINE
8
Layer 1
10
33.839152
20
51.873720
11
34.866272
21
53.114361
0
LINE
8
Layer 1
10
34.866272
20
53.114361
11
35.646786
21
54.363877
0
LINE
8
Layer 1
10
35.646786
20
54.363877
11
36.334703
21
55.669155
0
LINE
8
Layer 1
10
36.334703
20
55.669155
11
38.854163
21
55.033449
0
LINE
8
Layer 1
10
38.854163
20
55.033449
11
42.570050
21
53.825891
0
LINE
8
Layer 1
10
42.570050
20
53.825891
11
44.016439
21
53.279085
0
LINE
8
Layer 1
10
44.016439
20
53.279085
11
44.210467
21
56.542280
0
LINE
8
Layer 1
10
44.210467
20
56.542280
11
44.536786
21
59.937766
0
LINE
8
Layer 1
10
44.536786
20
59.937766
11
45.295258
21
59.487974
0
LINE
8
Layer 1
10
45.295258
20
59.487974
11
48.304470
21
57.370037
0
LINE
8
Layer 1
10
48.304470
20
57.370037
11
51.257203
21
55.563321
0
LINE
8
Layer 1
10
51.257203
20
55.563321
11
51.673980
21
55.281903
0
LINE
8
Layer 1
10
51.673980
20
55.281903
11
51.591205
21
54.954798
0
LINE
8
Layer 1
10
51.591205
20
54.954798
11
51.015109
21
54.587996
0
LINE
8
Layer 1
10
51.015109
20
54.587996
11
49.951925
21
54.187488
0
LINE
8
Layer 1
10
49.951925
20
54.187488
11
47.286924
21
53.122835
0
LINE
8
Layer 1
10
47.286924
20
53.122835
11
43.711312
21
51.417232
0
LINE
8
Layer 1
10
43.711312
20
51.417232
11
39.886978
21
49.403423
0
LINE
8
Layer 1
10
39.886978
20
49.403423
11
36.475814
21
47.414155
0
LINE
8
Layer 1
10
36.475814
20
47.414155
11
33.844907
21
45.649428
0
LINE
8
Layer 1
10
33.844907
20
45.649428
11
31.250136
21
43.702380
0
LINE
8
Layer 1
10
31.250136
20
43.702380
11
28.999401
21
41.816462
0
LINE
8
Layer 1
10
28.999401
20
41.816462
11
27.400607
21
40.235127
0
LINE
8
Layer 1
10
27.400607
20
40.235127
11
26.659773
21
39.370821
0
LINE
8
Layer 1
10
26.659773
20
39.370821
11
25.283939
21
39.785335
0
LINE
8
Layer 1
10
25.283939
20
39.785335
11
22.839648
21
40.184584
0
LINE
8
Layer 1
10
22.839648
20
40.184584
11
20.031217
21
40.101355
0
LINE
8
Layer 1
10
20.031217
20
40.101355
11
17.194494
21
39.571279
0
LINE
8
Layer 1
10
17.194494
20
39.571279
11
14.665328
21
38.629988
0
LINE
8
Layer 1
10
14.665328
20
38.629988
11
13.362625
21
37.826838
0
LINE
8
Layer 1
10
13.362625
20
37.826838
11
11.717721
21
36.568163
0
LINE
8
Layer 1
10
11.717721
20
36.568163
11
7.689147
21
32.923807
0
LINE
8
Layer 1
10
7.689147
20
32.923807
11
4.544031
21
30.287068
0
LINE
8
Layer 1
10
4.544031
20
30.287068
11
3.043976
21
29.280048
0
LINE
8
Layer 1
10
3.043976
20
29.280048
11
1.903591
21
28.708113
0
LINE
8
Layer 1
10
1.903591
20
28.708113
11
1.056925
21
28.425891
0
LINE
8
Layer 1
10
1.056925
20
28.425891
11
1.833036
21
28.223043
0
LINE
8
Layer 1
10
1.833036
20
28.223043
11
3.717087
21
28.217771
0
LINE
8
Layer 1
10
3.717087
20
28.217771
11
6.653756
21
28.714246
0
LINE
8
Layer 1
10
6.653756
20
28.714246
11
9.989058
21
29.571457
0
LINE
8
Layer 1
10
9.989058
20
29.571457
11
13.069008
21
30.648391
0
LINE
8
Layer 1
10
13.069008
20
30.648391
11
18.285984
21
33.143420
0
LINE
8
Layer 1
10
18.285984
20
33.143420
11
22.602828
21
35.596099
0
LINE
8
Layer 1
10
22.602828
20
35.596099
11
23.915875
21
36.443631
0
LINE
8
Layer 1
10
23.915875
20
36.443631
11
24.543105
21
36.716168
0
LINE
8
Layer 1
10
24.543105
20
36.716168
11
24.433758
21
36.343058
0
LINE
8
Layer 1
10
24.433758
20
36.343058
11
23.978661
21
35.640196
0
LINE
8
Layer 1
10
23.978661
20
35.640196
11
23.230352
21
34.518652
0
LINE
8
Layer 1
10
23.230352
20
34.518652
11
22.576455
21
33.237117
0
LINE
8
Layer 1
10
22.576455
20
33.237117
11
21.297550
21
29.625335
0
LINE
8
Layer 1
10
21.297550
20
29.625335
11
20.747435
21
27.512970
0
LINE
8
Layer 1
10
20.747435
20
27.512970
11
20.405634
21
25.498805
0
LINE
8
Layer 1
10
20.405634
20
25.498805
11
20.273667
21
23.568404
0
LINE
8
Layer 1
10
20.273667
20
23.568404
11
20.353051
21
21.707330
0
LINE
8
Layer 1
10
20.353051
20
21.707330
11
20.645307
21
19.901145
0
LINE
8
Layer 1
10
20.645307
20
19.901145
11
21.151954
21
18.135413
0
LINE
8
Layer 1
10
21.151954
20
18.135413
11
21.874510
21
16.395696
0
LINE
8
Layer 1
10
21.874510
20
16.395696
11
22.814494
21
14.667557
0
LINE
8
Layer 1
10
22.814494
20
14.667557
11
24.044052
21
12.853131
0
LINE
8
Layer 1
10
24.044052
20
12.853131
11
25.456478
21
11.149210
0
LINE
8
Layer 1
10
25.456478
20
11.149210
11
27.038720
21
9.565718
0
LINE
8
Layer 1
10
27.038720
20
9.565718
11
28.777722
21
8.112578
0
LINE
8
Layer 1
10
28.777722
20
8.112578
11
30.660431
21
6.799713
0
LINE
8
Layer 1
10
30.660431
20
6.799713
11
32.673793
21
5.637047
0
LINE
8
Layer 1
10
32.673793
20
5.637047
11
34.804753
21
4.634502
0
LINE
8
Layer 1
10
34.804753
20
4.634502
11
37.040258
21
3.802002
0
LINE
8
Layer 1
10
37.040258
20
3.802002
11
39.486733
21
3.373875
0
LINE
8
Layer 1
10
39.486733
20
3.373875
11
42.759768
21
3.232930
0
LINE
8
Layer 1
10
42.759768
20
3.232930
11
46.023934
21
3.378726
0
LINE
8
Layer 1
10
46.023934
20
3.378726
11
48.443800
21
3.810821
0
LINE
8
Layer 1
10
48.443800
20
3.810821
11
50.169238
21
4.494881
0
LINE
8
Layer 1
10
50.169238
20
4.494881
11
51.870665
21
5.374226
0
LINE
8
Layer 1
10
51.870665
20
5.374226
11
53.516600
21
6.422635
0
LINE
8
Layer 1
10
53.516600
20
6.422635
11
55.075562
21
7.613887
0
LINE
8
Layer 1
10
55.075562
20
7.613887
11
56.516070
21
8.921761
0
LINE
8
Layer 1
10
56.516070
20
8.921761
11
57.806643
21
10.320036
0
LINE
8
Layer 1
10
57.806643
20
10.320036
11
58.915802
21
11.782491
0
LINE
8
Layer 1
10
58.915802
20
11.782491
11
59.812064
21
13.282905
0
LINE
8
Layer 1
10
59.812064
20
13.282905
11
60.932529
21
15.787056
0
LINE
8
Layer 1
10
60.932529
20
15.787056
11
61.625712
21
18.131558
0
LINE
8
Layer 1
10
61.625712
20
18.131558
11
61.890698
21
20.320879
0
LINE
8
Layer 1
10
61.890698
20
20.320879
11
61.726567
21
22.359488
0
LINE
8
Layer 1
10
61.726567
20
22.359488
11
61.132403
21
24.251853
0
LINE
8
Layer 1
10
61.132403
20
24.251853
11
60.107288
21
26.002443
0
LINE
8
Layer 1
10
60.107288
20
26.002443
11
58.650305
21
27.615725
0
LINE
8
Layer 1
10
58.650305
20
27.615725
11
56.760536
21
29.096168
0
LINE
8
Layer 1
10
56.760536
20
29.096168
11
54.590943
21
30.401702
0
LINE
8
Layer 1
10
54.590943
20
30.401702
11
52.579589
21
31.212083
0
LINE
8
Layer 1
10
52.579589
20
31.212083
11
50.392112
21
31.625964
0
LINE
8
Layer 1
10
50.392112
20
31.625964
11
47.694147
21
31.742002
0
LINE
8
Layer 1
10
47.694147
20
31.742002
11
44.776575
21
31.638830
0
LINE
8
Layer 1
10
44.776575
20
31.638830
11
43.945555
21
31.469664
0
LINE
8
Layer 1
10
43.945555
20
31.469664
11
43.257967
21
31.186377
0
LINE
8
Layer 1
10
43.257967
20
31.186377
11
41.979147
21
30.339710
0
LINE
8
Layer 1
10
41.979147
20
30.339710
11
41.525082
21
30.135149
0
LINE
8
Layer 1
10
41.525082
20
30.135149
11
40.682689
21
30.048668
0
LINE
8
Layer 1
10
40.682689
20
30.048668
11
39.157846
21
29.761682
0
LINE
8
Layer 1
10
39.157846
20
29.761682
11
37.057897
21
29.069710
0
LINE
8
Layer 1
10
37.057897
20
29.069710
11
34.840994
21
28.258285
0
LINE
8
Layer 1
10
34.840994
20
28.258285
11
32.990024
21
27.745994
0
LINE
8
Layer 1
10
32.990024
20
27.745994
11
31.098217
21
27.443564
0
LINE
8
Layer 1
10
31.098217
20
27.443564
11
28.758800
21
27.261724
0
LINE
8
Layer 1
10
28.758800
20
27.261724
11
25.698454
21
27.085335
0
LINE
8
Layer 1
10
25.698454
20
27.085335
11
26.783246
21
25.991724
0
LINE
8
Layer 1
10
26.783246
20
25.991724
11
28.710078
21
24.369713
0
LINE
8
Layer 1
10
28.710078
20
24.369713
11
30.973730
21
23.034267
0
LINE
8
Layer 1
10
30.973730
20
23.034267
11
33.477088
21
22.033226
0
LINE
8
Layer 1
10
33.477088
20
22.033226
11
36.123036
21
21.414432
0
LINE
8
Layer 1
10
36.123036
20
21.414432
11
36.970144
21
21.221508
0
LINE
8
Layer 1
10
36.970144
20
21.221508
11
37.322481
21
21.017557
0
LINE
8
Layer 1
10
37.322481
20
21.017557
11
36.881508
21
19.571168
0
LINE
8
Layer 1
10
36.881508
20
19.571168
11
36.531107
21
17.941060
0
LINE
8
Layer 1
10
36.531107
20
17.941060
11
36.439301
21
15.909961
0
LINE
8
Layer 1
10
36.439301
20
15.909961
11
36.601671
21
13.711861
0
LINE
8
Layer 1
10
36.601671
20
13.711861
11
37.013800
21
11.580752
0
LINE
8
Layer 1
10
37.013800
20
11.580752
11
37.860467
21
9.076030
0
LINE
8
Layer 1
10
37.860467
20
9.076030
11
38.228436
21
9.015562
0
LINE
8
Layer 1
10
38.228436
20
9.015562
11
38.777689
21
9.278877
0
LINE
8
Layer 1
10
38.777689
20
9.278877
11
40.214284
21
10.503548
0
LINE
8
Layer 1
10
40.214284
20
10.503548
11
42.030331
21
12.319076
0
LINE
8
Layer 1
10
42.030331
20
12.319076
11
43.725977
21
14.199800
0
LINE
8
Layer 1
10
43.725977
20
14.199800
11
44.801369
21
15.620057
0
LINE
8
Layer 1
10
44.801369
20
15.620057
11
45.487388
21
16.638113
0
LINE
8
Layer 1
10
45.487388
20
16.638113
11
45.947897
21
17.066446
0
LINE
8
Layer 1
10
45.947897
20
17.066446
11
46.403249
21
16.811099
0
LINE
8
Layer 1
10
46.403249
20
16.811099
11
47.076786
21
16.193321
0
LINE
8
Layer 1
10
47.076786
20
16.193321
11
49.396300
21
14.332418
0
LINE
8
Layer 1
10
49.396300
20
14.332418
11
50.591409
21
13.454004
0
LINE
8
Layer 1
10
50.591409
20
13.454004
11
51.296362
21
12.665975
0
LINE
8
Layer 1
10
51.296362
20
12.665975
11
51.633367
21
11.774102
0
LINE
8
Layer 1
10
51.633367
20
11.774102
11
51.724633
21
10.584155
0
LINE
8
Layer 1
10
51.724633
20
10.584155
11
51.733453
21
9.023113
0
LINE
8
Layer 1
10
51.733453
20
9.023113
11
52.456647
21
9.869780
0
LINE
8
Layer 1
10
52.456647
20
9.869780
11
54.000050
21
12.409780
0
LINE
8
Layer 1
10
54.000050
20
12.409780
11
54.431995
21
13.480787
0
LINE
8
Layer 1
10
54.431995
20
13.480787
11
54.709329
21
14.590151
0
LINE
8
Layer 1
10
54.709329
20
14.590151
11
54.832848
21
15.730900
0
LINE
8
Layer 1
10
54.832848
20
15.730900
11
54.803347
21
16.896060
0
LINE
8
Layer 1
10
54.803347
20
16.896060
11
54.288459
21
19.271729
0
LINE
8
Layer 1
10
54.288459
20
19.271729
11
53.171022
21
21.661377
0
LINE
8
Layer 1
10
53.171022
20
21.661377
11
52.165424
21
23.043769
0
LINE
8
Layer 1
10
52.165424
20
23.043769
11
51.107272
21
23.927974
0
LINE
8
Layer 1
10
51.107272
20
23.927974
11
50.219901
21
24.582156
0
LINE
8
Layer 1
10
50.219901
20
24.582156
11
50.137740
21
24.917036
0
LINE
8
Layer 1
10
50.137740
20
24.917036
11
50.216508
21
25.392002
0
LINE
8
Layer 1
10
50.216508
20
25.392002
11
50.369500
21
26.659167
0
LINE
8
Layer 1
10
50.369500
20
26.659167
11
50.242967
21
28.214224
0
LINE
8
Layer 1
10
50.242967
20
28.214224
11
50.238134
21
28.512934
0
LINE
8
Layer 1
10
50.238134
20
28.512934
11
50.385026
21
28.672345
0
LINE
8
Layer 1
10
50.385026
20
28.672345
11
51.433592
21
28.690474
0
LINE
8
Layer 1
10
51.433592
20
28.690474
11
52.435941
21
28.520696
0
LINE
8
Layer 1
10
52.435941
20
28.520696
11
53.460900
21
28.167191
0
LINE
8
Layer 1
10
53.460900
20
28.167191
11
55.475964
21
26.986673
0
LINE
8
Layer 1
10
55.475964
20
26.986673
11
57.273418
21
25.304272
0
LINE
8
Layer 1
10
57.273418
20
25.304272
11
58.647897
21
23.275335
0
LINE
8
Layer 1
10
58.647897
20
23.275335
11
59.232668
21
21.630964
0
LINE
8
Layer 1
10
59.232668
20
21.630964
11
59.480823
21
19.765550
0
LINE
8
Layer 1
10
59.480823
20
19.765550
11
59.385275
21
17.855863
0
LINE
8
Layer 1
10
59.385275
20
17.855863
11
58.938939
21
16.078668
0
LINE
8
Layer 1
10
58.938939
20
16.078668
11
58.293072
21
14.632243
0
LINE
8
Layer 1
10
58.293072
20
14.632243
11
57.463357
21
13.200703
0
LINE
8
Layer 1
10
57.463357
20
13.200703
11
55.347845
21
10.485451
0
LINE
8
Layer 1
10
55.347845
20
10.485451
11
52.783331
21
8.139256
0
LINE
8
Layer 1
10
52.783331
20
8.139256
11
51.392364
21
7.169036
0
LINE
8
Layer 1
10
51.392364
20
7.169036
11
49.960744
21
6.368460
0
LINE
8
Layer 1
10
49.960744
20
6.368460
11
47.905380
21
5.516466
0
LINE
8
Layer 1
10
47.905380
20
5.516466
11
45.823937
21
4.961676
0
LINE
8
Layer 1
10
45.823937
20
4.961676
11
43.714238
21
4.704291
0
LINE
8
Layer 1
10
43.714238
20
4.704291
11
41.574111
21
4.744510
0
LINE
8
Layer 1
10
41.574111
20
4.744510
11
39.401379
21
5.082531
0
LINE
8
Layer 1
10
39.401379
20
5.082531
11
37.193869
21
5.718554
0
LINE
8
Layer 1
10
37.193869
20
5.718554
11
34.949406
21
6.652779
0
LINE
8
Layer 1
10
34.949406
20
6.652779
11
32.665814
21
7.885405
0
LINE
8
Layer 1
10
32.665814
20
7.885405
11
30.471627
21
9.360353
0
LINE
8
Layer 1
10
30.471627
20
9.360353
11
28.696565
21
10.925682
0
LINE
8
Layer 1
10
28.696565
20
10.925682
11
27.259096
21
12.666410
0
LINE
8
Layer 1
10
27.259096
20
12.666410
11
26.077690
21
14.667557
0
LINE
8
Layer 1
10
26.077690
20
14.667557
11
25.152439
21
16.769790
0
LINE
8
Layer 1
10
25.152439
20
16.769790
11
24.610459
21
18.743684
0
LINE
8
Layer 1
10
24.610459
20
18.743684
11
24.394196
21
20.902014
0
LINE
8
Layer 1
10
24.394196
20
20.902014
11
24.446091
21
23.557557
0
LINE
8
Layer 1
10
24.446091
20
23.557557
11
24.684871
21
26.100430
0
LINE
8
Layer 1
10
24.684871
20
26.100430
11
25.118593
21
28.483791
0
LINE
8
Layer 1
10
25.118593
20
28.483791
11
25.761197
21
30.737534
0
LINE
8
Layer 1
10
25.761197
20
30.737534
11
26.626620
21
32.891552
0
LINE
8
Layer 1
10
26.626620
20
32.891552
11
27.728799
21
34.975739
0
LINE
8
Layer 1
10
27.728799
20
34.975739
11
29.081674
21
37.019989
0
LINE
8
Layer 1
10
29.081674
20
37.019989
11
30.699181
21
39.054195
0
LINE
8
Layer 1
10
30.699181
20
39.054195
11
32.595258
21
41.108252
0
LINE
8
Layer 1
10
32.595258
20
41.108252
11
34.568208
21
42.984433
0
LINE
8
Layer 1
10
34.568208
20
42.984433
11
36.711414
21
44.782464
0
LINE
8
Layer 1
10
36.711414
20
44.782464
11
38.994613
21
46.483484
0
LINE
8
Layer 1
10
38.994613
20
46.483484
11
41.387539
21
48.068636
0
LINE
8
Layer 1
10
41.387539
20
48.068636
11
43.859928
21
49.519062
0
LINE
8
Layer 1
10
43.859928
20
49.519062
11
46.381516
21
50.815902
0
LINE
8
Layer 1
10
46.381516
20
50.815902
11
48.922038
21
51.940297
0
LINE
8
Layer 1
10
48.922038
20
51.940297
11
51.451231
21
52.873391
0
LINE
8
Layer 1
10
51.451231
20
52.873391
11
54.158800
21
53.772974
0
LINE
8
Layer 1
10
54.158800
20
53.772974
11
58.198106
21
51.735682
0
LINE
8
Layer 1
10
58.198106
20
51.735682
11
62.237411
21
49.698391
0
LINE
8
Layer 1
10
62.237411
20
49.698391
11
60.579356
21
49.230960
0
LINE
8
Layer 1
10
60.579356
20
49.230960
11
56.576769
21
47.807177
0
LINE
8
Layer 1
10
56.576769
20
47.807177
11
52.649766
21
45.852095
0
LINE
8
Layer 1
10
52.649766
20
45.852095
11
48.937089
21
43.445526
0
LINE
8
Layer 1
10
48.937089
20
43.445526
11
45.577481
21
40.667280
0
LINE
8
Layer 1
10
45.577481
20
40.667280
11
44.454160
21
39.537656
0
LINE
8
Layer 1
10
44.454160
20
39.537656
11
44.136142
21
38.936953
0
LINE
8
Layer 1
10
44.136142
20
38.936953
11
44.285746
21
38.808420
0
LINE
8
Layer 1
10
44.285746
20
38.808420
11
44.644626
21
38.780285
0
LINE
8
Layer 1
10
44.644626
20
38.780285
11
46.000814
21
38.982766
0
LINE
8
Layer 1
10
46.000814
20
38.982766
11
48.935700
21
39.256326
0
LINE
8
Layer 1
10
48.935700
20
39.256326
11
53.973592
21
39.317905
0
LINE
8
Layer 1
10
53.973592
20
39.317905
11
57.960197
21
39.323207
0
LINE
8
Layer 1
10
57.960197
20
39.323207
11
60.497740
21
39.456987
0
LINE
8
Layer 1
10
60.497740
20
39.456987
11
62.242653
21
39.792423
0
LINE
8
Layer 1
10
62.242653
20
39.792423
11
63.851369
21
40.402696
0
LINE
8
Layer 1
10
63.851369
20
40.402696
11
65.696483
21
41.457011
0
LINE
8
Layer 1
10
65.696483
20
41.457011
11
66.951790
21
42.744691
0
LINE
8
Layer 1
10
66.951790
20
42.744691
11
67.359930
21
43.478152
0
LINE
8
Layer 1
10
67.359930
20
43.478152
11
67.622616
21
44.272485
0
LINE
8
Layer 1
10
67.622616
20
44.272485
11
67.714286
21
46.047141
0
LINE
8
Layer 1
10
67.714286
20
46.047141
11
67.655264
21
47.044965
0
LINE
8
Layer 1
10
67.655264
20
47.044965
11
67.868607
21
47.484801
0
LINE
8
Layer 1
10
67.868607
20
47.484801
11
68.536160
21
47.448342
0
LINE
8
Layer 1
10
68.536160
20
47.448342
11
69.839772
21
47.017280
0
LINE
8
Layer 1
10
69.839772
20
47.017280
11
73.464490
21
45.886871
0
LINE
8
Layer 1
10
73.464490
20
45.886871
11
77.725697
21
44.779735
0
LINE
8
Layer 1
10
77.725697
20
44.779735
11
81.620226
21
43.935885
0
LINE
8
Layer 1
10
81.620226
20
43.935885
11
84.144911
21
43.595335
0
LINE
8
Layer 1
10
84.144911
20
43.595335
11
83.624564
21
43.163182
0
LINE
8
Layer 1
10
83.624564
20
43.163182
11
81.999157
21
41.889999
0
LINE
8
Layer 1
10
81.999157
20
41.889999
11
80.561878
21
40.504484
0
LINE
8
Layer 1
10
80.561878
20
40.504484
11
79.308773
21
39.001929
0
LINE
8
Layer 1
10
79.308773
20
39.001929
11
78.235883
21
37.377627
0
LINE
8
Layer 1
10
78.235883
20
37.377627
11
77.478787
21
35.956113
0
LINE
8
Layer 1
10
77.478787
20
35.956113
11
76.985094
21
34.627737
0
LINE
8
Layer 1
10
76.985094
20
34.627737
11
76.660390
21
33.064758
0
LINE
8
Layer 1
10
76.660390
20
33.064758
11
76.410258
21
30.939432
0
LINE
8
Layer 1
10
76.410258
20
30.939432
11
76.080841
21
28.545471
0
LINE
8
Layer 1
10
76.080841
20
28.545471
11
75.570668
21
26.722754
0
LINE
8
Layer 1
10
75.570668
20
26.722754
11
74.794579
21
25.248897
0
LINE
8
Layer 1
10
74.794579
20
25.248897
11
73.667411
21
23.901516
0
LINE
8
Layer 1
10
73.667411
20
23.901516
11
72.684708
21
22.787667
0
LINE
8
Layer 1
10
72.684708
20
22.787667
11
72.696897
21
22.604083
0
LINE
8
Layer 1
10
72.696897
20
22.604083
11
72.988314
21
22.560960
0
LINE
8
Layer 1
10
72.988314
20
22.560960
11
73.990872
21
22.767543
0
LINE
8
Layer 1
10
73.990872
20
22.767543
11
75.409406
21
23.302201
0
LINE
8
Layer 1
10
75.409406
20
23.302201
11
76.946925
21
24.037297
0
LINE
8
Layer 1
10
76.946925
20
24.037297
11
78.306439
21
24.845196
0
LINE
8
Layer 1
10
78.306439
20
24.845196
11
80.007812
21
26.129277
0
LINE
8
Layer 1
10
80.007812
20
26.129277
11
81.562235
21
27.546026
0
LINE
8
Layer 1
10
81.562235
20
27.546026
11
82.957933
21
29.078125
0
LINE
8
Layer 1
10
82.957933
20
29.078125
11
84.183134
21
30.708254
0
LINE
8
Layer 1
10
84.183134
20
30.708254
11
85.226067
21
32.419095
0
LINE
8
Layer 1
10
85.226067
20
32.419095
11
86.074957
21
34.193328
0
LINE
8
Layer 1
10
86.074957
20
34.193328
11
86.718033
21
36.013635
0
LINE
8
Layer 1
10
86.718033
20
36.013635
11
87.143522
21
37.862696
0
LINE
8
Layer 1
10
87.143522
20
37.862696
11
87.345839
21
40.305815
0
LINE
8
Layer 1
10
87.345839
20
40.305815
11
86.931856
21
43.136724
0
LINE
8
Layer 1
10
86.931856
20
43.136724
11
88.572272
21
42.907418
0
LINE
8
Layer 1
10
88.572272
20
42.907418
11
92.305178
21
42.713540
0
LINE
8
Layer 1
10
92.305178
20
42.713540
11
97.924915
21
42.625688
0
LINE
8
Layer 1
10
97.924915
20
42.625688
11
103.835884
21
42.652243
0
LINE
8
Layer 1
10
103.835884
20
42.652243
11
108.442481
21
42.801585
0
LINE
8
Layer 1
10
108.442481
20
42.801585
11
113.107967
21
42.916238
0
LINE
8
Layer 1
10
113.107967
20
42.916238
11
114.131157
21
42.349807
0
LINE
8
Layer 1
10
114.131157
20
42.349807
11
115.789078
21
41.187627
0
LINE
8
Layer 1
10
115.789078
20
41.187627
11
120.040084
21
38.776993
0
LINE
8
Layer 1
10
120.040084
20
38.776993
11
122.116040
21
37.487376
0
LINE
8
Layer 1
10
122.116040
20
37.487376
11
123.991161
21
36.010613
0
LINE
8
Layer 1
10
123.991161
20
36.010613
11
123.305653
21
35.986946
0
LINE
8
Layer 1
10
123.305653
20
35.986946
11
121.230675
21
36.425127
0
LINE
8
Layer 1
10
121.230675
20
36.425127
11
119.852148
21
36.464645
0
LINE
8
Layer 1
10
119.852148
20
36.464645
11
118.893177
21
36.381229
0
LINE
8
Layer 1
10
118.893177
20
36.381229
11
118.009344
21
36.105890
0
LINE
8
Layer 1
10
118.009344
20
36.105890
11
116.856231
21
35.569641
0
LINE
8
Layer 1
10
116.856231
20
35.569641
11
114.908822
21
34.474867
0
LINE
8
Layer 1
10
114.908822
20
34.474867
11
113.002133
21
33.206030
0
LINE
8
Layer 1
10
113.002133
20
33.206030
11
108.611772
21
30.124583
0
LINE
8
Layer 1
10
108.611772
20
30.124583
11
105.699633
21
28.531724
0
LINE
8
Layer 1
10
105.699633
20
28.531724
11
104.015119
21
27.623321
0
LINE
8
Layer 1
10
104.015119
20
27.623321
11
104.038605
21
27.464947
0
LINE
8
Layer 1
10
104.038605
20
27.464947
11
104.276647
21
27.326545
0
LINE
8
Layer 1
10
104.276647
20
27.326545
11
105.397358
21
27.109187
0
LINE
8
Layer 1
10
105.397358
20
27.109187
11
110.224008
21
26.908946
0
LINE
8
Layer 1
10
110.224008
20
26.908946
11
116.017070
21
27.125390
0
LINE
8
Layer 1
10
116.017070
20
27.125390
11
118.573090
21
27.421085
0
LINE
8
Layer 1
10
118.573090
20
27.421085
11
120.871040
21
27.835215
0
LINE
8
Layer 1
10
120.871040
20
27.835215
11
122.887625
21
28.362866
0
LINE
8
Layer 1
10
122.887625
20
28.362866
11
124.599550
21
28.999128
0
LINE
8
Layer 1
10
124.599550
20
28.999128
11
125.983517
21
29.739088
0
LINE
8
Layer 1
10
125.983517
20
29.739088
11
127.016231
21
30.577835
0
LINE
8
Layer 1
10
127.016231
20
30.577835
11
127.458334
21
31.350376
0
LINE
8
Layer 1
10
127.458334
20
31.350376
11
127.688853
21
32.057801
0
LINE
8
Layer 1
10
127.688853
20
32.057801
11
127.689455
21
33.250197
0
LINE
8
Layer 1
10
127.689455
20
33.250197
11
127.366674
21
34.100805
0
LINE
8
Layer 1
10
127.366674
20
34.100805
11
127.069147
21
34.555405
0
LINE
8
Layer 1
10
127.069147
20
34.555405
11
127.133339
21
34.565860
0
LINE
8
Layer 1
10
127.133339
20
34.565860
11
127.854078
21
34.114432
0
LINE
8
Layer 1
10
127.854078
20
34.114432
11
131.224533
21
32.818626
0
LINE
8
Layer 1
10
131.224533
20
32.818626
11
134.540571
21
31.832970
0
LINE
8
Layer 1
10
134.540571
20
31.832970
11
137.842703
21
31.145788
0
LINE
8
Layer 1
10
137.842703
20
31.145788
11
141.171439
21
30.745405
0
LINE
8
Layer 1
10
141.171439
20
30.745405
11
143.420397
21
30.445543
0
LINE
8
Layer 1
10
143.420397
20
30.445543
11
143.482133
21
29.254918
0
LINE
8
Layer 1
10
143.482133
20
29.254918
11
143.578085
21
27.961185
0
LINE
8
Layer 1
10
143.578085
20
27.961185
11
143.953110
21
26.254741
0
LINE
8
Layer 1
10
143.953110
20
26.254741
11
144.524800
21
24.445451
0
LINE
8
Layer 1
10
144.524800
20
24.445451
11
145.210744
21
22.843182
0
LINE
8
Layer 1
10
145.210744
20
22.843182
11
146.310498
21
20.966296
0
LINE
8
Layer 1
10
146.310498
20
20.966296
11
146.670445
21
20.545662
0
LINE
8
Layer 1
10
146.670445
20
20.545662
11
146.815883
21
20.594224
0
LINE
8
Layer 1
10
146.815883
20
20.594224
11
147.060444
21
22.662314
0
LINE
8
Layer 1
10
147.060444
20
22.662314
11
147.514841
21
24.521754
0
LINE
8
Layer 1
10
147.514841
20
24.521754
11
148.080575
21
25.863819
0
LINE
8
Layer 1
10
148.080575
20
25.863819
11
148.374413
21
26.244358
0
LINE
8
Layer 1
10
148.374413
20
26.244358
11
148.659147
21
26.379780
0
LINE
8
Layer 1
10
148.659147
20
26.379780
11
149.029247
21
25.427445
0
LINE
8
Layer 1
10
149.029247
20
25.427445
11
149.488175
21
23.072488
0
LINE
8
Layer 1
10
149.488175
20
23.072488
11
150.228422
21
19.214242
0
LINE
8
Layer 1
10
150.228422
20
19.214242
11
150.556778
21
18.425014
0
LINE
8
Layer 1
10
150.556778
20
18.425014
11
150.916925
21
18.195335
0
LINE
8
Layer 1
10
150.916925
20
18.195335
11
153.033592
21
19.183113
0
LINE
8
Layer 1
10
153.033592
20
19.183113
11
154.991508
21
20.170891
0
LINE
8
Layer 1
10
154.991508
20
20.170891
11
157.037619
21
21.846585
0
LINE
8
Layer 1
10
157.037619
20
21.846585
11
158.605715
21
23.146864
0
LINE
8
Layer 1
10
158.605715
20
23.146864
11
158.995879
21
23.279370
0
LINE
8
Layer 1
10
158.995879
20
23.279370
11
159.268939
21
23.151863
0
LINE
8
Layer 1
10
159.268939
20
23.151863
11
161.076925
21
22.014155
0
LINE
8
Layer 1
10
161.076925
20
22.014155
11
162.407339
21
21.149657
0
LINE
8
Layer 1
10
162.407339
20
21.149657
11
163.625744
21
20.144432
0
LINE
8
Layer 1
10
163.625744
20
20.144432
11
164.922203
21
19.042002
0
LINE
8
Layer 1
10
164.922203
20
19.042002
11
165.535954
21
21.336284
0
LINE
8
Layer 1
10
165.535954
20
21.336284
11
166.086369
21
24.686446
0
LINE
8
Layer 1
10
166.086369
20
24.686446
11
166.156925
21
25.674224
0
LINE
8
Layer 1
10
166.156925
20
25.674224
11
168.273592
21
26.009363
0
LINE
8
Layer 1
10
168.273592
20
26.009363
11
171.871925
21
26.362141
0
LINE
8
Layer 1
10
171.871925
20
26.362141
11
173.353592
21
26.494432
0
LINE
8
Layer 1
10
173.353592
20
26.494432
11
172.506925
21
28.399432
0
LINE
8
Layer 1
10
172.506925
20
28.399432
11
171.660258
21
30.472002
0
LINE
8
Layer 1
10
171.660258
20
30.472002
11
172.517983
21
30.811512
0
LINE
8
Layer 1
10
172.517983
20
30.811512
11
174.579494
21
31.230474
0
LINE
8
Layer 1
10
174.579494
20
31.230474
11
177.730542
21
31.949765
0
LINE
8
Layer 1
10
177.730542
20
31.949765
11
181.282272
21
33.091377
0
LINE
8
Layer 1
10
181.282272
20
33.091377
11
185.162828
21
34.396655
0
LINE
8
Layer 1
10
185.162828
20
34.396655
11
184.810050
21
33.673460
0
LINE
8
Layer 1
10
184.810050
20
33.673460
11
184.478613
21
32.958863
0
LINE
8
Layer 1
10
184.478613
20
32.958863
11
184.383042
21
32.143107
0
LINE
8
Layer 1
10
184.383042
20
32.143107
11
184.520819
21
31.289959
0
LINE
8
Layer 1
10
184.520819
20
31.289959
11
184.889425
21
30.463182
0
LINE
8
Layer 1
10
184.889425
20
30.463182
11
185.410591
21
29.837092
0
LINE
8
Layer 1
10
185.410591
20
29.837092
11
186.183611
21
29.244645
0
LINE
8
Layer 1
10
186.183611
20
29.244645
11
188.435868
21
28.179014
0
LINE
8
Layer 1
10
188.435868
20
28.179014
11
191.547508
21
27.302968
0
LINE
8
Layer 1
10
191.547508
20
27.302968
11
195.419842
21
26.653182
0
LINE
8
Layer 1
10
195.419842
20
26.653182
11
198.526610
21
26.470617
0
LINE
8
Layer 1
10
198.526610
20
26.470617
11
202.650941
21
26.443680
0
LINE
8
Layer 1
10
202.650941
20
26.443680
11
206.409687
21
26.556771
0
LINE
8
Layer 1
10
206.409687
20
26.556771
11
208.419703
21
26.794293
0
LINE
8
Layer 1
10
208.419703
20
26.794293
11
208.719536
21
27.016338
0
LINE
8
Layer 1
10
208.719536
20
27.016338
11
208.740253
21
27.249635
0
LINE
8
Layer 1
10
208.740253
20
27.249635
11
208.512501
21
27.433855
0
LINE
8
Layer 1
10
208.512501
20
27.433855
11
208.066925
21
27.508668
0
LINE
8
Layer 1
10
208.066925
20
27.508668
11
207.148537
21
27.797264
0
LINE
8
Layer 1
10
207.148537
20
27.797264
11
205.676856
21
28.487627
0
LINE
8
Layer 1
10
205.676856
20
28.487627
11
203.025199
21
30.067875
0
LINE
8
Layer 1
10
203.025199
20
30.067875
11
198.965258
21
32.985543
0
LINE
8
Layer 1
10
198.965258
20
32.985543
11
197.322800
21
34.040705
0
LINE
8
Layer 1
10
197.322800
20
34.040705
11
195.455119
21
35.031655
0
LINE
8
Layer 1
10
195.455119
20
35.031655
11
193.405561
21
35.808159
0
LINE
8
Layer 1
10
193.405561
20
35.808159
11
191.274703
21
35.975335
0
LINE
8
Layer 1
10
191.274703
20
35.975335
11
189.588122
21
35.887388
0
LINE
8
Layer 1
10
189.588122
20
35.887388
11
188.558314
21
35.675474
0
LINE
8
Layer 1
10
188.558314
20
35.675474
11
187.676369
21
35.481446
0
LINE
8
Layer 1
10
187.676369
20
35.481446
11
188.320137
21
36.075325
0
LINE
8
Layer 1
10
188.320137
20
36.075325
11
190.313383
21
37.351168
0
LINE
8
Layer 1
10
190.313383
20
37.351168
11
195.799078
21
41.002418
0
LINE
8
Layer 1
10
195.799078
20
41.002418
11
198.330258
21
42.889780
0
LINE
8
Layer 1
10
198.330258
20
42.889780
11
200.305814
21
42.889780
0
LINE
8
Layer 1
10
200.305814
20
42.889780
11
208.490258
21
42.660474
0
LINE
8
Layer 1
10
208.490258
20
42.660474
11
216.869114
21
42.652340
0
LINE
8
Layer 1
10
216.869114
20
42.652340
11
225.132550
21
43.110266
0
LINE
8
Layer 1
10
225.132550
20
43.110266
11
224.802087
21
42.122243
0
LINE
8
Layer 1
10
224.802087
20
42.122243
11
224.621022
21
41.099432
0
LINE
8
Layer 1
10
224.621022
20
41.099432
11
224.608633
21
38.938165
0
LINE
8
Layer 1
10
224.608633
20
38.938165
11
224.950203
21
36.738217
0
LINE
8
Layer 1
10
224.950203
20
36.738217
11
225.627854
21
34.535536
0
LINE
8
Layer 1
10
225.627854
20
34.535536
11
226.623710
21
32.366072
0
LINE
8
Layer 1
10
226.623710
20
32.366072
11
227.919894
21
30.265774
0
LINE
8
Layer 1
10
227.919894
20
30.265774
11
229.498529
21
28.270590
0
LINE
8
Layer 1
10
229.498529
20
28.270590
11
231.341739
21
26.416470
0
LINE
8
Layer 1
10
231.341739
20
26.416470
11
233.431647
21
24.739363
0
LINE
8
Layer 1
10
233.431647
20
24.739363
11
235.256551
21
23.650848
0
LINE
8
Layer 1
10
235.256551
20
23.650848
11
237.225817
21
22.769467
0
LINE
8
Layer 1
10
237.225817
20
22.769467
11
238.801714
21
22.299769
0
LINE
8
Layer 1
10
238.801714
20
22.299769
11
239.274107
21
22.283224
0
LINE
8
Layer 1
10
239.274107
20
22.283224
11
239.446508
21
22.446307
0
LINE
8
Layer 1
10
239.446508
20
22.446307
11
238.185328
21
23.742766
0
LINE
8
Layer 1
10
238.185328
20
23.742766
11
237.158980
21
24.919505
0
LINE
8
Layer 1
10
237.158980
20
24.919505
11
236.415450
21
26.334486
0
LINE
8
Layer 1
10
236.415450
20
26.334486
11
235.919654
21
28.076385
0
LINE
8
Layer 1
10
235.919654
20
28.076385
11
235.636508
21
30.233877
0
LINE
8
Layer 1
10
235.636508
20
30.233877
11
235.406028
21
32.219649
0
LINE
8
Layer 1
10
235.406028
20
32.219649
11
235.049695
21
33.988246
0
LINE
8
Layer 1
10
235.049695
20
33.988246
11
234.578870
21
35.498026
0
LINE
8
Layer 1
10
234.578870
20
35.498026
11
234.004911
21
36.707349
0
LINE
8
Layer 1
10
234.004911
20
36.707349
11
232.817614
21
38.456284
0
LINE
8
Layer 1
10
232.817614
20
38.456284
11
231.258373
21
40.396688
0
LINE
8
Layer 1
10
231.258373
20
40.396688
11
229.573096
21
42.205601
0
LINE
8
Layer 1
10
229.573096
20
42.205601
11
228.007689
21
43.560057
0
LINE
8
Layer 1
10
228.007689
20
43.560057
11
228.986647
21
43.718807
0
LINE
8
Layer 1
10
228.986647
20
43.718807
11
234.969147
21
44.965250
0
LINE
8
Layer 1
10
234.969147
20
44.965250
11
242.639147
21
47.105474
0
LINE
8
Layer 1
10
242.639147
20
47.105474
11
244.244286
21
47.546446
0
LINE
8
Layer 1
10
244.244286
20
47.546446
11
244.334836
21
47.111836
0
LINE
8
Layer 1
10
244.334836
20
47.111836
11
244.288383
21
46.064780
0
LINE
8
Layer 1
10
244.288383
20
46.064780
11
244.288947
21
45.024612
0
LINE
8
Layer 1
10
244.288947
20
45.024612
11
244.491351
21
44.047687
0
LINE
8
Layer 1
10
244.491351
20
44.047687
11
244.891453
21
43.138845
0
LINE
8
Layer 1
10
244.891453
20
43.138845
11
245.485105
21
42.302929
0
LINE
8
Layer 1
10
245.485105
20
42.302929
11
246.268165
21
41.544778
0
LINE
8
Layer 1
10
246.268165
20
41.544778
11
247.236488
21
40.869235
0
LINE
8
Layer 1
10
247.236488
20
40.869235
11
248.385928
21
40.281140
0
LINE
8
Layer 1
10
248.385928
20
40.281140
11
249.712342
21
39.785335
0
LINE
8
Layer 1
10
249.712342
20
39.785335
11
250.803277
21
39.510777
0
LINE
8
Layer 1
10
250.803277
20
39.510777
11
252.200747
21
39.358853
0
LINE
8
Layer 1
10
252.200747
20
39.358853
11
257.738036
21
39.309085
0
LINE
8
Layer 1
10
257.738036
20
39.309085
11
263.048915
21
39.252216
0
LINE
8
Layer 1
10
263.048915
20
39.252216
11
266.063592
21
38.965127
0
LINE
8
Layer 1
10
266.063592
20
38.965127
11
268.153800
21
38.682905
0
LINE
8
Layer 1
10
268.153800
20
38.682905
11
267.648088
21
39.353484
0
LINE
8
Layer 1
10
267.648088
20
39.353484
11
266.289410
21
40.749625
0
LINE
8
Layer 1
10
266.289410
20
40.749625
11
263.382481
21
43.383668
0
LINE
8
Layer 1
10
263.382481
20
43.383668
11
260.792990
21
45.053250
0
LINE
8
Layer 1
10
260.792990
20
45.053250
11
257.649935
21
46.731654
0
LINE
8
Layer 1
10
257.649935
20
46.731654
11
254.418639
21
48.189070
0
LINE
8
Layer 1
10
254.418639
20
48.189070
11
251.564425
21
49.195682
0
LINE
8
Layer 1
10
251.564425
20
49.195682
11
249.756439
21
49.698391
0
LINE
8
Layer 1
10
249.756439
20
49.698391
11
253.866300
21
51.762141
0
LINE
8
Layer 1
10
253.866300
20
51.762141
11
257.967342
21
53.817071
0
LINE
8
Layer 1
10
257.967342
20
53.817071
11
261.168800
21
52.617627
0
LINE
8
Layer 1
10
261.168800
20
52.617627
11
266.354071
21
50.411910
0
LINE
8
Layer 1
10
266.354071
20
50.411910
11
268.697711
21
49.195219
0
LINE
8
Layer 1
10
268.697711
20
49.195219
11
270.920326
21
47.874094
0
LINE
8
Layer 1
10
270.920326
20
47.874094
11
273.055646
21
46.427126
0
LINE
8
Layer 1
10
273.055646
20
46.427126
11
275.137398
21
44.832905
0
LINE
8
Layer 1
10
275.137398
20
44.832905
11
279.275119
21
41.117071
0
LINE
8
Layer 1
10
279.275119
20
41.117071
11
281.794428
21
38.444297
0
LINE
8
Layer 1
10
281.794428
20
38.444297
11
283.701074
21
35.908677
0
LINE
8
Layer 1
10
283.701074
20
35.908677
11
285.165242
21
33.247636
0
LINE
8
Layer 1
10
285.165242
20
33.247636
11
286.357116
21
30.198599
0
LINE
8
Layer 1
10
286.357116
20
30.198599
11
287.130954
21
27.392210
0
LINE
8
Layer 1
10
287.130954
20
27.392210
11
287.566754
21
24.644984
0
LINE
8
Layer 1
10
287.566754
20
24.644984
11
287.668811
21
21.983821
0
LINE
8
Layer 1
10
287.668811
20
21.983821
11
287.441418
21
19.435622
0
LINE
8
Layer 1
10
287.441418
20
19.435622
11
286.888869
21
17.027287
0
LINE
8
Layer 1
10
286.888869
20
17.027287
11
286.015459
21
14.785717
0
LINE
8
Layer 1
10
286.015459
20
14.785717
11
284.825480
21
12.737813
0
LINE
8
Layer 1
10
284.825480
20
12.737813
11
283.323228
21
10.910474
0
LINE
8
Layer 1
10
283.323228
20
10.910474
11
281.610501
21
9.440290
0
LINE
8
Layer 1
10
281.610501
20
9.440290
11
279.382520
21
7.939678
0
LINE
8
Layer 1
10
279.382520
20
7.939678
11
276.961929
21
6.605957
0
LINE
8
Layer 1
10
276.961929
20
6.605957
11
274.671369
21
5.636446
0
LINE
8
Layer 1
10
274.671369
20
5.636446
11
272.355132
21
5.013564
0
LINE
8
Layer 1
10
272.355132
20
5.013564
11
270.048574
21
4.718384
0
LINE
8
Layer 1
10
270.048574
20
4.718384
11
267.773162
21
4.745964
0
LINE
8
Layer 1
10
267.773162
20
4.745964
11
265.550360
21
5.091361
0
LINE
8
Layer 1
10
265.550360
20
5.091361
11
263.401635
21
5.749634
0
LINE
8
Layer 1
10
263.401635
20
5.749634
11
261.348450
21
6.715840
0
LINE
8
Layer 1
10
261.348450
20
6.715840
11
259.412271
21
7.985036
0
LINE
8
Layer 1
10
259.412271
20
7.985036
11
257.614564
21
9.552280
0
LINE
8
Layer 1
10
257.614564
20
9.552280
11
255.305068
21
12.135456
0
LINE
8
Layer 1
10
255.305068
20
12.135456
11
253.733950
21
14.589924
0
LINE
8
Layer 1
10
253.733950
20
14.589924
11
253.206077
21
15.807464
0
LINE
8
Layer 1
10
253.206077
20
15.807464
11
252.839753
21
17.039112
0
LINE
8
Layer 1
10
252.839753
20
17.039112
11
252.627295
21
18.300296
0
LINE
8
Layer 1
10
252.627295
20
18.300296
11
252.561022
21
19.606446
0
LINE
8
Layer 1
10
252.561022
20
19.606446
11
252.730375
21
21.665401
0
LINE
8
Layer 1
10
252.730375
20
21.665401
11
253.513522
21
23.504641
0
LINE
8
Layer 1
10
253.513522
20
23.504641
11
254.281002
21
24.722363
0
LINE
8
Layer 1
10
254.281002
20
24.722363
11
255.251681
21
25.858877
0
LINE
8
Layer 1
10
255.251681
20
25.858877
11
256.427048
21
26.914089
0
LINE
8
Layer 1
10
256.427048
20
26.914089
11
257.808592
21
27.887905
0
LINE
8
Layer 1
10
257.808592
20
27.887905
11
258.764523
21
28.304214
0
LINE
8
Layer 1
10
258.764523
20
28.304214
11
259.996017
21
28.633669
0
LINE
8
Layer 1
10
259.996017
20
28.633669
11
261.114962
21
28.795293
0
LINE
8
Layer 1
10
261.114962
20
28.795293
11
261.733244
21
28.708113
0
LINE
8
Layer 1
10
261.733244
20
28.708113
11
261.799499
21
28.251215
0
LINE
8
Layer 1
10
261.799499
20
28.251215
11
261.645050
21
27.464571
0
LINE
8
Layer 1
10
261.645050
20
27.464571
11
261.472666
21
26.464363
0
LINE
8
Layer 1
10
261.472666
20
26.464363
11
261.653869
21
25.515474
0
LINE
8
Layer 1
10
261.653869
20
25.515474
11
261.835288
21
24.735603
0
LINE
8
Layer 1
10
261.835288
20
24.735603
11
261.618592
21
24.377766
0
LINE
8
Layer 1
10
261.618592
20
24.377766
11
260.581263
21
23.680595
0
LINE
8
Layer 1
10
260.581263
20
23.680595
11
259.681515
21
22.877203
0
LINE
8
Layer 1
10
259.681515
20
22.877203
11
258.910253
21
21.957581
0
LINE
8
Layer 1
10
258.910253
20
21.957581
11
258.258383
21
20.911724
0
LINE
8
Layer 1
10
258.258383
20
20.911724
11
257.754867
21
19.899721
0
LINE
8
Layer 1
10
257.754867
20
19.899721
11
257.476175
21
19.038638
0
LINE
8
Layer 1
10
257.476175
20
19.038638
11
257.323522
21
16.502002
0
LINE
8
Layer 1
10
257.323522
20
16.502002
11
257.452857
21
13.970576
0
LINE
8
Layer 1
10
257.452857
20
13.970576
11
257.725370
21
13.124534
0
LINE
8
Layer 1
10
257.725370
20
13.124534
11
258.223106
21
12.127557
0
LINE
8
Layer 1
10
258.223106
20
12.127557
11
259.695953
21
9.728668
0
LINE
8
Layer 1
10
259.695953
20
9.728668
11
260.260397
21
9.023113
0
LINE
8
Layer 1
10
260.260397
20
9.023113
11
260.269217
21
10.787002
0
LINE
8
Layer 1
10
260.269217
20
10.787002
11
260.278036
21
12.550891
0
LINE
8
Layer 1
10
260.278036
20
12.550891
11
262.324147
21
14.067835
0
LINE
8
Layer 1
10
262.324147
20
14.067835
11
265.075814
21
16.316793
0
LINE
8
Layer 1
10
265.075814
20
16.316793
11
265.669061
21
16.842856
0
LINE
8
Layer 1
10
265.669061
20
16.842856
11
266.107689
21
17.066446
0
LINE
8
Layer 1
10
266.107689
20
17.066446
11
266.583111
21
16.630285
0
LINE
8
Layer 1
10
266.583111
20
16.630285
11
267.271856
21
15.575960
0
LINE
8
Layer 1
10
267.271856
20
15.575960
11
268.803234
21
13.486177
0
LINE
8
Layer 1
10
268.803234
20
13.486177
11
270.915427
21
11.237482
0
LINE
8
Layer 1
10
270.915427
20
11.237482
11
272.903577
21
9.513200
0
LINE
8
Layer 1
10
272.903577
20
9.513200
11
273.630869
21
9.061252
0
LINE
8
Layer 1
10
273.630869
20
9.061252
11
274.062828
21
8.996655
0
LINE
8
Layer 1
10
274.062828
20
8.996655
11
274.441092
21
9.715410
0
LINE
8
Layer 1
10
274.441092
20
9.715410
11
274.971231
21
11.210335
0
LINE
8
Layer 1
10
274.971231
20
11.210335
11
275.431888
21
13.387934
0
LINE
8
Layer 1
10
275.431888
20
13.387934
11
275.611003
21
15.793187
0
LINE
8
Layer 1
10
275.611003
20
15.793187
11
275.503304
21
18.032500
0
LINE
8
Layer 1
10
275.503304
20
18.032500
11
275.103522
21
19.712280
0
LINE
8
Layer 1
10
275.103522
20
19.712280
11
274.850832
21
20.486818
0
LINE
8
Layer 1
10
274.850832
20
20.486818
11
274.790622
21
21.108314
0
LINE
8
Layer 1
10
274.790622
20
21.108314
11
274.915527
21
21.466150
0
LINE
8
Layer 1
10
274.915527
20
21.466150
11
275.218175
21
21.449710
0
LINE
8
Layer 1
10
275.218175
20
21.449710
11
275.989175
21
21.447185
0
LINE
8
Layer 1
10
275.989175
20
21.447185
11
277.429958
21
21.745071
0
LINE
8
Layer 1
10
277.429958
20
21.745071
11
280.712675
21
22.834363
0
LINE
8
Layer 1
10
280.712675
20
22.834363
11
282.166371
21
23.620608
0
LINE
8
Layer 1
10
282.166371
20
23.620608
11
283.729981
21
24.678466
0
LINE
8
Layer 1
10
283.729981
20
24.678466
11
285.079194
21
25.768978
0
LINE
8
Layer 1
10
285.079194
20
25.768978
11
285.889700
21
26.653182
0
LINE
8
Layer 1
10
285.889700
20
26.653182
11
286.046060
21
26.979638
0
LINE
8
Layer 1
10
286.046060
20
26.979638
11
285.877631
21
27.150377
0
LINE
8
Layer 1
10
285.877631
20
27.150377
11
283.861228
21
27.226446
0
LINE
8
Layer 1
10
283.861228
20
27.226446
11
281.685055
21
27.332432
0
LINE
8
Layer 1
10
281.685055
20
27.332432
11
279.538433
21
27.661945
0
LINE
8
Layer 1
10
279.538433
20
27.661945
11
277.330708
21
28.232320
0
LINE
8
Layer 1
10
277.330708
20
28.232320
11
274.971231
21
29.060891
0
LINE
8
Layer 1
10
274.971231
20
29.060891
11
272.848222
21
29.759672
0
LINE
8
Layer 1
10
272.848222
20
29.759672
11
271.319981
21
30.048668
0
LINE
8
Layer 1
10
271.319981
20
30.048668
11
270.424541
21
30.171473
0
LINE
8
Layer 1
10
270.424541
20
30.171473
11
269.855953
21
30.489641
0
LINE
8
Layer 1
10
269.855953
20
30.489641
11
269.127688
21
31.077702
0
LINE
8
Layer 1
10
269.127688
20
31.077702
11
268.020248
21
31.464603
0
LINE
8
Layer 1
10
268.020248
20
31.464603
11
266.412934
21
31.677114
0
LINE
8
Layer 1
10
266.412934
20
31.677114
11
264.185050
21
31.742002
0
LINE
8
Layer 1
10
264.185050
20
31.742002
11
261.010198
21
31.606766
0
LINE
8
Layer 1
10
261.010198
20
31.606766
11
259.919695
21
31.349256
0
LINE
8
Layer 1
10
259.919695
20
31.349256
11
258.646439
21
30.886516
0
LINE
8
Layer 1
10
258.646439
20
30.886516
11
255.839051
21
29.500032
0
LINE
8
Layer 1
10
255.839051
20
29.500032
11
253.474954
21
27.752294
0
LINE
8
Layer 1
10
253.474954
20
27.752294
11
252.495447
21
26.775062
0
LINE
8
Layer 1
10
252.495447
20
26.775062
11
251.670332
21
25.746043
0
LINE
8
Layer 1
10
251.670332
20
25.746043
11
251.014132
21
24.678080
0
LINE
8
Layer 1
10
251.014132
20
24.678080
11
250.541369
21
23.584016
0
LINE
8
Layer 1
10
250.541369
20
23.584016
11
250.242318
21
22.246003
0
LINE
8
Layer 1
10
250.242318
20
22.246003
11
250.134261
21
20.663241
0
LINE
8
Layer 1
10
250.134261
20
20.663241
11
250.218734
21
19.017308
0
LINE
8
Layer 1
10
250.218734
20
19.017308
11
250.497272
21
17.489780
0
LINE
8
Layer 1
10
250.497272
20
17.489780
11
252.031856
21
13.679780
0
LINE
8
Layer 1
10
252.031856
20
13.679780
11
253.337639
21
11.480454
0
LINE
8
Layer 1
10
253.337639
20
11.480454
11
255.073339
21
9.376444
0
LINE
8
Layer 1
10
255.073339
20
9.376444
11
257.169044
21
7.441931
0
LINE
8
Layer 1
10
257.169044
20
7.441931
11
259.554842
21
5.751099
0
LINE
8
Layer 1
10
259.554842
20
5.751099
11
261.827421
21
4.500990
0
LINE
8
Layer 1
10
261.827421
20
4.500990
11
263.957347
21
3.732223
0
LINE
8
Layer 1
10
263.957347
20
3.732223
11
266.337825
21
3.344509
0
LINE
8
Layer 1
10
266.337825
20
3.344509
11
269.362064
21
3.237557
0
LINE
8
Layer 1
10
269.362064
20
3.237557
11
272.949210
21
3.370040
0
LINE
8
Layer 1
10
272.949210
20
3.370040
11
274.187092
21
3.617283
0
LINE
8
Layer 1
10
274.187092
20
3.617283
11
275.615050
21
4.057766
0
LINE
8
Layer 1
10
275.615050
20
4.057766
11
278.380815
21
5.155269
0
LINE
8
Layer 1
10
278.380815
20
5.155269
11
280.965972
21
6.529776
0
LINE
8
Layer 1
10
280.965972
20
6.529776
11
283.344473
21
8.156094
0
LINE
8
Layer 1
10
283.344473
20
8.156094
11
285.490269
21
10.009032
0
LINE
8
Layer 1
10
285.490269
20
10.009032
11
287.377313
21
12.063395
0
LINE
8
Layer 1
10
287.377313
20
12.063395
11
288.979557
21
14.293991
0
LINE
8
Layer 1
10
288.979557
20
14.293991
11
290.270952
21
16.675628
0
LINE
8
Layer 1
10
290.270952
20
16.675628
11
291.225450
21
19.183113
0
LINE
8
Layer 1
10
291.225450
20
19.183113
11
291.764798
21
21.513522
0
LINE
8
Layer 1
10
291.764798
20
21.513522
11
291.737006
21
24.122002
0
LINE
8
Layer 1
10
291.737006
20
24.122002
11
291.363823
21
26.822702
0
LINE
8
Layer 1
10
291.363823
20
26.822702
11
290.647445
21
29.733361
0
LINE
8
Layer 1
10
290.647445
20
29.733361
11
289.699735
21
32.475354
0
LINE
8
Layer 1
10
289.699735
20
32.475354
11
288.632561
21
34.670057
0
LINE
8
Layer 1
10
288.632561
20
34.670057
11
287.964354
21
35.882976
0
LINE
8
Layer 1
10
287.964354
20
35.882976
11
287.768228
21
36.469224
0
LINE
8
Layer 1
10
287.768228
20
36.469224
11
288.428183
21
36.190737
0
LINE
8
Layer 1
10
288.428183
20
36.190737
11
289.823172
21
35.331516
0
LINE
8
Layer 1
10
289.823172
20
35.331516
11
292.747175
21
33.604004
0
LINE
8
Layer 1
10
292.747175
20
33.604004
11
296.179265
21
31.893470
0
LINE
8
Layer 1
10
296.179265
20
31.893470
11
299.683274
21
30.400449
0
LINE
8
Layer 1
10
299.683274
20
30.400449
11
302.823033
21
29.325474
0
LINE
8
Layer 1
10
302.823033
20
29.325474
11
306.229519
21
28.520997
0
LINE
8
Layer 1
10
306.229519
20
28.520997
11
308.890811
21
28.081932
0
LINE
8
Layer 1
10
308.890811
20
28.081932
11
309.327127
21
28.233170
0
LINE
8
Layer 1
10
309.327127
20
28.233170
11
309.348808
21
28.632458
0
LINE
8
Layer 1
10
309.348808
20
28.632458
11
309.000380
21
29.153359
0
LINE
8
Layer 1
10
309.000380
20
29.153359
11
308.326367
21
29.669432
0
LINE
8
Layer 1
10
308.326367
20
29.669432
11
306.335822
21
31.227775
0
LINE
8
Layer 1
10
306.335822
20
31.227775
11
303.034700
21
34.123252
0
LINE
8
Layer 1
10
303.034700
20
34.123252
11
300.201572
21
36.602550
0
LINE
8
Layer 1
10
300.201572
20
36.602550
11
298.040774
21
38.208607
0
LINE
8
Layer 1
10
298.040774
20
38.208607
11
296.154439
21
39.196326
0
LINE
8
Layer 1
10
296.154439
20
39.196326
11
294.144700
21
39.820613
0
LINE
8
Layer 1
10
294.144700
20
39.820613
11
292.382058
21
40.098308
0
LINE
8
Layer 1
10
292.382058
20
40.098308
11
290.399311
21
40.187545
0
LINE
8
Layer 1
10
290.399311
20
40.187545
11
288.490092
21
40.088906
0
LINE
8
Layer 1
10
288.490092
20
40.088906
11
286.948033
21
39.802974
0
LINE
8
Layer 1
10
286.948033
20
39.802974
11
286.047354
21
39.570300
0
LINE
8
Layer 1
10
286.047354
20
39.570300
11
285.443545
21
39.568517
0
LINE
8
Layer 1
10
285.443545
20
39.568517
11
284.963599
21
39.842713
0
LINE
8
Layer 1
10
284.963599
20
39.842713
11
284.434506
21
40.437974
0
LINE
8
Layer 1
10
284.434506
20
40.437974
11
283.081715
21
41.778907
0
LINE
8
Layer 1
10
283.081715
20
41.778907
11
280.873336
21
43.598326
0
LINE
8
Layer 1
10
280.873336
20
43.598326
11
278.214219
21
45.579410
0
LINE
8
Layer 1
10
278.214219
20
45.579410
11
275.509217
21
47.405335
0
LINE
8
Layer 1
10
275.509217
20
47.405335
11
272.213588
21
49.331154
0
LINE
8
Layer 1
10
272.213588
20
49.331154
11
268.352879
21
51.356616
0
LINE
8
Layer 1
10
268.352879
20
51.356616
11
264.668238
21
53.110794
0
LINE
8
Layer 1
10
264.668238
20
53.110794
11
261.900814
21
54.222766
0
LINE
8
Layer 1
10
261.900814
20
54.222766
11
260.755572
21
54.694746
0
LINE
8
Layer 1
10
260.755572
20
54.694746
11
260.278036
21
55.095891
0
LINE
8
Layer 1
10
260.278036
20
55.095891
11
260.354427
21
55.345040
0
LINE
8
Layer 1
10
260.354427
20
55.345040
11
260.542619
21
55.448668
0
LINE
8
Layer 1
10
260.542619
20
55.448668
11
263.982203
21
57.565335
0
LINE
8
Layer 1
10
263.982203
20
57.565335
11
267.342411
21
59.682002
0
LINE
8
Layer 1
10
267.342411
20
59.682002
11
267.523158
21
59.204395
0
LINE
8
Layer 1
10
267.523158
20
59.204395
11
267.703716
21
58.009303
0
LINE
8
Layer 1
10
267.703716
20
58.009303
11
267.898036
21
54.893043
0
LINE
8
Layer 1
10
267.898036
20
54.893043
11
268.055136
21
53.488471
0
LINE
8
Layer 1
10
268.055136
20
53.488471
11
268.265769
21
53.307260
0
LINE
8
Layer 1
10
268.265769
20
53.307260
11
268.577133
21
53.446655
0
LINE
8
Layer 1
10
268.577133
20
53.446655
11
272.202114
21
54.719442
0
LINE
8
Layer 1
10
272.202114
20
54.719442
11
275.650328
21
55.677974
0
LINE
8
Layer 1
10
275.650328
20
55.677974
11
276.347064
21
54.363877
0
LINE
8
Layer 1
10
276.347064
20
54.363877
11
277.508225
21
52.558572
0
LINE
8
Layer 1
10
277.508225
20
52.558572
11
278.967751
21
51.076400
0
LINE
8
Layer 1
10
278.967751
20
51.076400
11
280.625058
21
49.998834
0
LINE
8
Layer 1
10
280.625058
20
49.998834
11
282.379561
21
49.407349
0
LINE
8
Layer 1
10
282.379561
20
49.407349
11
283.446728
21
49.213321
0
LINE
8
Layer 1
10
283.446728
20
49.213321
11
282.732339
21
50.562696
0
LINE
8
Layer 1
10
282.732339
20
50.562696
11
282.222079
21
51.754192
0
LINE
8
Layer 1
10
282.222079
20
51.754192
11
282.009147
21
52.714641
0
LINE
8
Layer 1
10
282.009147
20
52.714641
11
282.508069
21
54.560977
0
LINE
8
Layer 1
10
282.508069
20
54.560977
11
283.296783
21
56.251238
0
LINE
8
Layer 1
10
283.296783
20
56.251238
11
284.460950
21
55.510405
0
LINE
8
Layer 1
10
284.460950
20
55.510405
11
285.691947
21
54.719802
0
LINE
8
Layer 1
10
285.691947
20
54.719802
11
287.107965
21
54.178082
0
LINE
8
Layer 1
10
287.107965
20
54.178082
11
288.862941
21
53.841708
0
LINE
8
Layer 1
10
288.862941
20
53.841708
11
291.110811
21
53.667141
0
LINE
8
Layer 1
10
291.110811
20
53.667141
11
292.979796
21
53.620320
0
LINE
8
Layer 1
10
292.979796
20
53.620320
11
293.920813
21
53.734470
0
LINE
8
Layer 1
10
293.920813
20
53.734470
11
294.101654
21
53.875835
0
LINE
8
Layer 1
10
294.101654
20
53.875835
11
294.120489
21
54.086153
0
LINE
8
Layer 1
10
294.120489
20
54.086153
11
293.765450
21
54.751932
0
LINE
8
Layer 1
10
293.765450
20
54.751932
11
292.975884
21
56.744520
0
LINE
8
Layer 1
10
292.975884
20
56.744520
11
292.292617
21
59.470335
0
LINE
8
Layer 1
10
292.292617
20
59.470335
11
292.107394
21
60.528668
0
LINE
8
Layer 1
10
292.107394
20
60.528668
11
293.148117
21
60.528668
0
LINE
8
Layer 1
10
293.148117
20
60.528668
11
295.032772
21
60.817796
0
LINE
8
Layer 1
10
295.032772
20
60.817796
11
297.444160
21
61.489293
0
LINE
8
Layer 1
10
297.444160
20
61.489293
11
299.471415
21
62.249332
0
LINE
8
Layer 1
10
299.471415
20
62.249332
11
300.056348
21
62.570734
0
LINE
8
Layer 1
10
300.056348
20
62.570734
11
300.203672
21
62.804085
0
LINE
8
Layer 1
10
300.203672
20
62.804085
11
299.030672
21
63.200960
0
LINE
8
Layer 1
10
299.030672
20
63.200960
11
297.756514
21
63.565207
0
LINE
8
Layer 1
10
297.756514
20
63.565207
11
296.581572
21
64.190142
0
LINE
8
Layer 1
10
296.581572
20
64.190142
11
295.414097
21
65.136285
0
LINE
8
Layer 1
10
295.414097
20
65.136285
11
294.162339
21
66.464154
0
LINE
8
Layer 1
10
294.162339
20
66.464154
11
292.451367
21
68.669015
0
LINE
8
Layer 1
10
292.451367
20
68.669015
11
292.978868
21
69.425790
0
LINE
8
Layer 1
10
292.978868
20
69.425790
11
294.324733
21
70.568102
0
LINE
8
Layer 1
10
294.324733
20
70.568102
11
296.134006
21
71.825818
0
LINE
8
Layer 1
10
296.134006
20
71.825818
11
298.051728
21
72.928807
0
LINE
8
Layer 1
10
298.051728
20
72.928807
11
299.745061
21
73.925404
0
LINE
8
Layer 1
10
299.745061
20
73.925404
11
294.144700
21
76.174362
0
LINE
8
Layer 1
10
294.144700
20
76.174362
11
292.098589
21
76.615334
0
LINE
8
Layer 1
10
292.098589
20
76.615334
11
291.550460
21
76.686513
0
LINE
8
Layer 1
10
291.550460
20
76.686513
11
291.322478
21
76.853459
0
LINE
8
Layer 1
10
291.322478
20
76.853459
11
292.216505
21
80.023259
0
LINE
8
Layer 1
10
292.216505
20
80.023259
11
293.536172
21
83.723807
0
LINE
8
Layer 1
10
293.536172
20
83.723807
11
294.144700
21
85.337765
0
LINE
8
Layer 1
10
294.144700
20
85.337765
11
293.602353
21
85.311435
0
LINE
8
Layer 1
10
293.602353
20
85.311435
11
292.090634
21
84.752395
0
LINE
8
Layer 1
10
292.090634
20
84.752395
11
286.851005
21
82.321515
0
LINE
8
Layer 1
10
286.851005
20
82.321515
11
284.699751
21
81.295732
0
LINE
8
Layer 1
10
284.699751
20
81.295732
11
284.021194
21
81.083476
0
LINE
8
Layer 1
10
284.021194
20
81.083476
11
283.529250
21
81.096581
0
LINE
8
Layer 1
10
283.529250
20
81.096581
11
283.165342
21
81.353755
0
LINE
8
Layer 1
10
283.165342
20
81.353755
11
282.870897
21
81.873699
0
LINE
8
Layer 1
10
282.870897
20
81.873699
11
282.256089
21
83.776723
0
LINE
8
Layer 1
10
282.256089
20
83.776723
11
281.947480
21
85.035021
0
LINE
8
Layer 1
10
281.947480
20
85.035021
11
281.835252
21
86.122494
0
LINE
8
Layer 1
10
281.835252
20
86.122494
11
281.918006
21
87.110849
0
LINE
8
Layer 1
10
281.918006
20
87.110849
11
282.194341
21
88.071793
0
LINE
8
Layer 1
10
282.194341
20
88.071793
11
282.233621
21
88.369415
0
LINE
8
Layer 1
10
282.233621
20
88.369415
11
282.062064
21
88.486307
0
LINE
8
Layer 1
10
282.062064
20
88.486307
11
281.947397
21
88.486307
0
LINE
8
Layer 1
10
281.947397
20
88.486307
11
281.947397
21
88.486307
0
LINE
8
Layer 1
10
32.383592
20
85.082001
11
33.012660
21
84.733923
0
LINE
8
Layer 1
10
33.012660
20
84.733923
11
33.920393
21
83.885535
0
LINE
8
Layer 1
10
33.920393
20
83.885535
11
34.827018
21
82.830605
0
LINE
8
Layer 1
10
34.827018
20
82.830605
11
35.452758
21
81.862904
0
LINE
8
Layer 1
10
35.452758
20
81.862904
11
35.798615
21
80.998635
0
LINE
8
Layer 1
10
35.798615
20
80.998635
11
35.860753
21
80.353993
0
LINE
8
Layer 1
10
35.860753
20
80.353993
11
35.619676
21
79.808963
0
LINE
8
Layer 1
10
35.619676
20
79.808963
11
35.055883
21
79.243529
0
LINE
8
Layer 1
10
35.055883
20
79.243529
11
34.326475
21
78.495231
0
LINE
8
Layer 1
10
34.326475
20
78.495231
11
33.777064
21
77.708945
0
LINE
8
Layer 1
10
33.777064
20
77.708945
11
33.418648
21
77.225867
0
LINE
8
Layer 1
10
33.418648
20
77.225867
11
33.006230
21
76.933156
0
LINE
8
Layer 1
10
33.006230
20
76.933156
11
32.666139
21
76.887228
0
LINE
8
Layer 1
10
32.666139
20
76.887228
11
32.524703
21
77.144501
0
LINE
8
Layer 1
10
32.524703
20
77.144501
11
31.342897
21
78.723182
0
LINE
8
Layer 1
10
31.342897
20
78.723182
11
30.161092
21
80.072557
0
LINE
8
Layer 1
10
30.161092
20
80.072557
11
30.769633
21
81.236723
0
LINE
8
Layer 1
10
30.769633
20
81.236723
11
31.695675
21
83.741445
0
LINE
8
Layer 1
10
31.695675
20
83.741445
11
32.033491
21
84.688213
0
LINE
8
Layer 1
10
32.033491
20
84.688213
11
32.383592
21
85.082001
0
LINE
8
Layer 1
10
32.383592
20
85.082001
11
32.383592
21
85.082001
0
LINE
8
Layer 1
10
279.619064
20
85.082001
11
279.937703
21
84.812567
0
LINE
8
Layer 1
10
279.937703
20
84.812567
11
280.183508
21
84.164779
0
LINE
8
Layer 1
10
280.183508
20
84.164779
11
281.039008
21
81.607140
0
LINE
8
Layer 1
10
281.039008
20
81.607140
11
281.700453
21
79.966723
0
LINE
8
Layer 1
10
281.700453
20
79.966723
11
280.404008
21
78.361584
0
LINE
8
Layer 1
10
280.404008
20
78.361584
11
279.028175
21
76.659432
0
LINE
8
Layer 1
10
279.028175
20
76.659432
11
278.613661
21
77.197418
0
LINE
8
Layer 1
10
278.613661
20
77.197418
11
277.176092
21
79.014223
0
LINE
8
Layer 1
10
277.176092
20
79.014223
11
276.302849
21
80.156354
0
LINE
8
Layer 1
10
276.302849
20
80.156354
11
276.202671
21
80.599864
0
LINE
8
Layer 1
10
276.202671
20
80.599864
11
276.258869
21
81.113251
0
LINE
8
Layer 1
10
276.258869
20
81.113251
11
276.777758
21
82.143505
0
LINE
8
Layer 1
10
276.777758
20
82.143505
11
277.776749
21
83.462192
0
LINE
8
Layer 1
10
277.776749
20
83.462192
11
278.856850
21
84.598596
0
LINE
8
Layer 1
10
278.856850
20
84.598596
11
279.619064
21
85.082001
0
LINE
8
Layer 1
10
279.619064
20
85.082001
11
279.619064
21
85.082001
0
LINE
8
Layer 1
10
21.315189
20
82.259779
11
24.596022
21
80.707557
0
LINE
8
Layer 1
10
24.596022
20
80.707557
11
27.973871
21
79.155334
0
LINE
8
Layer 1
10
27.973871
20
79.155334
11
28.362555
21
78.986559
0
LINE
8
Layer 1
10
28.362555
20
78.986559
11
28.916180
21
78.533839
0
LINE
8
Layer 1
10
28.916180
20
78.533839
11
30.251007
21
77.098199
0
LINE
8
Layer 1
10
30.251007
20
77.098199
11
31.443864
21
75.491682
0
LINE
8
Layer 1
10
31.443864
20
75.491682
11
31.960258
21
74.357557
0
LINE
8
Layer 1
10
31.960258
20
74.357557
11
30.822550
21
73.828390
0
LINE
8
Layer 1
10
30.822550
20
73.828390
11
29.743954
21
73.343848
0
LINE
8
Layer 1
10
29.743954
20
73.343848
11
28.741161
21
72.655404
0
LINE
8
Layer 1
10
28.741161
20
72.655404
11
27.691648
21
71.835195
0
LINE
8
Layer 1
10
27.691648
20
71.835195
11
26.870634
21
72.153647
0
LINE
8
Layer 1
10
26.870634
20
72.153647
11
25.753227
21
72.780552
0
LINE
8
Layer 1
10
25.753227
20
72.780552
11
24.694423
21
73.497017
0
LINE
8
Layer 1
10
24.694423
20
73.497017
11
24.049216
21
74.084154
0
LINE
8
Layer 1
10
24.049216
20
74.084154
11
23.206618
21
75.857301
0
LINE
8
Layer 1
10
23.206618
20
75.857301
11
22.201961
21
78.612594
0
LINE
8
Layer 1
10
22.201961
20
78.612594
11
21.437424
21
81.147573
0
LINE
8
Layer 1
10
21.437424
20
81.147573
11
21.270883
21
81.956676
0
LINE
8
Layer 1
10
21.270883
20
81.956676
11
21.315189
21
82.259779
0
LINE
8
Layer 1
10
21.315189
20
82.259779
11
21.315189
21
82.259779
0
LINE
8
Layer 1
10
290.652200
20
82.259779
11
290.705159
21
81.954540
0
LINE
8
Layer 1
10
290.705159
20
81.954540
11
290.548278
21
81.140408
0
LINE
8
Layer 1
10
290.548278
20
81.140408
11
289.804165
21
78.594957
0
LINE
8
Layer 1
10
289.804165
20
78.594957
11
288.818201
21
75.842421
0
LINE
8
Layer 1
10
288.818201
20
75.842421
11
287.988728
21
74.101793
0
LINE
8
Layer 1
10
287.988728
20
74.101793
11
287.165884
21
73.367814
0
LINE
8
Layer 1
10
287.165884
20
73.367814
11
285.933783
21
72.611307
0
LINE
8
Layer 1
10
285.933783
20
72.611307
11
284.231644
21
71.835195
0
LINE
8
Layer 1
10
284.231644
20
71.835195
11
283.384978
21
72.487834
0
LINE
8
Layer 1
10
283.384978
20
72.487834
11
281.870882
21
73.570793
0
LINE
8
Layer 1
10
281.870882
20
73.570793
11
281.079815
21
73.935740
0
LINE
8
Layer 1
10
281.079815
20
73.935740
11
280.465730
21
74.075334
0
LINE
8
Layer 1
10
280.465730
20
74.075334
11
280.155373
21
74.109595
0
LINE
8
Layer 1
10
280.155373
20
74.109595
11
280.064569
21
74.279879
0
LINE
8
Layer 1
10
280.064569
20
74.279879
11
280.571564
21
75.433529
0
LINE
8
Layer 1
10
280.571564
20
75.433529
11
281.471544
21
76.761945
0
LINE
8
Layer 1
10
281.471544
20
76.761945
11
282.791593
21
78.008889
0
LINE
8
Layer 1
10
282.791593
20
78.008889
11
284.622203
21
79.246973
0
LINE
8
Layer 1
10
284.622203
20
79.246973
11
287.053867
21
80.548807
0
LINE
8
Layer 1
10
287.053867
20
80.548807
11
290.652200
21
82.259779
0
LINE
8
Layer 1
10
290.652200
20
82.259779
11
290.652200
21
82.259779
0
LINE
8
Layer 1
10
40.206439
20
79.384640
11
41.626369
21
79.287626
0
LINE
8
Layer 1
10
41.626369
20
79.287626
11
43.363800
21
79.084779
0
LINE
8
Layer 1
10
43.363800
20
79.084779
11
42.305467
21
78.238112
0
LINE
8
Layer 1
10
42.305467
20
78.238112
11
41.411735
21
77.389438
0
LINE
8
Layer 1
10
41.411735
20
77.389438
11
40.561173
21
76.355249
0
LINE
8
Layer 1
10
40.561173
20
76.355249
11
39.868382
21
75.292352
0
LINE
8
Layer 1
10
39.868382
20
75.292352
11
39.447967
21
74.357557
0
LINE
8
Layer 1
10
39.447967
20
74.357557
11
38.663036
21
72.311445
0
LINE
8
Layer 1
10
38.663036
20
72.311445
11
37.922203
21
70.970890
0
LINE
8
Layer 1
10
37.922203
20
70.970890
11
37.207828
21
71.782279
0
LINE
8
Layer 1
10
37.207828
20
71.782279
11
36.462190
21
72.569532
0
LINE
8
Layer 1
10
36.462190
20
72.569532
11
35.426300
21
73.334501
0
LINE
8
Layer 1
10
35.426300
20
73.334501
11
34.447399
21
74.064358
0
LINE
8
Layer 1
10
34.447399
20
74.064358
11
34.320310
21
74.368087
0
LINE
8
Layer 1
10
34.320310
20
74.368087
11
34.367967
21
74.719154
0
LINE
8
Layer 1
10
34.367967
20
74.719154
11
34.805863
21
75.775040
0
LINE
8
Layer 1
10
34.805863
20
75.775040
11
35.453742
21
76.837481
0
LINE
8
Layer 1
10
35.453742
20
76.837481
11
36.213576
21
77.769005
0
LINE
8
Layer 1
10
36.213576
20
77.769005
11
36.987342
21
78.432140
0
LINE
8
Layer 1
10
36.987342
20
78.432140
11
38.503013
21
79.158386
0
LINE
8
Layer 1
10
38.503013
20
79.158386
11
40.206439
21
79.384640
0
LINE
8
Layer 1
10
40.206439
20
79.384640
11
40.206439
21
79.384640
0
LINE
8
Layer 1
10
271.787411
20
79.367001
11
273.806623
21
79.049623
0
LINE
8
Layer 1
10
273.806623
20
79.049623
11
274.671870
21
78.686804
0
LINE
8
Layer 1
10
274.671870
20
78.686804
11
275.439434
21
78.188861
0
LINE
8
Layer 1
10
275.439434
20
78.188861
11
276.108235
21
77.556514
0
LINE
8
Layer 1
10
276.108235
20
77.556514
11
276.677189
21
76.790485
0
LINE
8
Layer 1
10
276.677189
20
76.790485
11
277.511231
21
74.860265
0
LINE
8
Layer 1
10
277.511231
20
74.860265
11
277.602536
21
74.410225
0
LINE
8
Layer 1
10
277.602536
20
74.410225
11
277.526143
21
74.079216
0
LINE
8
Layer 1
10
277.526143
20
74.079216
11
276.638106
21
73.369779
0
LINE
8
Layer 1
10
276.638106
20
73.369779
11
275.676456
21
72.630122
0
LINE
8
Layer 1
10
275.676456
20
72.630122
11
274.909494
21
71.826376
0
LINE
8
Layer 1
10
274.909494
20
71.826376
11
274.089286
21
70.970890
0
LINE
8
Layer 1
10
274.089286
20
70.970890
11
273.242619
21
72.593668
0
LINE
8
Layer 1
10
273.242619
20
72.593668
11
272.407341
21
74.510947
0
LINE
8
Layer 1
10
272.407341
20
74.510947
11
271.602080
21
75.992212
0
LINE
8
Layer 1
10
271.602080
20
75.992212
11
270.790266
21
77.097121
0
LINE
8
Layer 1
10
270.790266
20
77.097121
11
269.935328
21
77.885334
0
LINE
8
Layer 1
10
269.935328
20
77.885334
11
268.762342
21
78.926029
0
LINE
8
Layer 1
10
268.762342
20
78.926029
11
269.270018
21
79.115443
0
LINE
8
Layer 1
10
269.270018
20
79.115443
11
270.517411
21
79.305265
0
LINE
8
Layer 1
10
270.517411
20
79.305265
11
271.187689
21
79.358182
0
LINE
8
Layer 1
10
271.187689
20
79.358182
11
271.787411
21
79.367001
0
LINE
8
Layer 1
10
271.787411
20
79.367001
11
271.787411
21
79.367001
0
LINE
8
Layer 1
10
20.309772
20
74.904362
11
21.383641
21
74.767952
0
LINE
8
Layer 1
10
21.383641
20
74.767952
11
21.683733
21
74.494025
0
LINE
8
Layer 1
10
21.683733
20
74.494025
11
21.967828
21
74.004779
0
LINE
8
Layer 1
10
21.967828
20
74.004779
11
23.008522
21
72.452557
0
LINE
8
Layer 1
10
23.008522
20
72.452557
11
23.467133
21
71.738182
0
LINE
8
Layer 1
10
23.467133
20
71.738182
11
22.311786
21
70.891515
0
LINE
8
Layer 1
10
22.311786
20
70.891515
11
21.024147
21
70.124223
0
LINE
8
Layer 1
10
21.024147
20
70.124223
11
20.027550
21
70.909154
0
LINE
8
Layer 1
10
20.027550
20
70.909154
11
17.857966
21
72.531932
0
LINE
8
Layer 1
10
17.857966
20
72.531932
11
16.887111
21
73.206767
0
LINE
8
Layer 1
10
16.887111
20
73.206767
11
16.535050
21
73.652001
0
LINE
8
Layer 1
10
16.535050
20
73.652001
11
17.004046
21
74.038961
0
LINE
8
Layer 1
10
17.004046
20
74.038961
11
17.993204
21
74.444064
0
LINE
8
Layer 1
10
17.993204
20
74.444064
11
19.196965
21
74.766226
0
LINE
8
Layer 1
10
19.196965
20
74.766226
11
20.309772
21
74.904362
0
LINE
8
Layer 1
10
20.309772
20
74.904362
11
20.309772
21
74.904362
0
LINE
8
Layer 1
10
291.322478
20
74.904362
11
291.684061
21
74.904362
0
LINE
8
Layer 1
10
291.684061
20
74.904362
11
292.806348
21
74.766179
0
LINE
8
Layer 1
10
292.806348
20
74.766179
11
294.008083
21
74.442710
0
LINE
8
Layer 1
10
294.008083
20
74.442710
11
294.993697
21
74.032566
0
LINE
8
Layer 1
10
294.993697
20
74.032566
11
295.467617
21
73.634362
0
LINE
8
Layer 1
10
295.467617
20
73.634362
11
295.340278
21
73.330425
0
LINE
8
Layer 1
10
295.340278
20
73.330425
11
294.894339
21
73.025820
0
LINE
8
Layer 1
10
294.894339
20
73.025820
11
292.636561
21
71.420682
0
LINE
8
Layer 1
10
292.636561
20
71.420682
11
290.828589
21
70.133043
0
LINE
8
Layer 1
10
290.828589
20
70.133043
11
289.937839
21
70.715126
0
LINE
8
Layer 1
10
289.937839
20
70.715126
11
288.808950
21
71.526515
0
LINE
8
Layer 1
10
288.808950
20
71.526515
11
288.536870
21
71.846261
0
LINE
8
Layer 1
10
288.536870
20
71.846261
11
288.958867
21
72.434918
0
LINE
8
Layer 1
10
288.958867
20
72.434918
11
290.026005
21
74.004779
0
LINE
8
Layer 1
10
290.026005
20
74.004779
11
290.527694
21
74.716783
0
LINE
8
Layer 1
10
290.527694
20
74.716783
11
291.322478
21
74.904362
0
LINE
8
Layer 1
10
291.322478
20
74.904362
11
291.322478
21
74.904362
0
LINE
8
Layer 1
10
42.340744
20
74.357557
11
42.737619
21
74.357557
0
LINE
8
Layer 1
10
42.737619
20
74.357557
11
46.555351
21
74.049612
0
LINE
8
Layer 1
10
46.555351
20
74.049612
11
49.228731
21
73.563807
0
LINE
8
Layer 1
10
49.228731
20
73.563807
11
49.055589
21
72.930273
0
LINE
8
Layer 1
10
49.055589
20
72.930273
11
48.378675
21
71.712981
0
LINE
8
Layer 1
10
48.378675
20
71.712981
11
47.498404
21
70.400251
0
LINE
8
Layer 1
10
47.498404
20
70.400251
11
46.715189
21
69.480404
0
LINE
8
Layer 1
10
46.715189
20
69.480404
11
45.983354
21
69.053468
0
LINE
8
Layer 1
10
45.983354
20
69.053468
11
45.051716
21
68.876285
0
LINE
8
Layer 1
10
45.051716
20
68.876285
11
43.944193
21
68.950449
0
LINE
8
Layer 1
10
43.944193
20
68.950449
11
42.684703
21
69.277557
0
LINE
8
Layer 1
10
42.684703
20
69.277557
11
40.462203
21
69.824362
0
LINE
8
Layer 1
10
40.462203
20
69.824362
11
40.035086
21
69.949960
0
LINE
8
Layer 1
10
40.035086
20
69.949960
11
39.944199
21
70.393170
0
LINE
8
Layer 1
10
39.944199
20
70.393170
11
40.841439
21
72.814154
0
LINE
8
Layer 1
10
40.841439
20
72.814154
11
41.505647
21
74.077756
0
LINE
8
Layer 1
10
41.505647
20
74.077756
11
41.844374
21
74.294481
0
LINE
8
Layer 1
10
41.844374
20
74.294481
11
42.340744
21
74.357557
0
LINE
8
Layer 1
10
42.340744
20
74.357557
11
42.340744
21
74.357557
0
LINE
8
Layer 1
10
269.476717
20
74.331098
11
270.265161
21
74.262108
0
LINE
8
Layer 1
10
270.265161
20
74.262108
11
270.605606
21
74.048876
0
LINE
8
Layer 1
10
270.605606
20
74.048876
11
271.504801
21
72.066300
0
LINE
8
Layer 1
10
271.504801
20
72.066300
11
272.131369
21
70.265334
0
LINE
8
Layer 1
10
272.131369
20
70.265334
11
271.406237
21
69.877884
0
LINE
8
Layer 1
10
271.406237
20
69.877884
11
269.661925
21
69.348112
0
LINE
8
Layer 1
10
269.661925
20
69.348112
11
266.910258
21
68.730751
0
LINE
8
Layer 1
10
266.910258
20
68.730751
11
266.110989
21
68.949930
0
LINE
8
Layer 1
10
266.110989
20
68.949930
11
265.300662
21
69.513189
0
LINE
8
Layer 1
10
265.300662
20
69.513189
11
264.457286
21
70.439291
0
LINE
8
Layer 1
10
264.457286
20
70.439291
11
263.558869
21
71.747001
0
LINE
8
Layer 1
10
263.558869
20
71.747001
11
262.908598
21
72.964377
0
LINE
8
Layer 1
10
262.908598
20
72.964377
11
262.889065
21
73.356678
0
LINE
8
Layer 1
10
262.889065
20
73.356678
11
263.133095
21
73.641301
0
LINE
8
Layer 1
10
263.133095
20
73.641301
11
264.591330
21
73.997255
0
LINE
8
Layer 1
10
264.591330
20
73.997255
11
267.642272
21
74.251723
0
LINE
8
Layer 1
10
267.642272
20
74.251723
11
269.476717
21
74.331098
0
LINE
8
Layer 1
10
269.476717
20
74.331098
11
269.476717
21
74.331098
0
LINE
8
Layer 1
10
26.130607
20
70.406445
11
26.679394
21
70.381473
0
LINE
8
Layer 1
10
26.679394
20
70.381473
11
26.979700
21
70.221525
0
LINE
8
Layer 1
10
26.979700
20
70.221525
11
27.128862
21
69.799054
0
LINE
8
Layer 1
10
27.128862
20
69.799054
11
27.224218
21
68.986515
0
LINE
8
Layer 1
10
27.224218
20
68.986515
11
27.539055
21
67.614712
0
LINE
8
Layer 1
10
27.539055
20
67.614712
11
28.238453
21
66.349501
0
LINE
8
Layer 1
10
28.238453
20
66.349501
11
29.111578
21
65.132418
0
LINE
8
Layer 1
10
29.111578
20
65.132418
11
28.203176
21
64.268112
0
LINE
8
Layer 1
10
28.203176
20
64.268112
11
27.235298
21
63.515146
0
LINE
8
Layer 1
10
27.235298
20
63.515146
11
26.174704
21
62.918738
0
LINE
8
Layer 1
10
26.174704
20
62.918738
11
24.334393
21
62.518528
0
LINE
8
Layer 1
10
24.334393
20
62.518528
11
21.664762
21
62.325581
0
LINE
8
Layer 1
10
21.664762
20
62.325581
11
18.972480
21
62.363067
0
LINE
8
Layer 1
10
18.972480
20
62.363067
11
17.064216
21
62.654155
0
LINE
8
Layer 1
10
17.064216
20
62.654155
11
17.007183
21
62.798233
0
LINE
8
Layer 1
10
17.007183
20
62.798233
11
17.161355
21
63.104149
0
LINE
8
Layer 1
10
17.161355
20
63.104149
11
18.051994
21
64.127001
0
LINE
8
Layer 1
10
18.051994
20
64.127001
11
21.006508
21
67.337279
0
LINE
8
Layer 1
10
21.006508
20
67.337279
11
22.309384
21
68.663014
0
LINE
8
Layer 1
10
22.309384
20
68.663014
11
23.609257
21
69.624020
0
LINE
8
Layer 1
10
23.609257
20
69.624020
11
24.888780
21
70.208947
0
LINE
8
Layer 1
10
24.888780
20
70.208947
11
26.130607
21
70.406445
0
LINE
8
Layer 1
10
26.130607
20
70.406445
11
26.130607
21
70.406445
0
LINE
8
Layer 1
10
285.977894
20
70.362348
11
287.062960
21
70.212435
0
LINE
8
Layer 1
10
287.062960
20
70.212435
11
288.161776
21
69.726788
0
LINE
8
Layer 1
10
288.161776
20
69.726788
11
289.317387
21
68.882029
0
LINE
8
Layer 1
10
289.317387
20
68.882029
11
290.572839
21
67.654779
0
LINE
8
Layer 1
10
290.572839
20
67.654779
11
293.791922
21
64.303390
0
LINE
8
Layer 1
10
293.791922
20
64.303390
11
294.823109
21
63.144329
0
LINE
8
Layer 1
10
294.823109
20
63.144329
11
294.999085
21
62.801761
0
LINE
8
Layer 1
10
294.999085
20
62.801761
11
294.947284
21
62.618877
0
LINE
8
Layer 1
10
294.947284
20
62.618877
11
291.207839
21
62.310196
0
LINE
8
Layer 1
10
291.207839
20
62.310196
11
288.604940
21
62.335678
0
LINE
8
Layer 1
10
288.604940
20
62.335678
11
286.632625
21
62.629041
0
LINE
8
Layer 1
10
286.632625
20
62.629041
11
285.102445
21
63.239232
0
LINE
8
Layer 1
10
285.102445
20
63.239232
11
283.825950
21
64.215195
0
LINE
8
Layer 1
10
283.825950
20
64.215195
11
283.052397
21
65.109730
0
LINE
8
Layer 1
10
283.052397
20
65.109730
11
283.109984
21
65.388141
0
LINE
8
Layer 1
10
283.109984
20
65.388141
11
283.411450
21
65.740959
0
LINE
8
Layer 1
10
283.411450
20
65.740959
11
283.978632
21
66.528764
0
LINE
8
Layer 1
10
283.978632
20
66.528764
11
284.434580
21
67.503114
0
LINE
8
Layer 1
10
284.434580
20
67.503114
11
284.720713
21
68.506995
0
LINE
8
Layer 1
10
284.720713
20
68.506995
11
284.778450
21
69.383390
0
LINE
8
Layer 1
10
284.778450
20
69.383390
11
284.753644
21
69.872662
0
LINE
8
Layer 1
10
284.753644
20
69.872662
11
284.849200
21
70.149064
0
LINE
8
Layer 1
10
284.849200
20
70.149064
11
285.678033
21
70.353529
0
LINE
8
Layer 1
10
285.678033
20
70.353529
11
285.977894
21
70.362348
0
LINE
8
Layer 1
10
285.977894
20
70.362348
11
285.977894
21
70.362348
0
LINE
8
Layer 1
10
38.186786
20
68.466168
11
39.518522
21
68.272140
0
LINE
8
Layer 1
10
39.518522
20
68.272140
11
41.772259
21
67.736446
0
LINE
8
Layer 1
10
41.772259
20
67.736446
11
43.760545
21
66.836043
0
LINE
8
Layer 1
10
43.760545
20
66.836043
11
45.453444
21
65.588741
0
LINE
8
Layer 1
10
45.453444
20
65.588741
11
46.821022
21
64.012348
0
LINE
8
Layer 1
10
46.821022
20
64.012348
11
47.435127
21
63.011062
0
LINE
8
Layer 1
10
47.435127
20
63.011062
11
47.594001
21
62.383993
0
LINE
8
Layer 1
10
47.594001
20
62.383993
11
47.284806
21
62.048550
0
LINE
8
Layer 1
10
47.284806
20
62.048550
11
46.494703
21
61.922141
0
LINE
8
Layer 1
10
46.494703
20
61.922141
11
44.801369
21
61.842766
0
LINE
8
Layer 1
10
44.801369
20
61.842766
11
42.341509
21
61.989787
0
LINE
8
Layer 1
10
42.341509
20
61.989787
11
39.783169
21
62.541992
0
LINE
8
Layer 1
10
39.783169
20
62.541992
11
37.584189
21
63.366354
0
LINE
8
Layer 1
10
37.584189
20
63.366354
11
36.762535
21
63.839024
0
LINE
8
Layer 1
10
36.762535
20
63.839024
11
36.202411
21
64.329848
0
LINE
8
Layer 1
10
36.202411
20
64.329848
11
36.032256
21
64.592473
0
LINE
8
Layer 1
10
36.032256
20
64.592473
11
36.021256
21
64.838572
0
LINE
8
Layer 1
10
36.021256
20
64.838572
11
36.555189
21
65.546932
0
LINE
8
Layer 1
10
36.555189
20
65.546932
11
37.204861
21
66.405003
0
LINE
8
Layer 1
10
37.204861
20
66.405003
11
37.736994
21
67.390195
0
LINE
8
Layer 1
10
37.736994
20
67.390195
11
38.186786
21
68.466168
0
LINE
8
Layer 1
10
38.186786
20
68.466168
11
38.186786
21
68.466168
0
LINE
8
Layer 1
10
273.807064
20
68.466168
11
274.248036
21
67.390195
0
LINE
8
Layer 1
10
274.248036
20
67.390195
11
274.792134
21
66.394703
0
LINE
8
Layer 1
10
274.792134
20
66.394703
11
275.465119
21
65.511654
0
LINE
8
Layer 1
10
275.465119
20
65.511654
11
276.223592
21
64.709084
0
LINE
8
Layer 1
10
276.223592
20
64.709084
11
275.315189
21
63.950612
0
LINE
8
Layer 1
10
275.315189
20
63.950612
11
274.281332
21
63.264612
0
LINE
8
Layer 1
10
274.281332
20
63.264612
11
272.987768
21
62.717930
0
LINE
8
Layer 1
10
272.987768
20
62.717930
11
271.462238
21
62.320159
0
LINE
8
Layer 1
10
271.462238
20
62.320159
11
269.732481
21
62.080891
0
LINE
8
Layer 1
10
269.732481
20
62.080891
11
267.192481
21
61.825127
0
LINE
8
Layer 1
10
267.192481
20
61.825127
11
265.435064
21
61.999340
0
LINE
8
Layer 1
10
265.435064
20
61.999340
11
264.588760
21
62.234953
0
LINE
8
Layer 1
10
264.588760
20
62.234953
11
264.229147
21
62.468946
0
LINE
8
Layer 1
10
264.229147
20
62.468946
11
264.576842
21
63.123494
0
LINE
8
Layer 1
10
264.576842
20
63.123494
11
265.399602
21
64.243115
0
LINE
8
Layer 1
10
265.399602
20
64.243115
11
267.148383
21
66.190751
0
LINE
8
Layer 1
10
267.148383
20
66.190751
11
268.177997
21
66.817489
0
LINE
8
Layer 1
10
268.177997
20
66.817489
11
269.582190
21
67.441038
0
LINE
8
Layer 1
10
269.582190
20
67.441038
11
271.101216
21
67.959790
0
LINE
8
Layer 1
10
271.101216
20
67.959790
11
272.475328
21
68.272140
0
LINE
8
Layer 1
10
272.475328
20
68.272140
11
273.807064
21
68.466168
0
LINE
8
Layer 1
10
273.807064
20
68.466168
11
273.807064
21
68.466168
0
LINE
8
Layer 1
10
31.933800
20
64.197557
11
32.489425
21
64.197557
0
LINE
8
Layer 1
10
32.489425
20
64.197557
11
34.173939
21
64.197557
0
LINE
8
Layer 1
10
34.173939
20
64.197557
11
34.650189
21
62.936377
0
LINE
8
Layer 1
10
34.650189
20
62.936377
11
35.023431
21
61.267440
0
LINE
8
Layer 1
10
35.023431
20
61.267440
11
35.028639
21
59.333253
0
LINE
8
Layer 1
10
35.028639
20
59.333253
11
34.681463
21
57.324291
0
LINE
8
Layer 1
10
34.681463
20
57.324291
11
33.997550
21
55.431030
0
LINE
8
Layer 1
10
33.997550
20
55.431030
11
33.212451
21
53.981848
0
LINE
8
Layer 1
10
33.212451
20
53.981848
11
32.568800
21
53.093877
0
LINE
8
Layer 1
10
32.568800
20
53.093877
11
32.258653
21
52.839164
0
LINE
8
Layer 1
10
32.258653
20
52.839164
11
32.072922
21
52.818731
0
LINE
8
Layer 1
10
32.072922
20
52.818731
11
31.827967
21
53.675960
0
LINE
8
Layer 1
10
31.827967
20
53.675960
11
31.272342
21
55.307557
0
LINE
8
Layer 1
10
31.272342
20
55.307557
11
30.491454
21
57.096626
0
LINE
8
Layer 1
10
30.491454
20
57.096626
11
30.054755
21
59.258894
0
LINE
8
Layer 1
10
30.054755
20
59.258894
11
30.004159
21
61.414435
0
LINE
8
Layer 1
10
30.004159
20
61.414435
11
30.381578
21
63.183321
0
LINE
8
Layer 1
10
30.381578
20
63.183321
11
30.620482
21
63.710030
0
LINE
8
Layer 1
10
30.620482
20
63.710030
11
30.872836
21
64.013817
0
LINE
8
Layer 1
10
30.872836
20
64.013817
11
31.267617
21
64.155914
0
LINE
8
Layer 1
10
31.267617
20
64.155914
11
31.933800
21
64.197557
0
LINE
8
Layer 1
10
31.933800
20
64.197557
11
31.933800
21
64.197557
0
LINE
8
Layer 1
10
277.837550
20
64.197557
11
279.583786
21
64.197557
0
LINE
8
Layer 1
10
279.583786
20
64.197557
11
281.330036
21
64.197557
0
LINE
8
Layer 1
10
281.330036
20
64.197557
11
281.718091
21
63.139224
0
LINE
8
Layer 1
10
281.718091
20
63.139224
11
281.979761
21
61.770005
0
LINE
8
Layer 1
10
281.979761
20
61.770005
11
282.070869
21
59.964224
0
LINE
8
Layer 1
10
282.070869
20
59.964224
11
281.897310
21
57.957463
0
LINE
8
Layer 1
10
281.897310
20
57.957463
11
281.259480
21
56.295335
0
LINE
8
Layer 1
10
281.259480
20
56.295335
11
280.165869
21
53.614224
0
LINE
8
Layer 1
10
280.165869
20
53.614224
11
279.857203
21
52.485335
0
LINE
8
Layer 1
10
279.857203
20
52.485335
11
278.966439
21
53.720057
0
LINE
8
Layer 1
10
278.966439
20
53.720057
11
278.297946
21
54.782014
0
LINE
8
Layer 1
10
278.297946
20
54.782014
11
277.752378
21
55.941096
0
LINE
8
Layer 1
10
277.752378
20
55.941096
11
277.052769
21
58.417312
0
LINE
8
Layer 1
10
277.052769
20
58.417312
11
276.913120
21
60.882053
0
LINE
8
Layer 1
10
276.913120
20
60.882053
11
277.067502
21
62.026792
0
LINE
8
Layer 1
10
277.067502
20
62.026792
11
277.378939
21
63.068668
0
LINE
8
Layer 1
10
277.378939
20
63.068668
11
277.837550
21
64.197557
0
LINE
8
Layer 1
10
277.837550
20
64.197557
11
277.837550
21
64.197557
0
LINE
8
Layer 1
10
284.055256
20
61.657557
11
285.748589
21
61.093113
0
LINE
8
Layer 1
10
285.748589
20
61.093113
11
287.256040
21
60.694474
0
LINE
8
Layer 1
10
287.256040
20
60.694474
11
288.623728
21
60.528668
0
LINE
8
Layer 1
10
288.623728
20
60.528668
11
289.525639
21
60.440946
0
LINE
8
Layer 1
10
289.525639
20
60.440946
11
290.098445
21
60.076460
0
LINE
8
Layer 1
10
290.098445
20
60.076460
11
290.465267
21
59.283234
0
LINE
8
Layer 1
10
290.465267
20
59.283234
11
290.749228
21
57.909293
0
LINE
8
Layer 1
10
290.749228
20
57.909293
11
291.190172
21
55.942557
0
LINE
8
Layer 1
10
291.190172
20
55.942557
11
291.243075
21
55.683750
0
LINE
8
Layer 1
10
291.243075
20
55.683750
11
291.092819
21
55.541607
0
LINE
8
Layer 1
10
291.092819
20
55.541607
11
289.867284
21
55.492766
0
LINE
8
Layer 1
10
289.867284
20
55.492766
11
288.540705
21
55.558006
0
LINE
8
Layer 1
10
288.540705
20
55.558006
11
287.606659
21
55.737116
0
LINE
8
Layer 1
10
287.606659
20
55.737116
11
286.755613
21
56.129190
0
LINE
8
Layer 1
10
286.755613
20
56.129190
11
285.678033
21
56.833321
0
LINE
8
Layer 1
10
285.678033
20
56.833321
11
284.125811
21
57.900474
0
LINE
8
Layer 1
10
284.125811
20
57.900474
11
284.037617
21
59.779016
0
LINE
8
Layer 1
10
284.037617
20
59.779016
11
284.055256
21
61.657557
0
LINE
8
Layer 1
10
284.055256
20
61.657557
11
284.055256
21
61.657557
0
LINE
8
Layer 1
10
27.850398
20
61.587002
11
27.894496
21
61.587002
0
LINE
8
Layer 1
10
27.894496
20
61.587002
11
28.044426
21
59.849571
0
LINE
8
Layer 1
10
28.044426
20
59.849571
11
27.973711
21
58.340744
0
LINE
8
Layer 1
10
27.973711
20
58.340744
11
27.734161
21
57.922194
0
LINE
8
Layer 1
10
27.734161
20
57.922194
11
27.285954
21
57.503599
0
LINE
8
Layer 1
10
27.285954
20
57.503599
11
25.045814
21
56.136585
0
LINE
8
Layer 1
10
25.045814
20
56.136585
11
23.591600
21
55.632248
0
LINE
8
Layer 1
10
23.591600
20
55.632248
11
22.154954
21
55.420479
0
LINE
8
Layer 1
10
22.154954
20
55.420479
11
21.098790
21
55.518257
0
LINE
8
Layer 1
10
21.098790
20
55.518257
11
20.826799
21
55.688531
0
LINE
8
Layer 1
10
20.826799
20
55.688531
11
20.786022
21
55.942557
0
LINE
8
Layer 1
10
20.786022
20
55.942557
11
21.235814
21
57.847557
0
LINE
8
Layer 1
10
21.235814
20
57.847557
11
21.597213
21
59.157573
0
LINE
8
Layer 1
10
21.597213
20
59.157573
11
22.038746
21
59.980195
0
LINE
8
Layer 1
10
22.038746
20
59.980195
11
22.634438
21
60.406776
0
LINE
8
Layer 1
10
22.634438
20
60.406776
11
23.458314
21
60.528668
0
LINE
8
Layer 1
10
23.458314
20
60.528668
11
24.700078
21
60.694324
0
LINE
8
Layer 1
10
24.700078
20
60.694324
11
26.174704
21
61.093113
0
LINE
8
Layer 1
10
26.174704
20
61.093113
11
27.850398
21
61.587002
0
LINE
8
Layer 1
10
27.850398
20
61.587002
11
27.850398
21
61.587002
0
LINE
8
Layer 1
10
37.322481
20
61.322418
11
37.675258
21
61.234224
0
LINE
8
Layer 1
10
37.675258
20
61.234224
11
40.329911
21
60.599224
0
LINE
8
Layer 1
10
40.329911
20
60.599224
11
41.652157
21
60.272696
0
LINE
8
Layer 1
10
41.652157
20
60.272696
11
42.320707
21
59.851229
0
LINE
8
Layer 1
10
42.320707
20
59.851229
11
42.516411
21
59.082770
0
LINE
8
Layer 1
10
42.516411
20
59.082770
11
42.420119
21
57.715266
0
LINE
8
Layer 1
10
42.420119
20
57.715266
11
42.256197
21
56.671202
0
LINE
8
Layer 1
10
42.256197
20
56.671202
11
41.899537
21
56.201450
0
LINE
8
Layer 1
10
41.899537
20
56.201450
11
41.128481
21
56.217408
0
LINE
8
Layer 1
10
41.128481
20
56.217408
11
39.721369
21
56.630474
0
LINE
8
Layer 1
10
39.721369
20
56.630474
11
37.137377
21
57.580064
0
LINE
8
Layer 1
10
37.137377
20
57.580064
11
36.824579
21
57.919121
0
LINE
8
Layer 1
10
36.824579
20
57.919121
11
36.863869
21
58.350266
0
LINE
8
Layer 1
10
36.863869
20
58.350266
11
37.031439
21
60.211168
0
LINE
8
Layer 1
10
37.031439
20
60.211168
11
37.079659
21
61.093072
0
LINE
8
Layer 1
10
37.079659
20
61.093072
11
37.322481
21
61.322418
0
LINE
8
Layer 1
10
37.322481
20
61.322418
11
37.322481
21
61.322418
0
LINE
8
Layer 1
10
274.521439
20
61.304780
11
274.679503
21
61.206320
0
LINE
8
Layer 1
10
274.679503
20
61.206320
11
274.781861
21
60.898818
0
LINE
8
Layer 1
10
274.781861
20
60.898818
11
274.883036
21
59.443877
0
LINE
8
Layer 1
10
274.883036
20
59.443877
11
274.944772
21
57.477141
0
LINE
8
Layer 1
10
274.944772
20
57.477141
11
272.607619
21
56.745127
0
LINE
8
Layer 1
10
272.607619
20
56.745127
11
269.961786
21
56.013113
0
LINE
8
Layer 1
10
269.961786
20
56.013113
11
269.673880
21
56.493627
0
LINE
8
Layer 1
10
269.673880
20
56.493627
11
269.482552
21
57.600960
0
LINE
8
Layer 1
10
269.482552
20
57.600960
11
269.438237
21
58.833796
0
LINE
8
Layer 1
10
269.438237
20
58.833796
11
269.591369
21
59.690821
0
LINE
8
Layer 1
10
269.591369
20
59.690821
11
270.027218
21
60.121842
0
LINE
8
Layer 1
10
270.027218
20
60.121842
11
270.658522
21
60.387557
0
LINE
8
Layer 1
10
270.658522
20
60.387557
11
274.397967
21
61.287141
0
LINE
8
Layer 1
10
274.397967
20
61.287141
11
274.521439
21
61.304780
0
LINE
8
Layer 1
10
274.521439
20
61.304780
11
274.521439
21
61.304780
0
LINE
8
Layer 1
10
73.570397
20
56.692210
11
77.855693
21
56.568148
0
LINE
8
Layer 1
10
77.855693
20
56.568148
11
82.190911
21
56.208847
0
LINE
8
Layer 1
10
82.190911
20
56.208847
11
86.299275
21
55.637026
0
LINE
8
Layer 1
10
86.299275
20
55.637026
11
89.904008
21
54.875405
0
LINE
8
Layer 1
10
89.904008
20
54.875405
11
92.422904
21
54.121668
0
LINE
8
Layer 1
10
92.422904
20
54.121668
11
95.224189
21
53.119188
0
LINE
8
Layer 1
10
95.224189
20
53.119188
11
101.063884
21
50.650480
0
LINE
8
Layer 1
10
101.063884
20
50.650480
11
106.202998
21
48.034252
0
LINE
8
Layer 1
10
106.202998
20
48.034252
11
108.128559
21
46.847371
0
LINE
8
Layer 1
10
108.128559
20
46.847371
11
109.421439
21
45.835474
0
LINE
8
Layer 1
10
109.421439
20
45.835474
11
109.604320
21
45.525793
0
LINE
8
Layer 1
10
109.604320
20
45.525793
11
108.897540
21
45.369306
0
LINE
8
Layer 1
10
108.897540
20
45.369306
11
102.224772
21
45.341585
0
LINE
8
Layer 1
10
102.224772
20
45.341585
11
93.553996
21
45.476583
0
LINE
8
Layer 1
10
93.553996
20
45.476583
11
87.981369
21
46.011863
0
LINE
8
Layer 1
10
87.981369
20
46.011863
11
81.712143
21
46.982273
0
LINE
8
Layer 1
10
81.712143
20
46.982273
11
75.531346
21
48.351886
0
LINE
8
Layer 1
10
75.531346
20
48.351886
11
69.472505
21
50.112528
0
LINE
8
Layer 1
10
69.472505
20
50.112528
11
63.569147
21
52.256030
0
LINE
8
Layer 1
10
63.569147
20
52.256030
11
59.168763
21
54.144555
0
LINE
8
Layer 1
10
59.168763
20
54.144555
11
58.455976
21
54.613987
0
LINE
8
Layer 1
10
58.455976
20
54.613987
11
58.396619
21
54.768503
0
LINE
8
Layer 1
10
58.396619
20
54.768503
11
58.506786
21
54.884224
0
LINE
8
Layer 1
10
58.506786
20
54.884224
11
60.094999
21
55.296271
0
LINE
8
Layer 1
10
60.094999
20
55.296271
11
63.079145
21
55.798055
0
LINE
8
Layer 1
10
63.079145
20
55.798055
11
69.901508
21
56.577557
0
LINE
8
Layer 1
10
69.901508
20
56.577557
11
73.570397
21
56.692210
0
LINE
8
Layer 1
10
73.570397
20
56.692210
11
73.570397
21
56.692210
0
LINE
8
Layer 1
10
237.717897
20
56.692210
11
241.886853
21
56.568312
0
LINE
8
Layer 1
10
241.886853
20
56.568312
11
246.062382
21
56.220108
0
LINE
8
Layer 1
10
246.062382
20
56.220108
11
249.966067
21
55.671392
0
LINE
8
Layer 1
10
249.966067
20
55.671392
11
253.319494
21
54.945960
0
LINE
8
Layer 1
10
253.319494
20
54.945960
11
254.122064
21
54.725474
0
LINE
8
Layer 1
10
254.122064
20
54.725474
11
253.460606
21
54.399155
0
LINE
8
Layer 1
10
253.460606
20
54.399155
11
250.507495
21
53.039743
0
LINE
8
Layer 1
10
250.507495
20
53.039743
11
247.261891
21
51.737022
0
LINE
8
Layer 1
10
247.261891
20
51.737022
11
240.132802
21
49.371653
0
LINE
8
Layer 1
10
240.132802
20
49.371653
11
232.552528
21
47.443056
0
LINE
8
Layer 1
10
232.552528
20
47.443056
11
225.000258
21
46.091238
0
LINE
8
Layer 1
10
225.000258
20
46.091238
11
219.747513
21
45.617061
0
LINE
8
Layer 1
10
219.747513
20
45.617061
11
211.383036
21
45.376863
0
LINE
8
Layer 1
10
211.383036
20
45.376863
11
204.656003
21
45.320256
0
LINE
8
Layer 1
10
204.656003
20
45.320256
11
201.858036
21
45.403321
0
LINE
8
Layer 1
10
201.858036
20
45.403321
11
202.452282
21
45.932258
0
LINE
8
Layer 1
10
202.452282
20
45.932258
11
203.960098
21
46.924877
0
LINE
8
Layer 1
10
203.960098
20
46.924877
11
208.066925
21
49.275057
0
LINE
8
Layer 1
10
208.066925
20
49.275057
11
211.360602
21
50.901806
0
LINE
8
Layer 1
10
211.360602
20
50.901806
11
214.538568
21
52.295611
0
LINE
8
Layer 1
10
214.538568
20
52.295611
11
217.653379
21
53.471112
0
LINE
8
Layer 1
10
217.653379
20
53.471112
11
220.757591
21
54.442946
0
LINE
8
Layer 1
10
220.757591
20
54.442946
11
223.903760
21
55.225752
0
LINE
8
Layer 1
10
223.903760
20
55.225752
11
227.144441
21
55.834167
0
LINE
8
Layer 1
10
227.144441
20
55.834167
11
230.532190
21
56.282829
0
LINE
8
Layer 1
10
230.532190
20
56.282829
11
234.119564
21
56.586377
0
LINE
8
Layer 1
10
234.119564
20
56.586377
11
237.717897
21
56.692210
0
LINE
8
Layer 1
10
237.717897
20
56.692210
11
237.717897
21
56.692210
0
LINE
8
Layer 1
10
162.020606
20
51.356446
11
162.364564
21
50.509780
0
LINE
8
Layer 1
10
162.364564
20
50.509780
11
162.640741
21
49.290050
0
LINE
8
Layer 1
10
162.640741
20
49.290050
11
162.831994
21
47.546446
0
LINE
8
Layer 1
10
162.831994
20
47.546446
11
162.823522
21
45.618273
0
LINE
8
Layer 1
10
162.823522
20
45.618273
11
162.545150
21
43.883652
0
LINE
8
Layer 1
10
162.545150
20
43.883652
11
162.002301
21
42.364266
0
LINE
8
Layer 1
10
162.002301
20
42.364266
11
161.200397
21
41.081793
0
LINE
8
Layer 1
10
161.200397
20
41.081793
11
160.459229
21
40.280391
0
LINE
8
Layer 1
10
160.459229
20
40.280391
11
159.974494
21
39.970543
0
LINE
8
Layer 1
10
159.974494
20
39.970543
11
158.404633
21
40.676099
0
LINE
8
Layer 1
10
158.404633
20
40.676099
11
157.121788
21
41.169497
0
LINE
8
Layer 1
10
157.121788
20
41.169497
11
155.794078
21
41.337557
0
LINE
8
Layer 1
10
155.794078
20
41.337557
11
154.444703
21
41.337557
0
LINE
8
Layer 1
10
154.444703
20
41.337557
11
154.444703
21
42.563460
0
LINE
8
Layer 1
10
154.444703
20
42.563460
11
154.652683
21
43.813533
0
LINE
8
Layer 1
10
154.652683
20
43.813533
11
155.338865
21
45.072797
0
LINE
8
Layer 1
10
155.338865
20
45.072797
11
156.596612
21
46.468659
0
LINE
8
Layer 1
10
156.596612
20
46.468659
11
158.519286
21
48.128530
0
LINE
8
Layer 1
10
158.519286
20
48.128530
11
161.526717
21
50.756724
0
LINE
8
Layer 1
10
161.526717
20
50.756724
11
162.020606
21
51.356446
0
LINE
8
Layer 1
10
162.020606
20
51.356446
11
162.020606
21
51.356446
0
LINE
8
Layer 1
10
150.334842
20
50.897835
11
151.076575
21
50.307324
0
LINE
8
Layer 1
10
151.076575
20
50.307324
11
152.442689
21
48.931099
0
LINE
8
Layer 1
10
152.442689
20
48.931099
11
154.250675
21
46.990821
0
LINE
8
Layer 1
10
154.250675
20
46.990821
11
153.712689
21
45.976585
0
LINE
8
Layer 1
10
153.712689
20
45.976585
11
152.844554
21
44.710888
0
LINE
8
Layer 1
10
152.844554
20
44.710888
11
152.517855
21
44.611410
0
LINE
8
Layer 1
10
152.517855
20
44.611410
11
152.213383
21
44.830057
0
LINE
8
Layer 1
10
152.213383
20
44.830057
11
151.563277
21
45.291839
0
LINE
8
Layer 1
10
151.563277
20
45.291839
11
150.458314
21
45.844293
0
LINE
8
Layer 1
10
150.458314
20
45.844293
11
149.020744
21
46.461655
0
LINE
8
Layer 1
10
149.020744
20
46.461655
11
149.214772
21
47.784571
0
LINE
8
Layer 1
10
149.214772
20
47.784571
11
149.730831
21
50.013161
0
LINE
8
Layer 1
10
149.730831
20
50.013161
11
150.040215
21
50.675249
0
LINE
8
Layer 1
10
150.040215
20
50.675249
11
150.334842
21
50.897835
0
LINE
8
Layer 1
10
150.334842
20
50.897835
11
150.334842
21
50.897835
0
LINE
8
Layer 1
10
169.270189
20
47.802210
11
169.437758
21
47.802210
0
LINE
8
Layer 1
10
169.437758
20
47.802210
11
169.737928
21
47.702989
0
LINE
8
Layer 1
10
169.737928
20
47.702989
11
169.895663
21
47.446179
0
LINE
8
Layer 1
10
169.895663
20
47.446179
11
169.966925
21
46.408738
0
LINE
8
Layer 1
10
169.966925
20
46.408738
11
169.874057
21
45.203928
0
LINE
8
Layer 1
10
169.874057
20
45.203928
11
169.578899
21
44.125322
0
LINE
8
Layer 1
10
169.578899
20
44.125322
11
169.056627
21
43.110247
0
LINE
8
Layer 1
10
169.056627
20
43.110247
11
168.282411
21
42.096030
0
LINE
8
Layer 1
10
168.282411
20
42.096030
11
167.733124
21
41.514727
0
LINE
8
Layer 1
10
167.733124
20
41.514727
11
167.244821
21
41.203510
0
LINE
8
Layer 1
10
167.244821
20
41.203510
11
166.596216
21
41.078379
0
LINE
8
Layer 1
10
166.596216
20
41.078379
11
165.566022
21
41.055335
0
LINE
8
Layer 1
10
165.566022
20
41.055335
11
163.758036
21
41.161168
0
LINE
8
Layer 1
10
163.758036
20
41.161168
11
164.181369
21
42.281238
0
LINE
8
Layer 1
10
164.181369
20
42.281238
11
164.480347
21
43.284993
0
LINE
8
Layer 1
10
164.480347
20
43.284993
11
164.604703
21
44.274432
0
LINE
8
Layer 1
10
164.604703
20
44.274432
11
164.694721
21
45.454710
0
LINE
8
Layer 1
10
164.694721
20
45.454710
11
165.052008
21
46.238758
0
LINE
8
Layer 1
10
165.052008
20
46.238758
11
165.807414
21
46.783681
0
LINE
8
Layer 1
10
165.807414
20
46.783681
11
167.091786
21
47.246585
0
LINE
8
Layer 1
10
167.091786
20
47.246585
11
169.270189
21
47.802210
0
LINE
8
Layer 1
10
169.270189
20
47.802210
11
169.270189
21
47.802210
0
LINE
8
Layer 1
10
141.550675
20
46.294085
11
142.741300
21
46.117696
0
LINE
8
Layer 1
10
142.741300
20
46.117696
11
145.554703
21
45.447418
0
LINE
8
Layer 1
10
145.554703
20
45.447418
11
149.191386
21
44.502639
0
LINE
8
Layer 1
10
149.191386
20
44.502639
11
150.016085
21
44.159628
0
LINE
8
Layer 1
10
150.016085
20
44.159628
11
150.625883
21
43.754085
0
LINE
8
Layer 1
10
150.625883
20
43.754085
11
151.434173
21
42.911110
0
LINE
8
Layer 1
10
151.434173
20
42.911110
11
152.178106
21
41.804988
0
LINE
8
Layer 1
10
152.178106
20
41.804988
11
152.874842
21
40.508530
0
LINE
8
Layer 1
10
152.874842
20
40.508530
11
151.966439
21
39.573668
0
LINE
8
Layer 1
10
151.966439
20
39.573668
11
151.279835
21
38.647574
0
LINE
8
Layer 1
10
151.279835
20
38.647574
11
150.890467
21
37.730405
0
LINE
8
Layer 1
10
150.890467
20
37.730405
11
150.539507
21
37.030339
0
LINE
8
Layer 1
10
150.539507
20
37.030339
11
150.236137
21
36.880385
0
LINE
8
Layer 1
10
150.236137
20
36.880385
11
149.839037
21
36.864562
0
LINE
8
Layer 1
10
149.839037
20
36.864562
11
148.738240
21
37.237539
0
LINE
8
Layer 1
10
148.738240
20
37.237539
11
147.186300
21
38.153738
0
LINE
8
Layer 1
10
147.186300
20
38.153738
11
146.352036
21
38.786245
0
LINE
8
Layer 1
10
146.352036
20
38.786245
11
145.583920
21
39.601376
0
LINE
8
Layer 1
10
145.583920
20
39.601376
11
143.552689
21
42.642835
0
LINE
8
Layer 1
10
143.552689
20
42.642835
11
141.506578
21
46.276446
0
LINE
8
Layer 1
10
141.506578
20
46.276446
11
141.550675
21
46.294085
0
LINE
8
Layer 1
10
141.550675
20
46.294085
11
141.550675
21
46.294085
0
LINE
8
Layer 1
10
192.509425
20
42.598738
11
192.777534
21
42.517263
0
LINE
8
Layer 1
10
192.777534
20
42.517263
11
192.667226
21
42.240543
0
LINE
8
Layer 1
10
192.667226
20
42.240543
11
191.292342
21
41.072974
0
LINE
8
Layer 1
10
191.292342
20
41.072974
11
187.863360
21
38.808508
0
LINE
8
Layer 1
10
187.863360
20
38.808508
11
184.013686
21
36.711595
0
LINE
8
Layer 1
10
184.013686
20
36.711595
11
180.107992
21
34.963132
0
LINE
8
Layer 1
10
180.107992
20
34.963132
11
176.510953
21
33.744016
0
LINE
8
Layer 1
10
176.510953
20
33.744016
11
172.013036
21
32.729780
0
LINE
8
Layer 1
10
172.013036
20
32.729780
11
170.775796
21
32.653060
0
LINE
8
Layer 1
10
170.775796
20
32.653060
11
170.576462
21
32.784494
0
LINE
8
Layer 1
10
170.576462
20
32.784494
11
170.531369
21
33.056099
0
LINE
8
Layer 1
10
170.531369
20
33.056099
11
170.845612
21
33.575965
0
LINE
8
Layer 1
10
170.845612
20
33.575965
11
171.801369
21
34.096793
0
LINE
8
Layer 1
10
171.801369
20
34.096793
11
173.102928
21
34.825992
0
LINE
8
Layer 1
10
173.102928
20
34.825992
11
174.464790
21
35.895555
0
LINE
8
Layer 1
10
174.464790
20
35.895555
11
175.661313
21
37.104227
0
LINE
8
Layer 1
10
175.661313
20
37.104227
11
176.466856
21
38.250752
0
LINE
8
Layer 1
10
176.466856
20
38.250752
11
176.810654
21
38.824283
0
LINE
8
Layer 1
10
176.810654
20
38.824283
11
177.223415
21
39.223135
0
LINE
8
Layer 1
10
177.223415
20
39.223135
11
178.777550
21
39.864710
0
LINE
8
Layer 1
10
178.777550
20
39.864710
11
183.876282
21
41.309228
0
LINE
8
Layer 1
10
183.876282
20
41.309228
11
188.452481
21
42.060752
0
LINE
8
Layer 1
10
188.452481
20
42.060752
11
192.191925
21
42.554641
0
LINE
8
Layer 1
10
192.191925
20
42.554641
11
192.509425
21
42.598738
0
LINE
8
Layer 1
10
192.509425
20
42.598738
11
192.509425
21
42.598738
0
LINE
8
Layer 1
10
119.722550
20
42.439988
11
123.183616
21
42.162936
0
LINE
8
Layer 1
10
123.183616
20
42.162936
11
126.786925
21
41.619780
0
LINE
8
Layer 1
10
126.786925
20
41.619780
11
129.750258
21
40.896585
0
LINE
8
Layer 1
10
129.750258
20
40.896585
11
134.884555
21
39.367127
0
LINE
8
Layer 1
10
134.884555
20
39.367127
11
137.007071
21
38.580514
0
LINE
8
Layer 1
10
137.007071
20
38.580514
11
138.075814
21
38.039085
0
LINE
8
Layer 1
10
138.075814
20
38.039085
11
138.246217
21
37.819079
0
LINE
8
Layer 1
10
138.246217
20
37.819079
11
138.135819
21
37.717083
0
LINE
8
Layer 1
10
138.135819
20
37.717083
11
136.735258
21
37.809780
0
LINE
8
Layer 1
10
136.735258
20
37.809780
11
134.971369
21
37.836238
0
LINE
8
Layer 1
10
134.971369
20
37.836238
11
135.219079
21
37.246390
0
LINE
8
Layer 1
10
135.219079
20
37.246390
11
135.851679
21
36.322780
0
LINE
8
Layer 1
10
135.851679
20
36.322780
11
137.608383
21
34.352557
0
LINE
8
Layer 1
10
137.608383
20
34.352557
11
138.922481
21
33.012002
0
LINE
8
Layer 1
10
138.922481
20
33.012002
11
138.697428
21
32.921855
0
LINE
8
Layer 1
10
138.697428
20
32.921855
11
138.076221
21
32.989939
0
LINE
8
Layer 1
10
138.076221
20
32.989939
11
135.969053
21
33.507829
0
LINE
8
Layer 1
10
135.969053
20
33.507829
11
133.248390
21
34.379732
0
LINE
8
Layer 1
10
133.248390
20
34.379732
11
130.561647
21
35.419710
0
LINE
8
Layer 1
10
130.561647
20
35.419710
11
126.774979
21
37.310664
0
LINE
8
Layer 1
10
126.774979
20
37.310664
11
122.943306
21
39.575793
0
LINE
8
Layer 1
10
122.943306
20
39.575793
11
120.169136
21
41.513540
0
LINE
8
Layer 1
10
120.169136
20
41.513540
11
119.523150
21
42.140409
0
LINE
8
Layer 1
10
119.523150
20
42.140409
11
119.445725
21
42.329976
0
LINE
8
Layer 1
10
119.445725
20
42.329976
11
119.554981
21
42.422349
0
LINE
8
Layer 1
10
119.554981
20
42.422349
11
119.722550
21
42.439988
0
LINE
8
Layer 1
10
119.722550
20
42.439988
11
119.722550
21
42.439988
0
LINE
8
Layer 1
10
165.301439
20
39.282627
11
166.993335
21
39.173796
0
LINE
8
Layer 1
10
166.993335
20
39.173796
11
168.696925
21
38.797557
0
LINE
8
Layer 1
10
168.696925
20
38.797557
11
172.013036
21
37.897974
0
LINE
8
Layer 1
10
172.013036
20
37.897974
11
172.959801
21
37.626042
0
LINE
8
Layer 1
10
172.959801
20
37.626042
11
173.353592
21
37.395266
0
LINE
8
Layer 1
10
173.353592
20
37.395266
11
173.232509
21
37.103465
0
LINE
8
Layer 1
10
173.232509
20
37.103465
11
172.892543
21
36.762975
0
LINE
8
Layer 1
10
172.892543
20
36.762975
11
171.695650
21
36.008541
0
LINE
8
Layer 1
10
171.695650
20
36.008541
11
170.042295
21
35.277192
0
LINE
8
Layer 1
10
170.042295
20
35.277192
11
168.211856
21
34.714155
0
LINE
8
Layer 1
10
168.211856
20
34.714155
11
166.586916
21
34.419423
0
LINE
8
Layer 1
10
166.586916
20
34.419423
11
165.065859
21
34.320556
0
LINE
8
Layer 1
10
165.065859
20
34.320556
11
163.686844
21
34.418488
0
LINE
8
Layer 1
10
163.686844
20
34.418488
11
162.488036
21
34.714155
0
LINE
8
Layer 1
10
162.488036
20
34.714155
11
161.288592
21
35.128668
0
LINE
8
Layer 1
10
161.288592
20
35.128668
11
161.218036
21
36.698530
0
LINE
8
Layer 1
10
161.218036
20
36.698530
11
161.236807
21
37.602098
0
LINE
8
Layer 1
10
161.236807
20
37.602098
11
161.356287
21
38.118298
0
LINE
8
Layer 1
10
161.356287
20
38.118298
11
161.671225
21
38.427321
0
LINE
8
Layer 1
10
161.671225
20
38.427321
11
162.276369
21
38.709363
0
LINE
8
Layer 1
10
162.276369
20
38.709363
11
163.703649
21
39.128586
0
LINE
8
Layer 1
10
163.703649
20
39.128586
11
165.301439
21
39.282627
0
LINE
8
Layer 1
10
165.301439
20
39.282627
11
165.301439
21
39.282627
0
LINE
8
Layer 1
10
144.117133
20
37.853877
11
144.736237
21
37.640343
0
LINE
8
Layer 1
10
144.736237
20
37.640343
11
145.519425
21
37.130682
0
LINE
8
Layer 1
10
145.519425
20
37.130682
11
147.133383
21
36.107627
0
LINE
8
Layer 1
10
147.133383
20
36.107627
11
147.546970
21
35.905386
0
LINE
8
Layer 1
10
147.546970
20
35.905386
11
147.626096
21
35.650531
0
LINE
8
Layer 1
10
147.626096
20
35.650531
11
147.364057
21
35.319952
0
LINE
8
Layer 1
10
147.364057
20
35.319952
11
146.754147
21
34.890543
0
LINE
8
Layer 1
10
146.754147
20
34.890543
11
145.007897
21
33.452974
0
LINE
8
Layer 1
10
145.007897
20
33.452974
11
144.292908
21
32.845250
0
LINE
8
Layer 1
10
144.292908
20
32.845250
11
143.737897
21
32.597488
0
LINE
8
Layer 1
10
143.737897
20
32.597488
11
142.404974
21
33.011646
0
LINE
8
Layer 1
10
142.404974
20
33.011646
11
140.685687
21
33.952813
0
LINE
8
Layer 1
10
140.685687
20
33.952813
11
139.235735
21
35.007863
0
LINE
8
Layer 1
10
139.235735
20
35.007863
11
138.816664
21
35.448991
0
LINE
8
Layer 1
10
138.816664
20
35.448991
11
138.710814
21
35.763668
0
LINE
8
Layer 1
10
138.710814
20
35.763668
11
140.275486
21
36.525767
0
LINE
8
Layer 1
10
140.275486
20
36.525767
11
144.011300
21
37.845057
0
LINE
8
Layer 1
10
144.011300
20
37.845057
11
144.117133
21
37.853877
0
LINE
8
Layer 1
10
144.117133
20
37.853877
11
144.117133
21
37.853877
0
LINE
8
Layer 1
10
150.202550
20
34.405474
11
150.886633
21
34.168611
0
LINE
8
Layer 1
10
150.886633
20
34.168611
11
151.560744
21
33.470613
0
LINE
8
Layer 1
10
151.560744
20
33.470613
11
152.425105
21
32.603141
0
LINE
8
Layer 1
10
152.425105
20
32.603141
11
153.289356
21
32.033043
0
LINE
8
Layer 1
10
153.289356
20
32.033043
11
154.119550
21
31.473203
0
LINE
8
Layer 1
10
154.119550
20
31.473203
11
154.140411
21
31.261691
0
LINE
8
Layer 1
10
154.140411
20
31.261691
11
153.844981
21
31.177557
0
LINE
8
Layer 1
10
153.844981
20
31.177557
11
150.590606
21
29.766446
0
LINE
8
Layer 1
10
150.590606
20
29.766446
11
148.092429
21
28.410063
0
LINE
8
Layer 1
10
148.092429
20
28.410063
11
147.394819
21
27.845260
0
LINE
8
Layer 1
10
147.394819
20
27.845260
11
146.886439
21
27.235266
0
LINE
8
Layer 1
10
146.886439
20
27.235266
11
145.925119
21
26.106377
0
LINE
8
Layer 1
10
145.925119
20
26.106377
11
145.652663
21
26.613389
0
LINE
8
Layer 1
10
145.652663
20
26.613389
11
145.246022
21
28.716932
0
LINE
8
Layer 1
10
145.246022
20
28.716932
11
145.293857
21
30.045238
0
LINE
8
Layer 1
10
145.293857
20
30.045238
11
145.810752
21
31.394595
0
LINE
8
Layer 1
10
145.810752
20
31.394595
11
146.704536
21
32.600156
0
LINE
8
Layer 1
10
146.704536
20
32.600156
11
147.883036
21
33.497071
0
LINE
8
Layer 1
10
147.883036
20
33.497071
11
149.279485
21
34.180466
0
LINE
8
Layer 1
10
149.279485
20
34.180466
11
150.202550
21
34.405474
0
LINE
8
Layer 1
10
150.202550
20
34.405474
11
150.202550
21
34.405474
0
LINE
8
Layer 1
10
160.785883
20
33.373599
11
161.350328
21
33.161932
0
LINE
8
Layer 1
10
161.350328
20
33.161932
11
161.938060
21
32.755730
0
LINE
8
Layer 1
10
161.938060
20
32.755730
11
162.429475
21
32.171444
0
LINE
8
Layer 1
10
162.429475
20
32.171444
11
163.405258
21
30.039849
0
LINE
8
Layer 1
10
163.405258
20
30.039849
11
163.887967
21
28.522983
0
LINE
8
Layer 1
10
163.887967
20
28.522983
11
164.176516
21
27.075583
0
LINE
8
Layer 1
10
164.176516
20
27.075583
11
164.275669
21
25.666131
0
LINE
8
Layer 1
10
164.275669
20
25.666131
11
164.190189
21
24.263113
0
LINE
8
Layer 1
10
164.190189
20
24.263113
11
163.960703
21
23.152326
0
LINE
8
Layer 1
10
163.960703
20
23.152326
11
163.669842
21
22.737349
0
LINE
8
Layer 1
10
163.669842
20
22.737349
11
162.862357
21
23.069835
0
LINE
8
Layer 1
10
162.862357
20
23.069835
11
161.614372
21
23.833415
0
LINE
8
Layer 1
10
161.614372
20
23.833415
11
160.313740
21
24.769952
0
LINE
8
Layer 1
10
160.313740
20
24.769952
11
159.348314
21
25.621307
0
LINE
8
Layer 1
10
159.348314
20
25.621307
11
158.616476
21
26.662612
0
LINE
8
Layer 1
10
158.616476
20
26.662612
11
157.924485
21
28.056845
0
LINE
8
Layer 1
10
157.924485
20
28.056845
11
157.397602
21
29.512129
0
LINE
8
Layer 1
10
157.397602
20
29.512129
11
157.161092
21
30.736585
0
LINE
8
Layer 1
10
157.161092
20
30.736585
11
157.289935
21
31.458805
0
LINE
8
Layer 1
10
157.289935
20
31.458805
11
158.060675
21
31.768460
0
LINE
8
Layer 1
10
158.060675
20
31.768460
11
158.967268
21
32.136763
0
LINE
8
Layer 1
10
158.967268
20
32.136763
11
159.824564
21
32.747418
0
LINE
8
Layer 1
10
159.824564
20
32.747418
11
160.382410
21
33.232809
0
LINE
8
Layer 1
10
160.382410
20
33.232809
11
160.785883
21
33.373599
0
LINE
8
Layer 1
10
160.785883
20
33.373599
11
160.785883
21
33.373599
0
LINE
8
Layer 1
10
168.449981
20
32.835613
11
169.490675
21
30.727766
0
LINE
8
Layer 1
10
169.490675
20
30.727766
11
170.531369
21
28.372974
0
LINE
8
Layer 1
10
170.531369
20
28.372974
11
170.137579
21
28.134657
0
LINE
8
Layer 1
10
170.137579
20
28.134657
11
169.190814
21
27.932002
0
LINE
8
Layer 1
10
169.190814
20
27.932002
11
167.259356
21
27.640960
0
LINE
8
Layer 1
10
167.259356
20
27.640960
11
166.704437
21
27.649882
0
LINE
8
Layer 1
10
166.704437
20
27.649882
11
166.230095
21
27.902420
0
LINE
8
Layer 1
10
166.230095
20
27.902420
11
165.858075
21
28.379210
0
LINE
8
Layer 1
10
165.858075
20
28.379210
11
165.610119
21
29.060891
0
LINE
8
Layer 1
10
165.610119
20
29.060891
11
164.816369
21
31.107002
0
LINE
8
Layer 1
10
164.816369
20
31.107002
11
164.340119
21
32.412280
0
LINE
8
Layer 1
10
164.340119
20
32.412280
11
166.456786
21
32.668043
0
LINE
8
Layer 1
10
166.456786
20
32.668043
11
168.449981
21
32.835613
0
LINE
8
Layer 1
10
168.449981
20
32.835613
11
168.449981
21
32.835613
0
LINE
8
Layer 1
10
155.229633
20
29.598877
11
155.317828
21
29.563599
0
LINE
8
Layer 1
10
155.317828
20
29.563599
11
156.161016
21
27.578750
0
LINE
8
Layer 1
10
156.161016
20
27.578750
11
156.870050
21
25.109780
0
LINE
8
Layer 1
10
156.870050
20
25.109780
11
156.801903
21
24.303417
0
LINE
8
Layer 1
10
156.801903
20
24.303417
11
156.334877
21
23.505269
0
LINE
8
Layer 1
10
156.334877
20
23.505269
11
155.427677
21
22.667120
0
LINE
8
Layer 1
10
155.427677
20
22.667120
11
154.039008
21
21.740752
0
LINE
8
Layer 1
10
154.039008
20
21.740752
11
152.280277
21
20.803983
0
LINE
8
Layer 1
10
152.280277
20
20.803983
11
151.942067
21
20.813513
0
LINE
8
Layer 1
10
151.942067
20
20.813513
11
151.781231
21
21.088113
0
LINE
8
Layer 1
10
151.781231
20
21.088113
11
151.242523
21
23.757311
0
LINE
8
Layer 1
10
151.242523
20
23.757311
11
150.952203
21
26.529710
0
LINE
8
Layer 1
10
150.952203
20
26.529710
11
150.916925
21
28.099571
0
LINE
8
Layer 1
10
150.916925
20
28.099571
11
153.007133
21
28.946238
0
LINE
8
Layer 1
10
153.007133
20
28.946238
11
154.385949
21
29.433399
0
LINE
8
Layer 1
10
154.385949
20
29.433399
11
155.229633
21
29.598877
0
LINE
8
Layer 1
10
155.229633
20
29.598877
11
155.229633
21
29.598877
0
LINE
8
Layer 1
10
39.836022
20
28.055474
11
40.281438
21
27.941218
0
LINE
8
Layer 1
10
40.281438
20
27.941218
11
40.426925
21
27.561585
0
LINE
8
Layer 1
10
40.426925
20
27.561585
11
40.548721
21
27.040117
0
LINE
8
Layer 1
10
40.548721
20
27.040117
11
40.841439
21
26.503252
0
LINE
8
Layer 1
10
40.841439
20
26.503252
11
41.197197
21
25.860506
0
LINE
8
Layer 1
10
41.197197
20
25.860506
11
41.181492
21
25.296166
0
LINE
8
Layer 1
10
41.181492
20
25.296166
11
40.768660
21
24.742261
0
LINE
8
Layer 1
10
40.768660
20
24.742261
11
39.933036
21
24.130821
0
LINE
8
Layer 1
10
39.933036
20
24.130821
11
38.524962
21
23.451508
0
LINE
8
Layer 1
10
38.524962
20
23.451508
11
36.899147
21
23.292974
0
LINE
8
Layer 1
10
36.899147
20
23.292974
11
35.300337
21
23.461746
0
LINE
8
Layer 1
10
35.300337
20
23.461746
11
33.507724
21
23.887732
0
LINE
8
Layer 1
10
33.507724
20
23.887732
11
31.915928
21
24.455106
0
LINE
8
Layer 1
10
31.915928
20
24.455106
11
30.919564
21
25.048043
0
LINE
8
Layer 1
10
30.919564
20
25.048043
11
30.719220
21
25.292572
0
LINE
8
Layer 1
10
30.719220
20
25.292572
11
30.765797
21
25.451193
0
LINE
8
Layer 1
10
30.765797
20
25.451193
11
31.854425
21
25.691863
0
LINE
8
Layer 1
10
31.854425
20
25.691863
11
34.931594
21
26.401919
0
LINE
8
Layer 1
10
34.931594
20
26.401919
11
37.983939
21
27.482210
0
LINE
8
Layer 1
10
37.983939
20
27.482210
11
39.077426
21
27.902134
0
LINE
8
Layer 1
10
39.077426
20
27.902134
11
39.836022
21
28.055474
0
LINE
8
Layer 1
10
39.836022
20
28.055474
11
39.836022
21
28.055474
0
LINE
8
Layer 1
10
272.078453
20
28.046655
11
273.035120
21
27.843702
0
LINE
8
Layer 1
10
273.035120
20
27.843702
11
274.574356
21
27.252905
0
LINE
8
Layer 1
10
274.574356
20
27.252905
11
276.599594
21
26.535166
0
LINE
8
Layer 1
10
276.599594
20
26.535166
11
278.754772
21
25.965266
0
LINE
8
Layer 1
10
278.754772
20
25.965266
11
281.136008
21
25.374363
0
LINE
8
Layer 1
10
281.136008
20
25.374363
11
281.061895
21
25.100638
0
LINE
8
Layer 1
10
281.061895
20
25.100638
11
280.509254
21
24.717089
0
LINE
8
Layer 1
10
280.509254
20
24.717089
11
278.384356
21
23.848599
0
LINE
8
Layer 1
10
278.384356
20
23.848599
11
276.613774
21
23.422965
0
LINE
8
Layer 1
10
276.613774
20
23.422965
11
274.974118
21
23.292798
0
LINE
8
Layer 1
10
274.974118
20
23.292798
11
273.540276
21
23.458170
0
LINE
8
Layer 1
10
273.540276
20
23.458170
11
272.387133
21
23.919155
0
LINE
8
Layer 1
10
272.387133
20
23.919155
11
271.242234
21
24.653080
0
LINE
8
Layer 1
10
271.242234
20
24.653080
11
270.709682
21
25.150650
0
LINE
8
Layer 1
10
270.709682
20
25.150650
11
270.669692
21
25.612350
0
LINE
8
Layer 1
10
270.669692
20
25.612350
11
271.002481
21
26.238668
0
LINE
8
Layer 1
10
271.002481
20
26.238668
11
271.566925
21
27.614502
0
LINE
8
Layer 1
10
271.566925
20
27.614502
11
271.688573
21
27.942828
0
LINE
8
Layer 1
10
271.688573
20
27.942828
11
272.078453
21
28.046655
0
LINE
8
Layer 1
10
272.078453
20
28.046655
11
272.078453
21
28.046655
0
LINE
8
Layer 1
10
268.974008
20
23.636932
11
270.270467
21
23.010752
0
LINE
8
Layer 1
10
270.270467
20
23.010752
11
271.276415
21
22.403522
0
LINE
8
Layer 1
10
271.276415
20
22.403522
11
272.059223
21
21.623189
0
LINE
8
Layer 1
10
272.059223
20
21.623189
11
272.697306
21
20.570908
0
LINE
8
Layer 1
10
272.697306
20
20.570908
11
273.269078
21
19.147835
0
LINE
8
Layer 1
10
273.269078
20
19.147835
11
273.633192
21
17.787266
0
LINE
8
Layer 1
10
273.633192
20
17.787266
11
273.794961
21
16.395458
0
LINE
8
Layer 1
10
273.794961
20
16.395458
11
273.755525
21
14.946679
0
LINE
8
Layer 1
10
273.755525
20
14.946679
11
273.516022
21
13.415196
0
LINE
8
Layer 1
10
273.516022
20
13.415196
11
273.231640
21
12.406915
0
LINE
8
Layer 1
10
273.231640
20
12.406915
11
272.978036
21
11.986446
0
LINE
8
Layer 1
10
272.978036
20
11.986446
11
272.105538
21
12.679195
0
LINE
8
Layer 1
10
272.105538
20
12.679195
11
270.610512
21
14.299001
0
LINE
8
Layer 1
10
270.610512
20
14.299001
11
269.088779
21
16.158207
0
LINE
8
Layer 1
10
269.088779
20
16.158207
11
268.136161
21
17.569155
0
LINE
8
Layer 1
10
268.136161
20
17.569155
11
267.627771
21
19.008583
0
LINE
8
Layer 1
10
267.627771
20
19.008583
11
267.474703
21
20.700057
0
LINE
8
Layer 1
10
267.474703
20
20.700057
11
267.594533
21
22.303436
0
LINE
8
Layer 1
10
267.594533
20
22.303436
11
267.821112
21
22.715008
0
LINE
8
Layer 1
10
267.821112
20
22.715008
11
268.224356
21
23.072488
0
LINE
8
Layer 1
10
268.224356
20
23.072488
11
268.974008
21
23.636932
0
LINE
8
Layer 1
10
268.974008
20
23.636932
11
268.974008
21
23.636932
0
LINE
8
Layer 1
10
42.984564
20
23.354710
11
43.637203
21
23.240057
0
LINE
8
Layer 1
10
43.637203
20
23.240057
11
44.231973
21
22.757098
0
LINE
8
Layer 1
10
44.231973
20
22.757098
11
44.545606
21
21.961238
0
LINE
8
Layer 1
10
44.545606
20
21.961238
11
44.630762
21
21.068968
0
LINE
8
Layer 1
10
44.630762
20
21.068968
11
44.563007
21
20.132119
0
LINE
8
Layer 1
10
44.563007
20
20.132119
11
43.982127
21
18.155485
0
LINE
8
Layer 1
10
43.982127
20
18.155485
11
42.829705
21
16.092943
0
LINE
8
Layer 1
10
42.829705
20
16.092943
11
41.132481
21
14.006099
0
LINE
8
Layer 1
10
41.132481
20
14.006099
11
39.015814
21
11.986446
0
LINE
8
Layer 1
10
39.015814
20
11.986446
11
38.776123
21
12.452930
0
LINE
8
Layer 1
10
38.776123
20
12.452930
11
38.497015
21
13.570685
0
LINE
8
Layer 1
10
38.497015
20
13.570685
11
38.169147
21
16.069849
0
LINE
8
Layer 1
10
38.169147
20
16.069849
11
38.302724
21
17.311698
0
LINE
8
Layer 1
10
38.302724
20
17.311698
11
38.654705
21
18.753672
0
LINE
8
Layer 1
10
38.654705
20
18.753672
11
39.151962
21
20.150193
0
LINE
8
Layer 1
10
39.151962
20
20.150193
11
39.721369
21
21.255682
0
LINE
8
Layer 1
10
39.721369
20
21.255682
11
40.414879
21
22.078619
0
LINE
8
Layer 1
10
40.414879
20
22.078619
11
41.253920
21
22.735453
0
LINE
8
Layer 1
10
41.253920
20
22.735453
11
42.142485
21
23.177159
0
LINE
8
Layer 1
10
42.142485
20
23.177159
11
42.984564
21
23.354710
0
LINE
8
Layer 1
10
42.984564
20
23.354710
11
42.984564
21
23.354710
0
LINE
8
Layer 1
10
47.905814
20
23.151863
11
49.135942
21
22.909780
0
LINE
8
Layer 1
10
49.135942
20
22.909780
11
50.366439
21
22.314016
0
LINE
8
Layer 1
10
50.366439
20
22.314016
11
50.927953
21
21.814977
0
LINE
8
Layer 1
10
50.927953
20
21.814977
11
51.463287
21
21.098527
0
LINE
8
Layer 1
10
51.463287
20
21.098527
11
52.373378
21
19.233191
0
LINE
8
Layer 1
10
52.373378
20
19.233191
11
52.932639
21
17.157608
0
LINE
8
Layer 1
10
52.932639
20
17.157608
11
53.029434
21
16.178348
0
LINE
8
Layer 1
10
53.029434
20
16.178348
11
52.976994
21
15.311377
0
LINE
8
Layer 1
10
52.976994
20
15.311377
11
52.793083
21
14.563338
0
LINE
8
Layer 1
10
52.793083
20
14.563338
11
52.606578
21
14.261863
0
LINE
8
Layer 1
10
52.606578
20
14.261863
11
51.691843
21
14.827992
0
LINE
8
Layer 1
10
51.691843
20
14.827992
11
50.024920
21
16.098073
0
LINE
8
Layer 1
10
50.024920
20
16.098073
11
47.341369
21
18.442280
0
LINE
8
Layer 1
10
47.341369
20
18.442280
11
46.892404
21
19.454342
0
LINE
8
Layer 1
10
46.892404
20
19.454342
11
46.679911
21
21.052835
0
LINE
8
Layer 1
10
46.679911
20
21.052835
11
46.686546
21
22.678707
0
LINE
8
Layer 1
10
46.686546
20
22.678707
11
46.879442
21
22.953091
0
LINE
8
Layer 1
10
46.879442
20
22.953091
11
47.261994
21
23.090127
0
LINE
8
Layer 1
10
47.261994
20
23.090127
11
47.588314
21
23.143043
0
LINE
8
Layer 1
10
47.588314
20
23.143043
11
47.905814
21
23.151863
0
LINE
8
Layer 1
10
47.905814
20
23.151863
11
47.905814
21
23.151863
0
LINE
8
Layer 1
10
264.026300
20
23.151863
11
264.696578
21
23.098946
0
LINE
8
Layer 1
10
264.696578
20
23.098946
11
265.048974
21
22.964319
0
LINE
8
Layer 1
10
265.048974
20
22.964319
11
265.248678
21
22.708481
0
LINE
8
Layer 1
10
265.248678
20
22.708481
11
265.358036
21
21.387974
0
LINE
8
Layer 1
10
265.358036
20
21.387974
11
265.223791
21
19.869031
0
LINE
8
Layer 1
10
265.223791
20
19.869031
11
264.737670
21
18.652156
0
LINE
8
Layer 1
10
264.737670
20
18.652156
11
263.774597
21
17.535394
0
LINE
8
Layer 1
10
263.774597
20
17.535394
11
262.209494
21
16.316793
0
LINE
8
Layer 1
10
262.209494
20
16.316793
11
259.837064
21
14.508807
0
LINE
8
Layer 1
10
259.837064
20
14.508807
11
259.595456
21
14.262048
0
LINE
8
Layer 1
10
259.595456
20
14.262048
11
259.376293
21
14.301998
0
LINE
8
Layer 1
10
259.376293
20
14.301998
11
259.096231
21
15.161446
0
LINE
8
Layer 1
10
259.096231
20
15.161446
11
259.149369
21
17.291229
0
LINE
8
Layer 1
10
259.149369
20
17.291229
11
259.645142
21
19.369247
0
LINE
8
Layer 1
10
259.645142
20
19.369247
11
260.490436
21
21.127097
0
LINE
8
Layer 1
10
260.490436
20
21.127097
11
261.015054
21
21.802083
0
LINE
8
Layer 1
10
261.015054
20
21.802083
11
261.592133
21
22.296377
0
LINE
8
Layer 1
10
261.592133
20
22.296377
11
262.813170
21
22.893775
0
LINE
8
Layer 1
10
262.813170
20
22.893775
11
264.026300
21
23.151863
0
LINE
8
Layer 1
10
264.026300
20
23.151863
11
264.026300
21
23.151863
 0 
ENDSEC
 0 
EOF
