999
"DXF R12 Output" (www.mydxf.blogspot.com)
 0 
SECTION
 2 
HEADER
 9 
$ACADVER
 1 
AC1009
 9 
$EXTMIN
 10 
 0 
 20 
 0 
 9 
$EXTMAX
 10 
 8.5 
 20 
 11 
 0 
ENDSEC
 0 
SECTION
 2 
ENTITIES
0
LINE
8
Layer 1
10
103.584324
20
485.447330
11
101.953320
21
481.032584
0
LINE
8
Layer 1
10
101.953320
20
481.032584
11
99.524332
21
473.249516
0
LINE
8
Layer 1
10
99.524332
20
473.249516
11
95.081529
21
459.691188
0
LINE
8
Layer 1
10
95.081529
20
459.691188
11
92.951869
21
453.804135
0
LINE
8
Layer 1
10
92.951869
20
453.804135
11
91.244067
21
449.548364
0
LINE
8
Layer 1
10
91.244067
20
449.548364
11
89.853369
21
446.192672
0
LINE
8
Layer 1
10
89.853369
20
446.192672
11
88.587532
21
442.756947
0
LINE
8
Layer 1
10
88.587532
20
442.756947
11
87.585993
21
439.645219
0
LINE
8
Layer 1
10
87.585993
20
439.645219
11
86.988187
21
437.261518
0
LINE
8
Layer 1
10
86.988187
20
437.261518
11
86.211668
21
434.365165
0
LINE
8
Layer 1
10
86.211668
20
434.365165
11
84.723815
21
429.857389
0
LINE
8
Layer 1
10
84.723815
20
429.857389
11
80.470815
21
418.475105
0
LINE
8
Layer 1
10
80.470815
20
418.475105
11
76.461544
21
407.886093
0
LINE
8
Layer 1
10
76.461544
20
407.886093
11
75.239550
21
404.233719
0
LINE
8
Layer 1
10
75.239550
20
404.233719
11
74.790376
21
402.377553
0
LINE
8
Layer 1
10
74.790376
20
402.377553
11
74.414487
21
400.818544
0
LINE
8
Layer 1
10
74.414487
20
400.818544
11
73.390315
21
397.977493
0
LINE
8
Layer 1
10
73.390315
20
397.977493
11
70.018092
21
390.072895
0
LINE
8
Layer 1
10
70.018092
20
390.072895
11
62.265728
21
372.863027
0
LINE
8
Layer 1
10
62.265728
20
372.863027
11
56.117148
21
358.482019
0
LINE
8
Layer 1
10
56.117148
20
358.482019
11
51.915265
21
347.760961
0
LINE
8
Layer 1
10
51.915265
20
347.760961
11
50.651495
21
344.032628
0
LINE
8
Layer 1
10
50.651495
20
344.032628
11
50.002993
21
341.530941
0
LINE
8
Layer 1
10
50.002993
20
341.530941
11
48.909383
21
336.922122
0
LINE
8
Layer 1
10
48.909383
20
336.922122
11
48.241166
21
334.847952
0
LINE
8
Layer 1
10
48.241166
20
334.847952
11
47.599047
21
333.286288
0
LINE
8
Layer 1
10
47.599047
20
333.286288
11
46.781412
21
331.132514
0
LINE
8
Layer 1
10
46.781412
20
331.132514
11
45.633697
21
327.446769
0
LINE
8
Layer 1
10
45.633697
20
327.446769
11
42.951411
21
317.544878
0
LINE
8
Layer 1
10
42.951411
20
317.544878
11
38.980446
21
302.266448
0
LINE
8
Layer 1
10
38.980446
20
302.266448
11
38.800201
21
302.074311
0
LINE
8
Layer 1
10
38.800201
20
302.074311
11
38.441922
21
302.072241
0
LINE
8
Layer 1
10
38.441922
20
302.072241
11
37.208649
21
302.624157
0
LINE
8
Layer 1
10
37.208649
20
302.624157
11
35.315405
21
303.893906
0
LINE
8
Layer 1
10
35.315405
20
303.893906
11
32.796967
21
305.853200
0
LINE
8
Layer 1
10
32.796967
20
305.853200
11
26.023622
21
311.727269
0
LINE
8
Layer 1
10
26.023622
20
311.727269
11
17.166838
21
320.020054
0
LINE
8
Layer 1
10
17.166838
20
320.020054
11
9.223637
21
327.499828
0
LINE
8
Layer 1
10
9.223637
20
327.499828
11
1.400363
21
334.554642
0
LINE
8
Layer 1
10
1.400363
20
334.554642
11
-6.289948
21
341.176547
0
LINE
8
Layer 1
10
-6.289948
20
341.176547
11
-13.834260
21
347.357594
0
LINE
8
Layer 1
10
-13.834260
20
347.357594
11
-21.219537
21
353.089835
0
LINE
8
Layer 1
10
-21.219537
20
353.089835
11
-28.432742
21
358.365322
0
LINE
8
Layer 1
10
-28.432742
20
358.365322
11
-35.460839
21
363.176105
0
LINE
8
Layer 1
10
-35.460839
20
363.176105
11
-42.290794
21
367.514236
0
LINE
8
Layer 1
10
-42.290794
20
367.514236
11
-48.909569
21
371.371768
0
LINE
8
Layer 1
10
-48.909569
20
371.371768
11
-55.304129
21
374.740750
0
LINE
8
Layer 1
10
-55.304129
20
374.740750
11
-61.461438
21
377.613235
0
LINE
8
Layer 1
10
-61.461438
20
377.613235
11
-67.368459
21
379.981274
0
LINE
8
Layer 1
10
-67.368459
20
379.981274
11
-73.012157
21
381.836918
0
LINE
8
Layer 1
10
-73.012157
20
381.836918
11
-78.379496
21
383.172220
0
LINE
8
Layer 1
10
-78.379496
20
383.172220
11
-83.457439
21
383.979229
0
LINE
8
Layer 1
10
-83.457439
20
383.979229
11
-88.232951
21
384.249999
0
LINE
8
Layer 1
10
-88.232951
20
384.249999
11
-95.533834
21
384.249999
0
LINE
8
Layer 1
10
-95.533834
20
384.249999
11
-94.340762
21
360.032442
0
LINE
8
Layer 1
10
-94.340762
20
360.032442
11
-93.656663
21
348.880851
0
LINE
8
Layer 1
10
-93.656663
20
348.880851
11
-92.620907
21
335.456910
0
LINE
8
Layer 1
10
-92.620907
20
335.456910
11
-89.866194
21
305.495897
0
LINE
8
Layer 1
10
-89.866194
20
305.495897
11
-86.820168
21
277.557245
0
LINE
8
Layer 1
10
-86.820168
20
277.557245
11
-85.420270
21
266.661255
0
LINE
8
Layer 1
10
-85.420270
20
266.661255
11
-84.226372
21
259.048796
0
LINE
8
Layer 1
10
-84.226372
20
259.048796
11
-82.700605
21
250.179366
0
LINE
8
Layer 1
10
-82.700605
20
250.179366
11
-81.430667
21
241.686945
0
LINE
8
Layer 1
10
-81.430667
20
241.686945
11
-80.658234
21
237.781552
0
LINE
8
Layer 1
10
-80.658234
20
237.781552
11
-79.360717
21
233.229152
0
LINE
8
Layer 1
10
-79.360717
20
233.229152
11
-77.718131
21
228.596348
0
LINE
8
Layer 1
10
-77.718131
20
228.596348
11
-75.910491
21
224.449743
0
LINE
8
Layer 1
10
-75.910491
20
224.449743
11
-74.240250
21
220.900362
0
LINE
8
Layer 1
10
-74.240250
20
220.900362
11
-72.972089
21
217.893585
0
LINE
8
Layer 1
10
-72.972089
20
217.893585
11
-72.229355
21
215.747582
0
LINE
8
Layer 1
10
-72.229355
20
215.747582
11
-72.135399
21
214.780527
0
LINE
8
Layer 1
10
-72.135399
20
214.780527
11
-73.166322
21
214.832769
0
LINE
8
Layer 1
10
-73.166322
20
214.832769
11
-75.487051
21
215.461440
0
LINE
8
Layer 1
10
-75.487051
20
215.461440
11
-82.623739
21
218.021407
0
LINE
8
Layer 1
10
-82.623739
20
218.021407
11
-90.602708
21
220.978434
0
LINE
8
Layer 1
10
-90.602708
20
220.978434
11
-95.979008
21
222.615620
0
LINE
8
Layer 1
10
-95.979008
20
222.615620
11
-103.337923
21
224.667653
0
LINE
8
Layer 1
10
-103.337923
20
224.667653
11
-116.083142
21
228.616588
0
LINE
8
Layer 1
10
-116.083142
20
228.616588
11
-129.948026
21
232.827947
0
LINE
8
Layer 1
10
-129.948026
20
232.827947
11
-143.547070
21
236.528456
0
LINE
8
Layer 1
10
-143.547070
20
236.528456
11
-156.797619
21
239.702937
0
LINE
8
Layer 1
10
-156.797619
20
239.702937
11
-169.617015
21
242.336212
0
LINE
8
Layer 1
10
-169.617015
20
242.336212
11
-181.922603
21
244.413104
0
LINE
8
Layer 1
10
-181.922603
20
244.413104
11
-193.631725
21
245.918435
0
LINE
8
Layer 1
10
-193.631725
20
245.918435
11
-204.661725
21
246.837026
0
LINE
8
Layer 1
10
-204.661725
20
246.837026
11
-214.929946
21
247.153702
0
LINE
8
Layer 1
10
-214.929946
20
247.153702
11
-224.729287
21
247.359545
0
LINE
8
Layer 1
10
-224.729287
20
247.359545
11
-236.441001
21
247.919873
0
LINE
8
Layer 1
10
-236.441001
20
247.919873
11
-249.406069
21
248.776853
0
LINE
8
Layer 1
10
-249.406069
20
248.776853
11
-262.965472
21
249.872652
0
LINE
8
Layer 1
10
-262.965472
20
249.872652
11
-276.460190
21
251.149438
0
LINE
8
Layer 1
10
-276.460190
20
251.149438
11
-289.231205
21
252.549378
0
LINE
8
Layer 1
10
-289.231205
20
252.549378
11
-300.619498
21
254.014639
0
LINE
8
Layer 1
10
-300.619498
20
254.014639
11
-309.966050
21
255.487389
0
LINE
8
Layer 1
10
-309.966050
20
255.487389
11
-331.904312
21
259.351513
0
LINE
8
Layer 1
10
-331.904312
20
259.351513
11
-334.515857
21
259.977536
0
LINE
8
Layer 1
10
-334.515857
20
259.977536
11
-337.572424
21
261.021118
0
LINE
8
Layer 1
10
-337.572424
20
261.021118
11
-340.693025
21
262.338385
0
LINE
8
Layer 1
10
-340.693025
20
262.338385
11
-343.496674
21
263.785464
0
LINE
8
Layer 1
10
-343.496674
20
263.785464
11
-345.818142
21
265.029656
0
LINE
8
Layer 1
10
-345.818142
20
265.029656
11
-347.626125
21
265.793596
0
LINE
8
Layer 1
10
-347.626125
20
265.793596
11
-348.740524
21
266.016452
0
LINE
8
Layer 1
10
-348.740524
20
266.016452
11
-348.981349
21
265.905965
0
LINE
8
Layer 1
10
-348.981349
20
265.905965
11
-348.981240
21
265.637395
0
LINE
8
Layer 1
10
-348.981240
20
265.637395
11
-346.253259
21
262.305856
0
LINE
8
Layer 1
10
-346.253259
20
262.305856
11
-339.284268
21
254.488711
0
LINE
8
Layer 1
10
-339.284268
20
254.488711
11
-316.839544
21
230.058955
0
LINE
8
Layer 1
10
-316.839544
20
230.058955
11
-304.032184
21
216.542533
0
LINE
8
Layer 1
10
-304.032184
20
216.542533
11
-292.414265
21
204.943961
0
LINE
8
Layer 1
10
-292.414265
20
204.943961
11
-286.837955
21
199.696108
0
LINE
8
Layer 1
10
-286.837955
20
199.696108
11
-281.302937
21
194.726403
0
LINE
8
Layer 1
10
-281.302937
20
194.726403
11
-275.723853
21
189.967744
0
LINE
8
Layer 1
10
-275.723853
20
189.967744
11
-270.015348
21
185.353025
0
LINE
8
Layer 1
10
-270.015348
20
185.353025
11
-264.092066
21
180.815143
0
LINE
8
Layer 1
10
-264.092066
20
180.815143
11
-257.868649
21
176.286992
0
LINE
8
Layer 1
10
-257.868649
20
176.286992
11
-251.259742
21
171.701469
0
LINE
8
Layer 1
10
-251.259742
20
171.701469
11
-244.179988
21
166.991469
0
LINE
8
Layer 1
10
-244.179988
20
166.991469
11
-228.266516
21
156.929622
0
LINE
8
Layer 1
10
-228.266516
20
156.929622
11
-209.445380
21
145.564616
0
LINE
8
Layer 1
10
-209.445380
20
145.564616
11
-198.305018
21
138.774875
0
LINE
8
Layer 1
10
-198.305018
20
138.774875
11
-192.065724
21
134.666706
0
LINE
8
Layer 1
10
-192.065724
20
134.666706
11
-188.414292
21
132.447395
0
LINE
8
Layer 1
10
-188.414292
20
132.447395
11
-181.084532
21
128.446332
0
LINE
8
Layer 1
10
-181.084532
20
128.446332
11
-160.525187
21
117.726377
0
LINE
8
Layer 1
10
-160.525187
20
117.726377
11
-140.658011
21
107.761697
0
LINE
8
Layer 1
10
-140.658011
20
107.761697
11
-134.193461
21
104.704727
0
LINE
8
Layer 1
10
-134.193461
20
104.704727
11
-132.390105
21
103.944959
0
LINE
8
Layer 1
10
-132.390105
20
103.944959
11
-131.753325
21
103.807146
0
LINE
8
Layer 1
10
-131.753325
20
103.807146
11
-131.569039
21
103.882957
0
LINE
8
Layer 1
10
-131.569039
20
103.882957
11
-131.040869
21
103.772521
0
LINE
8
Layer 1
10
-131.040869
20
103.772521
11
-129.101082
21
103.054978
0
LINE
8
Layer 1
10
-129.101082
20
103.054978
11
-122.725163
21
100.067673
0
LINE
8
Layer 1
10
-122.725163
20
100.067673
11
-117.690988
21
97.852881
0
LINE
8
Layer 1
10
-117.690988
20
97.852881
11
-110.958636
21
95.362314
0
LINE
8
Layer 1
10
-110.958636
20
95.362314
11
-103.133829
21
92.771387
0
LINE
8
Layer 1
10
-103.133829
20
92.771387
11
-94.822291
21
90.255515
0
LINE
8
Layer 1
10
-94.822291
20
90.255515
11
-86.629745
21
87.990116
0
LINE
8
Layer 1
10
-86.629745
20
87.990116
11
-79.161914
21
86.150604
0
LINE
8
Layer 1
10
-79.161914
20
86.150604
11
-73.024522
21
84.912396
0
LINE
8
Layer 1
10
-73.024522
20
84.912396
11
-70.644030
21
84.573598
0
LINE
8
Layer 1
10
-70.644030
20
84.573598
11
-68.823292
21
84.450906
0
LINE
8
Layer 1
10
-68.823292
20
84.450906
11
-63.214081
21
84.433098
0
LINE
8
Layer 1
10
-63.214081
20
84.433098
11
-70.390312
21
78.360889
0
LINE
8
Layer 1
10
-70.390312
20
78.360889
11
-74.567856
21
74.970421
0
LINE
8
Layer 1
10
-74.567856
20
74.970421
11
-76.064529
21
74.007567
0
LINE
8
Layer 1
10
-76.064529
20
74.007567
11
-77.351432
21
73.486397
0
LINE
8
Layer 1
10
-77.351432
20
73.486397
11
-78.567286
21
73.371984
0
LINE
8
Layer 1
10
-78.567286
20
73.371984
11
-79.850810
21
73.629401
0
LINE
8
Layer 1
10
-79.850810
20
73.629401
11
-81.340727
21
74.223722
0
LINE
8
Layer 1
10
-81.340727
20
74.223722
11
-83.175757
21
75.120019
0
LINE
8
Layer 1
10
-83.175757
20
75.120019
11
-86.894204
21
76.956724
0
LINE
8
Layer 1
10
-86.894204
20
76.956724
11
-90.063952
21
78.124119
0
LINE
8
Layer 1
10
-90.063952
20
78.124119
11
-94.877960
21
79.254091
0
LINE
8
Layer 1
10
-94.877960
20
79.254091
11
-103.529186
21
80.978529
0
LINE
8
Layer 1
10
-103.529186
20
80.978529
11
-109.749479
21
81.987847
0
LINE
8
Layer 1
10
-109.749479
20
81.987847
11
-112.478169
21
82.196179
0
LINE
8
Layer 1
10
-112.478169
20
82.196179
11
-115.165930
21
82.198967
0
LINE
8
Layer 1
10
-115.165930
20
82.198967
11
-117.972795
21
81.990214
0
LINE
8
Layer 1
10
-117.972795
20
81.990214
11
-121.058794
21
81.563923
0
LINE
8
Layer 1
10
-121.058794
20
81.563923
11
-128.708322
21
80.034749
0
LINE
8
Layer 1
10
-128.708322
20
80.034749
11
-132.945706
21
78.992776
0
LINE
8
Layer 1
10
-132.945706
20
78.992776
11
-136.878434
21
77.817423
0
LINE
8
Layer 1
10
-136.878434
20
77.817423
11
-140.511393
21
76.503605
0
LINE
8
Layer 1
10
-140.511393
20
76.503605
11
-143.849470
21
75.046236
0
LINE
8
Layer 1
10
-143.849470
20
75.046236
11
-146.897550
21
73.440232
0
LINE
8
Layer 1
10
-146.897550
20
73.440232
11
-149.660520
21
71.680506
0
LINE
8
Layer 1
10
-149.660520
20
71.680506
11
-152.143266
21
69.761973
0
LINE
8
Layer 1
10
-152.143266
20
69.761973
11
-154.350674
21
67.679547
0
LINE
8
Layer 1
10
-154.350674
20
67.679547
11
-156.287630
21
65.428144
0
LINE
8
Layer 1
10
-156.287630
20
65.428144
11
-157.959022
21
63.002676
0
LINE
8
Layer 1
10
-157.959022
20
63.002676
11
-159.369734
21
60.398060
0
LINE
8
Layer 1
10
-159.369734
20
60.398060
11
-160.524654
21
57.609208
0
LINE
8
Layer 1
10
-160.524654
20
57.609208
11
-161.428667
21
54.631037
0
LINE
8
Layer 1
10
-161.428667
20
54.631037
11
-162.086660
21
51.458459
0
LINE
8
Layer 1
10
-162.086660
20
51.458459
11
-162.503519
21
48.086391
0
LINE
8
Layer 1
10
-162.503519
20
48.086391
11
-162.684130
21
44.509745
0
LINE
8
Layer 1
10
-162.684130
20
44.509745
11
-162.826587
21
36.532198
0
LINE
8
Layer 1
10
-162.826587
20
36.532198
11
-176.270892
21
37.778689
0
LINE
8
Layer 1
10
-176.270892
20
37.778689
11
-180.129458
21
38.054226
0
LINE
8
Layer 1
10
-180.129458
20
38.054226
11
-183.735262
21
38.123360
0
LINE
8
Layer 1
10
-183.735262
20
38.123360
11
-187.109779
21
37.972143
0
LINE
8
Layer 1
10
-187.109779
20
37.972143
11
-190.274482
21
37.586628
0
LINE
8
Layer 1
10
-190.274482
20
37.586628
11
-193.250846
21
36.952864
0
LINE
8
Layer 1
10
-193.250846
20
36.952864
11
-196.060346
21
36.056906
0
LINE
8
Layer 1
10
-196.060346
20
36.056906
11
-198.724457
21
34.884804
0
LINE
8
Layer 1
10
-198.724457
20
34.884804
11
-201.264653
21
33.422610
0
LINE
8
Layer 1
10
-201.264653
20
33.422610
11
-203.702408
21
31.656376
0
LINE
8
Layer 1
10
-203.702408
20
31.656376
11
-206.059198
21
29.572154
0
LINE
8
Layer 1
10
-206.059198
20
29.572154
11
-208.356496
21
27.155996
0
LINE
8
Layer 1
10
-208.356496
20
27.155996
11
-210.615778
21
24.393953
0
LINE
8
Layer 1
10
-210.615778
20
24.393953
11
-212.858517
21
21.272078
0
LINE
8
Layer 1
10
-212.858517
20
21.272078
11
-215.106189
21
17.776422
0
LINE
8
Layer 1
10
-215.106189
20
17.776422
11
-217.380267
21
13.893037
0
LINE
8
Layer 1
10
-217.380267
20
13.893037
11
-219.702228
21
9.607975
0
LINE
8
Layer 1
10
-219.702228
20
9.607975
11
-221.611556
21
5.881255
0
LINE
8
Layer 1
10
-221.611556
20
5.881255
11
-223.082816
21
2.723383
0
LINE
8
Layer 1
10
-223.082816
20
2.723383
11
-224.171667
21
-0.123587
0
LINE
8
Layer 1
10
-224.171667
20
-0.123587
11
-224.933768
21
-2.917601
0
LINE
8
Layer 1
10
-224.933768
20
-2.917601
11
-225.424778
21
-5.916605
0
LINE
8
Layer 1
10
-225.424778
20
-5.916605
11
-225.700354
21
-9.378545
0
LINE
8
Layer 1
10
-225.700354
20
-9.378545
11
-225.827844
21
-18.723016
0
LINE
8
Layer 1
10
-225.827844
20
-18.723016
11
-225.639019
21
-27.371623
0
LINE
8
Layer 1
10
-225.639019
20
-27.371623
11
-225.396697
21
-30.625987
0
LINE
8
Layer 1
10
-225.396697
20
-30.625987
11
-225.023904
21
-33.347278
0
LINE
8
Layer 1
10
-225.023904
20
-33.347278
11
-224.496740
21
-35.670662
0
LINE
8
Layer 1
10
-224.496740
20
-35.670662
11
-223.791307
21
-37.731304
0
LINE
8
Layer 1
10
-223.791307
20
-37.731304
11
-222.883706
21
-39.664372
0
LINE
8
Layer 1
10
-222.883706
20
-39.664372
11
-221.750038
21
-41.605029
0
LINE
8
Layer 1
10
-221.750038
20
-41.605029
11
-220.151725
21
-43.821614
0
LINE
8
Layer 1
10
-220.151725
20
-43.821614
11
-218.162835
21
-46.039909
0
LINE
8
Layer 1
10
-218.162835
20
-46.039909
11
-215.815870
21
-48.235585
0
LINE
8
Layer 1
10
-215.815870
20
-48.235585
11
-213.143329
21
-50.384310
0
LINE
8
Layer 1
10
-213.143329
20
-50.384310
11
-210.177711
21
-52.461755
0
LINE
8
Layer 1
10
-210.177711
20
-52.461755
11
-206.951516
21
-54.443590
0
LINE
8
Layer 1
10
-206.951516
20
-54.443590
11
-203.497244
21
-56.305485
0
LINE
8
Layer 1
10
-203.497244
20
-56.305485
11
-199.847395
21
-58.023110
0
LINE
8
Layer 1
10
-199.847395
20
-58.023110
11
-196.940840
21
-59.448681
0
LINE
8
Layer 1
10
-196.940840
20
-59.448681
11
-196.056817
21
-59.999186
0
LINE
8
Layer 1
10
-196.056817
20
-59.999186
11
-195.733972
21
-60.338037
0
LINE
8
Layer 1
10
-195.733972
20
-60.338037
11
-197.082797
21
-63.332528
0
LINE
8
Layer 1
10
-197.082797
20
-63.332528
11
-200.310377
21
-69.829171
0
LINE
8
Layer 1
10
-200.310377
20
-69.829171
11
-201.641171
21
-72.649601
0
LINE
8
Layer 1
10
-201.641171
20
-72.649601
11
-202.742727
21
-75.421221
0
LINE
8
Layer 1
10
-202.742727
20
-75.421221
11
-203.613552
21
-78.153688
0
LINE
8
Layer 1
10
-203.613552
20
-78.153688
11
-204.252155
21
-80.856660
0
LINE
8
Layer 1
10
-204.252155
20
-80.856660
11
-204.657042
21
-83.539794
0
LINE
8
Layer 1
10
-204.657042
20
-83.539794
11
-204.826722
21
-86.212748
0
LINE
8
Layer 1
10
-204.826722
20
-86.212748
11
-204.759703
21
-88.885179
0
LINE
8
Layer 1
10
-204.759703
20
-88.885179
11
-204.454491
21
-91.566745
0
LINE
8
Layer 1
10
-204.454491
20
-91.566745
11
-203.909595
21
-94.267102
0
LINE
8
Layer 1
10
-203.909595
20
-94.267102
11
-203.123522
21
-96.995909
0
LINE
8
Layer 1
10
-203.123522
20
-96.995909
11
-202.094780
21
-99.762823
0
LINE
8
Layer 1
10
-202.094780
20
-99.762823
11
-200.821876
21
-102.577502
0
LINE
8
Layer 1
10
-200.821876
20
-102.577502
11
-199.303318
21
-105.449602
0
LINE
8
Layer 1
10
-199.303318
20
-105.449602
11
-197.537613
21
-108.388782
0
LINE
8
Layer 1
10
-197.537613
20
-108.388782
11
-195.523270
21
-111.404698
0
LINE
8
Layer 1
10
-195.523270
20
-111.404698
11
-193.258796
21
-114.507009
0
LINE
8
Layer 1
10
-193.258796
20
-114.507009
11
-191.188963
21
-117.069328
0
LINE
8
Layer 1
10
-191.188963
20
-117.069328
11
-188.979393
21
-119.490388
0
LINE
8
Layer 1
10
-188.979393
20
-119.490388
11
-186.636904
21
-121.766871
0
LINE
8
Layer 1
10
-186.636904
20
-121.766871
11
-184.168318
21
-123.895458
0
LINE
8
Layer 1
10
-184.168318
20
-123.895458
11
-181.580452
21
-125.872830
0
LINE
8
Layer 1
10
-181.580452
20
-125.872830
11
-178.880128
21
-127.695668
0
LINE
8
Layer 1
10
-178.880128
20
-127.695668
11
-176.074164
21
-129.360653
0
LINE
8
Layer 1
10
-176.074164
20
-129.360653
11
-173.169382
21
-130.864468
0
LINE
8
Layer 1
10
-173.169382
20
-130.864468
11
-170.172601
21
-132.203792
0
LINE
8
Layer 1
10
-170.172601
20
-132.203792
11
-167.090640
21
-133.375307
0
LINE
8
Layer 1
10
-167.090640
20
-133.375307
11
-163.930319
21
-134.375694
0
LINE
8
Layer 1
10
-163.930319
20
-134.375694
11
-160.698459
21
-135.201635
0
LINE
8
Layer 1
10
-160.698459
20
-135.201635
11
-157.401879
21
-135.849810
0
LINE
8
Layer 1
10
-157.401879
20
-135.849810
11
-154.047399
21
-136.316902
0
LINE
8
Layer 1
10
-154.047399
20
-136.316902
11
-150.641839
21
-136.599591
0
LINE
8
Layer 1
10
-150.641839
20
-136.599591
11
-147.192018
21
-136.694558
0
LINE
8
Layer 1
10
-147.192018
20
-136.694558
11
-139.452689
21
-136.554635
0
LINE
8
Layer 1
10
-139.452689
20
-136.554635
11
-136.755582
21
-136.239386
0
LINE
8
Layer 1
10
-136.755582
20
-136.239386
11
-134.501206
21
-135.635861
0
LINE
8
Layer 1
10
-134.501206
20
-135.635861
11
-132.435330
21
-134.650496
0
LINE
8
Layer 1
10
-132.435330
20
-134.650496
11
-130.303723
21
-133.189727
0
LINE
8
Layer 1
10
-130.303723
20
-133.189727
11
-127.852154
21
-131.159991
0
LINE
8
Layer 1
10
-127.852154
20
-131.159991
11
-124.826392
21
-128.467724
0
LINE
8
Layer 1
10
-124.826392
20
-128.467724
11
-121.165186
21
-125.273704
0
LINE
8
Layer 1
10
-121.165186
20
-125.273704
11
-117.960012
21
-122.657784
0
LINE
8
Layer 1
10
-117.960012
20
-122.657784
11
-115.557039
21
-120.890118
0
LINE
8
Layer 1
10
-115.557039
20
-120.890118
11
-114.302438
21
-120.240861
0
LINE
8
Layer 1
10
-114.302438
20
-120.240861
11
-113.078796
21
-120.890118
0
LINE
8
Layer 1
10
-113.078796
20
-120.890118
11
-110.758616
21
-122.657784
0
LINE
8
Layer 1
10
-110.758616
20
-122.657784
11
-107.672847
21
-125.273704
0
LINE
8
Layer 1
10
-107.672847
20
-125.273704
11
-104.152435
21
-128.467724
0
LINE
8
Layer 1
10
-104.152435
20
-128.467724
11
-95.355763
21
-136.694558
0
LINE
8
Layer 1
10
-95.355763
20
-136.694558
11
-81.501897
21
-136.694558
0
LINE
8
Layer 1
10
-81.501897
20
-136.694558
11
-74.206942
21
-136.497359
0
LINE
8
Layer 1
10
-74.206942
20
-136.497359
11
-71.233503
21
-136.215045
0
LINE
8
Layer 1
10
-71.233503
20
-136.215045
11
-68.552739
21
-135.778422
0
LINE
8
Layer 1
10
-68.552739
20
-135.778422
11
-66.047137
21
-135.163612
0
LINE
8
Layer 1
10
-66.047137
20
-135.163612
11
-63.599186
21
-134.346741
0
LINE
8
Layer 1
10
-63.599186
20
-134.346741
11
-61.091372
21
-133.303930
0
LINE
8
Layer 1
10
-61.091372
20
-133.303930
11
-58.406182
21
-132.011306
0
LINE
8
Layer 1
10
-58.406182
20
-132.011306
11
-55.479583
21
-130.408450
0
LINE
8
Layer 1
10
-55.479583
20
-130.408450
11
-52.500182
21
-128.551403
0
LINE
8
Layer 1
10
-52.500182
20
-128.551403
11
-49.501318
21
-126.475403
0
LINE
8
Layer 1
10
-49.501318
20
-126.475403
11
-46.516330
21
-124.215686
0
LINE
8
Layer 1
10
-46.516330
20
-124.215686
11
-40.721335
21
-119.286060
0
LINE
8
Layer 1
10
-40.721335
20
-119.286060
11
-35.381905
21
-114.044429
0
LINE
8
Layer 1
10
-35.381905
20
-114.044429
11
-30.764746
21
-108.772697
0
LINE
8
Layer 1
10
-30.764746
20
-108.772697
11
-28.810364
21
-106.213639
0
LINE
8
Layer 1
10
-28.810364
20
-106.213639
11
-27.136566
21
-103.752770
0
LINE
8
Layer 1
10
-27.136566
20
-103.752770
11
-25.776689
21
-101.425328
0
LINE
8
Layer 1
10
-25.776689
20
-101.425328
11
-24.764072
21
-99.266552
0
LINE
8
Layer 1
10
-24.764072
20
-99.266552
11
-24.132054
21
-97.311678
0
LINE
8
Layer 1
10
-24.132054
20
-97.311678
11
-23.913973
21
-95.595947
0
LINE
8
Layer 1
10
-23.913973
20
-95.595947
11
-23.775118
21
-94.036232
0
LINE
8
Layer 1
10
-23.775118
20
-94.036232
11
-23.399110
21
-93.110702
0
LINE
8
Layer 1
10
-23.399110
20
-93.110702
11
-22.846772
21
-92.777867
0
LINE
8
Layer 1
10
-22.846772
20
-92.777867
11
-22.178932
21
-92.996236
0
LINE
8
Layer 1
10
-22.178932
20
-92.996236
11
-21.456414
21
-93.724316
0
LINE
8
Layer 1
10
-21.456414
20
-93.724316
11
-20.740046
21
-94.920616
0
LINE
8
Layer 1
10
-20.740046
20
-94.920616
11
-20.090652
21
-96.543646
0
LINE
8
Layer 1
10
-20.090652
20
-96.543646
11
-19.569057
21
-98.551914
0
LINE
8
Layer 1
10
-19.569057
20
-98.551914
11
-18.680135
21
-101.630651
0
LINE
8
Layer 1
10
-18.680135
20
-101.630651
11
-17.158762
21
-105.396808
0
LINE
8
Layer 1
10
-17.158762
20
-105.396808
11
-15.124129
21
-109.639860
0
LINE
8
Layer 1
10
-15.124129
20
-109.639860
11
-12.695425
21
-114.149281
0
LINE
8
Layer 1
10
-12.695425
20
-114.149281
11
-9.991840
21
-118.714547
0
LINE
8
Layer 1
10
-9.991840
20
-118.714547
11
-7.132564
21
-123.125132
0
LINE
8
Layer 1
10
-7.132564
20
-123.125132
11
-4.236787
21
-127.170511
0
LINE
8
Layer 1
10
-4.236787
20
-127.170511
11
-1.423698
21
-130.640157
0
LINE
8
Layer 1
10
-1.423698
20
-130.640157
11
1.969087
21
-134.292403
0
LINE
8
Layer 1
10
1.969087
20
-134.292403
11
5.168294
21
-137.116092
0
LINE
8
Layer 1
10
5.168294
20
-137.116092
11
6.795385
21
-138.244854
0
LINE
8
Layer 1
10
6.795385
20
-138.244854
11
8.494176
21
-139.199630
0
LINE
8
Layer 1
10
8.494176
20
-139.199630
11
10.304699
21
-139.991469
0
LINE
8
Layer 1
10
10.304699
20
-139.991469
11
12.266985
21
-140.631424
0
LINE
8
Layer 1
10
12.266985
20
-140.631424
11
14.421066
21
-141.130544
0
LINE
8
Layer 1
10
14.421066
20
-141.130544
11
16.806974
21
-141.499880
0
LINE
8
Layer 1
10
16.806974
20
-141.499880
11
22.434396
21
-141.893405
0
LINE
8
Layer 1
10
22.434396
20
-141.893405
11
29.469504
21
-141.900406
0
LINE
8
Layer 1
10
29.469504
20
-141.900406
11
38.232548
21
-141.609288
0
LINE
8
Layer 1
10
38.232548
20
-141.609288
11
42.712049
21
-141.545456
0
LINE
8
Layer 1
10
42.712049
20
-141.545456
11
44.184528
21
-141.700344
0
LINE
8
Layer 1
10
44.184528
20
-141.700344
11
45.247098
21
-142.029327
0
LINE
8
Layer 1
10
45.247098
20
-142.029327
11
45.975964
21
-142.569571
0
LINE
8
Layer 1
10
45.975964
20
-142.569571
11
46.447330
21
-143.358245
0
LINE
8
Layer 1
10
46.447330
20
-143.358245
11
46.737401
21
-144.432517
0
LINE
8
Layer 1
10
46.737401
20
-144.432517
11
46.922380
21
-145.829555
0
LINE
8
Layer 1
10
46.922380
20
-145.829555
11
47.808178
21
-151.811276
0
LINE
8
Layer 1
10
47.808178
20
-151.811276
11
49.290712
21
-159.772462
0
LINE
8
Layer 1
10
49.290712
20
-159.772462
11
49.853966
21
-162.100921
0
LINE
8
Layer 1
10
49.853966
20
-162.100921
11
50.577310
21
-164.331873
0
LINE
8
Layer 1
10
50.577310
20
-164.331873
11
51.462115
21
-166.466524
0
LINE
8
Layer 1
10
51.462115
20
-166.466524
11
52.509750
21
-168.506080
0
LINE
8
Layer 1
10
52.509750
20
-168.506080
11
53.721584
21
-170.451746
0
LINE
8
Layer 1
10
53.721584
20
-170.451746
11
55.098987
21
-172.304729
0
LINE
8
Layer 1
10
55.098987
20
-172.304729
11
56.643328
21
-174.066233
0
LINE
8
Layer 1
10
56.643328
20
-174.066233
11
58.355976
21
-175.737466
0
LINE
8
Layer 1
10
58.355976
20
-175.737466
11
60.238301
21
-177.319632
0
LINE
8
Layer 1
10
60.238301
20
-177.319632
11
62.291672
21
-178.813937
0
LINE
8
Layer 1
10
62.291672
20
-178.813937
11
64.517459
21
-180.221588
0
LINE
8
Layer 1
10
64.517459
20
-180.221588
11
66.917030
21
-181.543790
0
LINE
8
Layer 1
10
66.917030
20
-181.543790
11
72.243004
21
-183.936670
0
LINE
8
Layer 1
10
72.243004
20
-183.936670
11
78.280551
21
-186.002223
0
LINE
8
Layer 1
10
78.280551
20
-186.002223
11
84.858237
21
-187.597255
0
LINE
8
Layer 1
10
84.858237
20
-187.597255
11
91.522586
21
-188.717289
0
LINE
8
Layer 1
10
91.522586
20
-188.717289
11
98.244862
21
-189.371962
0
LINE
8
Layer 1
10
98.244862
20
-189.371962
11
104.996330
21
-189.570913
0
LINE
8
Layer 1
10
104.996330
20
-189.570913
11
111.748255
21
-189.323777
0
LINE
8
Layer 1
10
111.748255
20
-189.323777
11
118.471903
21
-188.640192
0
LINE
8
Layer 1
10
118.471903
20
-188.640192
11
125.138537
21
-187.529795
0
LINE
8
Layer 1
10
125.138537
20
-187.529795
11
131.719424
21
-186.002223
0
LINE
8
Layer 1
10
131.719424
20
-186.002223
11
137.756976
21
-183.936670
0
LINE
8
Layer 1
10
137.756976
20
-183.936670
11
143.082953
21
-181.543790
0
LINE
8
Layer 1
10
143.082953
20
-181.543790
11
145.482525
21
-180.221588
0
LINE
8
Layer 1
10
145.482525
20
-180.221588
11
147.708313
21
-178.813937
0
LINE
8
Layer 1
10
147.708313
20
-178.813937
11
149.761684
21
-177.319632
0
LINE
8
Layer 1
10
149.761684
20
-177.319632
11
151.644010
21
-175.737466
0
LINE
8
Layer 1
10
151.644010
20
-175.737466
11
153.356659
21
-174.066233
0
LINE
8
Layer 1
10
153.356659
20
-174.066233
11
154.901001
21
-172.304729
0
LINE
8
Layer 1
10
154.901001
20
-172.304729
11
156.278405
21
-170.451746
0
LINE
8
Layer 1
10
156.278405
20
-170.451746
11
157.490241
21
-168.506080
0
LINE
8
Layer 1
10
157.490241
20
-168.506080
11
158.537878
21
-166.466524
0
LINE
8
Layer 1
10
158.537878
20
-166.466524
11
159.422686
21
-164.331873
0
LINE
8
Layer 1
10
159.422686
20
-164.331873
11
160.146033
21
-162.100921
0
LINE
8
Layer 1
10
160.146033
20
-162.100921
11
160.709291
21
-159.772462
0
LINE
8
Layer 1
10
160.709291
20
-159.772462
11
162.191819
21
-151.811276
0
LINE
8
Layer 1
10
162.191819
20
-151.811276
11
163.077615
21
-145.829555
0
LINE
8
Layer 1
10
163.077615
20
-145.829555
11
163.262590
21
-144.432517
0
LINE
8
Layer 1
10
163.262590
20
-144.432517
11
163.552658
21
-143.358245
0
LINE
8
Layer 1
10
163.552658
20
-143.358245
11
164.024024
21
-142.569571
0
LINE
8
Layer 1
10
164.024024
20
-142.569571
11
164.752890
21
-142.029327
0
LINE
8
Layer 1
10
164.752890
20
-142.029327
11
165.815461
21
-141.700344
0
LINE
8
Layer 1
10
165.815461
20
-141.700344
11
167.287939
21
-141.545456
0
LINE
8
Layer 1
10
167.287939
20
-141.545456
11
171.767435
21
-141.609288
0
LINE
8
Layer 1
10
171.767435
20
-141.609288
11
180.530482
21
-141.900406
0
LINE
8
Layer 1
10
180.530482
20
-141.900406
11
187.565592
21
-141.893405
0
LINE
8
Layer 1
10
187.565592
20
-141.893405
11
193.193017
21
-141.499880
0
LINE
8
Layer 1
10
193.193017
20
-141.499880
11
195.578926
21
-141.130544
0
LINE
8
Layer 1
10
195.578926
20
-141.130544
11
197.733008
21
-140.631424
0
LINE
8
Layer 1
10
197.733008
20
-140.631424
11
199.695296
21
-139.991469
0
LINE
8
Layer 1
10
199.695296
20
-139.991469
11
201.505820
21
-139.199630
0
LINE
8
Layer 1
10
201.505820
20
-139.199630
11
203.204611
21
-138.244854
0
LINE
8
Layer 1
10
203.204611
20
-138.244854
11
204.831703
21
-137.116092
0
LINE
8
Layer 1
10
204.831703
20
-137.116092
11
208.030910
21
-134.292403
0
LINE
8
Layer 1
10
208.030910
20
-134.292403
11
211.423693
21
-130.640157
0
LINE
8
Layer 1
10
211.423693
20
-130.640157
11
214.236781
21
-127.170511
0
LINE
8
Layer 1
10
214.236781
20
-127.170511
11
217.132559
21
-123.125132
0
LINE
8
Layer 1
10
217.132559
20
-123.125132
11
219.991836
21
-118.714547
0
LINE
8
Layer 1
10
219.991836
20
-118.714547
11
222.695423
21
-114.149281
0
LINE
8
Layer 1
10
222.695423
20
-114.149281
11
225.124128
21
-109.639860
0
LINE
8
Layer 1
10
225.124128
20
-109.639860
11
227.158763
21
-105.396808
0
LINE
8
Layer 1
10
227.158763
20
-105.396808
11
228.680136
21
-101.630651
0
LINE
8
Layer 1
10
228.680136
20
-101.630651
11
229.569058
21
-98.551914
0
LINE
8
Layer 1
10
229.569058
20
-98.551914
11
230.090652
21
-96.543646
0
LINE
8
Layer 1
10
230.090652
20
-96.543646
11
230.740045
21
-94.920616
0
LINE
8
Layer 1
10
230.740045
20
-94.920616
11
231.456411
21
-93.724316
0
LINE
8
Layer 1
10
231.456411
20
-93.724316
11
232.178926
21
-92.996236
0
LINE
8
Layer 1
10
232.178926
20
-92.996236
11
232.846762
21
-92.777867
0
LINE
8
Layer 1
10
232.846762
20
-92.777867
11
233.399096
21
-93.110702
0
LINE
8
Layer 1
10
233.399096
20
-93.110702
11
233.775102
21
-94.036232
0
LINE
8
Layer 1
10
233.775102
20
-94.036232
11
233.913954
21
-95.595947
0
LINE
8
Layer 1
10
233.913954
20
-95.595947
11
234.132035
21
-97.311678
0
LINE
8
Layer 1
10
234.132035
20
-97.311678
11
234.764053
21
-99.266552
0
LINE
8
Layer 1
10
234.764053
20
-99.266552
11
235.776670
21
-101.425328
0
LINE
8
Layer 1
10
235.776670
20
-101.425328
11
237.136547
21
-103.752770
0
LINE
8
Layer 1
10
237.136547
20
-103.752770
11
238.810346
21
-106.213639
0
LINE
8
Layer 1
10
238.810346
20
-106.213639
11
240.764728
21
-108.772697
0
LINE
8
Layer 1
10
240.764728
20
-108.772697
11
245.381888
21
-114.044429
0
LINE
8
Layer 1
10
245.381888
20
-114.044429
11
250.721319
21
-119.286060
0
LINE
8
Layer 1
10
250.721319
20
-119.286060
11
256.516314
21
-124.215686
0
LINE
8
Layer 1
10
256.516314
20
-124.215686
11
259.501302
21
-126.475403
0
LINE
8
Layer 1
10
259.501302
20
-126.475403
11
262.500166
21
-128.551403
0
LINE
8
Layer 1
10
262.500166
20
-128.551403
11
265.479567
21
-130.408450
0
LINE
8
Layer 1
10
265.479567
20
-130.408450
11
268.406166
21
-132.011306
0
LINE
8
Layer 1
10
268.406166
20
-132.011306
11
271.091357
21
-133.303930
0
LINE
8
Layer 1
10
271.091357
20
-133.303930
11
273.599172
21
-134.346741
0
LINE
8
Layer 1
10
273.599172
20
-134.346741
11
276.047124
21
-135.163612
0
LINE
8
Layer 1
10
276.047124
20
-135.163612
11
278.552726
21
-135.778422
0
LINE
8
Layer 1
10
278.552726
20
-135.778422
11
281.233491
21
-136.215045
0
LINE
8
Layer 1
10
281.233491
20
-136.215045
11
284.206930
21
-136.497359
0
LINE
8
Layer 1
10
284.206930
20
-136.497359
11
291.501886
21
-136.694558
0
LINE
8
Layer 1
10
291.501886
20
-136.694558
11
305.355752
21
-136.694558
0
LINE
8
Layer 1
10
305.355752
20
-136.694558
11
314.152421
21
-128.467724
0
LINE
8
Layer 1
10
314.152421
20
-128.467724
11
317.672848
21
-125.273704
0
LINE
8
Layer 1
10
317.672848
20
-125.273704
11
320.758622
21
-122.657784
0
LINE
8
Layer 1
10
320.758622
20
-122.657784
11
323.078799
21
-120.890118
0
LINE
8
Layer 1
10
323.078799
20
-120.890118
11
324.302430
21
-120.240861
0
LINE
8
Layer 1
10
324.302430
20
-120.240861
11
325.557031
21
-120.890118
0
LINE
8
Layer 1
10
325.557031
20
-120.890118
11
327.960006
21
-122.657784
0
LINE
8
Layer 1
10
327.960006
20
-122.657784
11
331.165181
21
-125.273704
0
LINE
8
Layer 1
10
331.165181
20
-125.273704
11
334.826384
21
-128.467724
0
LINE
8
Layer 1
10
334.826384
20
-128.467724
11
337.852145
21
-131.159991
0
LINE
8
Layer 1
10
337.852145
20
-131.159991
11
340.303714
21
-133.189727
0
LINE
8
Layer 1
10
340.303714
20
-133.189727
11
342.435323
21
-134.650496
0
LINE
8
Layer 1
10
342.435323
20
-134.650496
11
344.501202
21
-135.635861
0
LINE
8
Layer 1
10
344.501202
20
-135.635861
11
346.755580
21
-136.239386
0
LINE
8
Layer 1
10
346.755580
20
-136.239386
11
349.452688
21
-136.554635
0
LINE
8
Layer 1
10
349.452688
20
-136.554635
11
357.192016
21
-136.694558
0
LINE
8
Layer 1
10
357.192016
20
-136.694558
11
360.641836
21
-136.599591
0
LINE
8
Layer 1
10
360.641836
20
-136.599591
11
364.047395
21
-136.316902
0
LINE
8
Layer 1
10
364.047395
20
-136.316902
11
367.401875
21
-135.849810
0
LINE
8
Layer 1
10
367.401875
20
-135.849810
11
370.698455
21
-135.201635
0
LINE
8
Layer 1
10
370.698455
20
-135.201635
11
373.930314
21
-134.375694
0
LINE
8
Layer 1
10
373.930314
20
-134.375694
11
377.090634
21
-133.375307
0
LINE
8
Layer 1
10
377.090634
20
-133.375307
11
380.172594
21
-132.203792
0
LINE
8
Layer 1
10
380.172594
20
-132.203792
11
383.169375
21
-130.864468
0
LINE
8
Layer 1
10
383.169375
20
-130.864468
11
386.074157
21
-129.360653
0
LINE
8
Layer 1
10
386.074157
20
-129.360653
11
388.880119
21
-127.695668
0
LINE
8
Layer 1
10
388.880119
20
-127.695668
11
391.580443
21
-125.872830
0
LINE
8
Layer 1
10
391.580443
20
-125.872830
11
394.168308
21
-123.895458
0
LINE
8
Layer 1
10
394.168308
20
-123.895458
11
396.636894
21
-121.766871
0
LINE
8
Layer 1
10
396.636894
20
-121.766871
11
398.979381
21
-119.490388
0
LINE
8
Layer 1
10
398.979381
20
-119.490388
11
401.188951
21
-117.069328
0
LINE
8
Layer 1
10
401.188951
20
-117.069328
11
403.258782
21
-114.507009
0
LINE
8
Layer 1
10
403.258782
20
-114.507009
11
405.523258
21
-111.404698
0
LINE
8
Layer 1
10
405.523258
20
-111.404698
11
407.537603
21
-108.388782
0
LINE
8
Layer 1
10
407.537603
20
-108.388782
11
409.303308
21
-105.449602
0
LINE
8
Layer 1
10
409.303308
20
-105.449602
11
410.821867
21
-102.577502
0
LINE
8
Layer 1
10
410.821867
20
-102.577502
11
412.094772
21
-99.762823
0
LINE
8
Layer 1
10
412.094772
20
-99.762823
11
413.123514
21
-96.995909
0
LINE
8
Layer 1
10
413.123514
20
-96.995909
11
413.909588
21
-94.267102
0
LINE
8
Layer 1
10
413.909588
20
-94.267102
11
414.454485
21
-91.566745
0
LINE
8
Layer 1
10
414.454485
20
-91.566745
11
414.759697
21
-88.885179
0
LINE
8
Layer 1
10
414.759697
20
-88.885179
11
414.826717
21
-86.212748
0
LINE
8
Layer 1
10
414.826717
20
-86.212748
11
414.657038
21
-83.539794
0
LINE
8
Layer 1
10
414.657038
20
-83.539794
11
414.252152
21
-80.856660
0
LINE
8
Layer 1
10
414.252152
20
-80.856660
11
413.613551
21
-78.153688
0
LINE
8
Layer 1
10
413.613551
20
-78.153688
11
412.742729
21
-75.421221
0
LINE
8
Layer 1
10
412.742729
20
-75.421221
11
411.641176
21
-72.649601
0
LINE
8
Layer 1
10
411.641176
20
-72.649601
11
410.310386
21
-69.829171
0
LINE
8
Layer 1
10
410.310386
20
-69.829171
11
407.082794
21
-63.332528
0
LINE
8
Layer 1
10
407.082794
20
-63.332528
11
405.733956
21
-60.338037
0
LINE
8
Layer 1
10
405.733956
20
-60.338037
11
406.056808
21
-59.999186
0
LINE
8
Layer 1
10
406.056808
20
-59.999186
11
406.940837
21
-59.448681
0
LINE
8
Layer 1
10
406.940837
20
-59.448681
11
409.847401
21
-58.023110
0
LINE
8
Layer 1
10
409.847401
20
-58.023110
11
413.497251
21
-56.305485
0
LINE
8
Layer 1
10
413.497251
20
-56.305485
11
416.951522
21
-54.443590
0
LINE
8
Layer 1
10
416.951522
20
-54.443590
11
420.177717
21
-52.461755
0
LINE
8
Layer 1
10
420.177717
20
-52.461755
11
423.143334
21
-50.384310
0
LINE
8
Layer 1
10
423.143334
20
-50.384310
11
425.815875
21
-48.235585
0
LINE
8
Layer 1
10
425.815875
20
-48.235585
11
428.162841
21
-46.039909
0
LINE
8
Layer 1
10
428.162841
20
-46.039909
11
430.151731
21
-43.821614
0
LINE
8
Layer 1
10
430.151731
20
-43.821614
11
431.750047
21
-41.605029
0
LINE
8
Layer 1
10
431.750047
20
-41.605029
11
432.883712
21
-39.664372
0
LINE
8
Layer 1
10
432.883712
20
-39.664372
11
433.791311
21
-37.731304
0
LINE
8
Layer 1
10
433.791311
20
-37.731304
11
434.496743
21
-35.670662
0
LINE
8
Layer 1
10
434.496743
20
-35.670662
11
435.023906
21
-33.347278
0
LINE
8
Layer 1
10
435.023906
20
-33.347278
11
435.396699
21
-30.625987
0
LINE
8
Layer 1
10
435.396699
20
-30.625987
11
435.639021
21
-27.371623
0
LINE
8
Layer 1
10
435.639021
20
-27.371623
11
435.827847
21
-18.723016
0
LINE
8
Layer 1
10
435.827847
20
-18.723016
11
435.700349
21
-9.378545
0
LINE
8
Layer 1
10
435.700349
20
-9.378545
11
435.424769
21
-5.916605
0
LINE
8
Layer 1
10
435.424769
20
-5.916605
11
434.933757
21
-2.917601
0
LINE
8
Layer 1
10
434.933757
20
-2.917601
11
434.171654
21
-0.123587
0
LINE
8
Layer 1
10
434.171654
20
-0.123587
11
433.082802
21
2.723383
0
LINE
8
Layer 1
10
433.082802
20
2.723383
11
431.611541
21
5.881255
0
LINE
8
Layer 1
10
431.611541
20
5.881255
11
429.702214
21
9.607975
0
LINE
8
Layer 1
10
429.702214
20
9.607975
11
427.380257
21
13.893037
0
LINE
8
Layer 1
10
427.380257
20
13.893037
11
425.106181
21
17.776422
0
LINE
8
Layer 1
10
425.106181
20
17.776422
11
422.858512
21
21.272078
0
LINE
8
Layer 1
10
422.858512
20
21.272078
11
420.615775
21
24.393953
0
LINE
8
Layer 1
10
420.615775
20
24.393953
11
418.356496
21
27.155996
0
LINE
8
Layer 1
10
418.356496
20
27.155996
11
416.059199
21
29.572154
0
LINE
8
Layer 1
10
416.059199
20
29.572154
11
413.702411
21
31.656376
0
LINE
8
Layer 1
10
413.702411
20
31.656376
11
411.264657
21
33.422610
0
LINE
8
Layer 1
10
411.264657
20
33.422610
11
408.724463
21
34.884804
0
LINE
8
Layer 1
10
408.724463
20
34.884804
11
406.060353
21
36.056906
0
LINE
8
Layer 1
10
406.060353
20
36.056906
11
403.250853
21
36.952864
0
LINE
8
Layer 1
10
403.250853
20
36.952864
11
400.274488
21
37.586628
0
LINE
8
Layer 1
10
400.274488
20
37.586628
11
397.109785
21
37.972143
0
LINE
8
Layer 1
10
397.109785
20
37.972143
11
393.735268
21
38.123360
0
LINE
8
Layer 1
10
393.735268
20
38.123360
11
390.129463
21
38.054226
0
LINE
8
Layer 1
10
390.129463
20
38.054226
11
386.270895
21
37.778689
0
LINE
8
Layer 1
10
386.270895
20
37.778689
11
372.826590
21
36.532198
0
LINE
8
Layer 1
10
372.826590
20
36.532198
11
372.684125
21
44.509745
0
LINE
8
Layer 1
10
372.684125
20
44.509745
11
372.503515
21
48.086391
0
LINE
8
Layer 1
10
372.503515
20
48.086391
11
372.086658
21
51.458459
0
LINE
8
Layer 1
10
372.086658
20
51.458459
11
371.428665
21
54.631037
0
LINE
8
Layer 1
10
371.428665
20
54.631037
11
370.524652
21
57.609208
0
LINE
8
Layer 1
10
370.524652
20
57.609208
11
369.369733
21
60.398060
0
LINE
8
Layer 1
10
369.369733
20
60.398060
11
367.959020
21
63.002676
0
LINE
8
Layer 1
10
367.959020
20
63.002676
11
366.287628
21
65.428144
0
LINE
8
Layer 1
10
366.287628
20
65.428144
11
364.350670
21
67.679547
0
LINE
8
Layer 1
10
364.350670
20
67.679547
11
362.143262
21
69.761973
0
LINE
8
Layer 1
10
362.143262
20
69.761973
11
359.660515
21
71.680506
0
LINE
8
Layer 1
10
359.660515
20
71.680506
11
356.897545
21
73.440232
0
LINE
8
Layer 1
10
356.897545
20
73.440232
11
353.849465
21
75.046236
0
LINE
8
Layer 1
10
353.849465
20
75.046236
11
350.511389
21
76.503605
0
LINE
8
Layer 1
10
350.511389
20
76.503605
11
346.878431
21
77.817423
0
LINE
8
Layer 1
10
346.878431
20
77.817423
11
342.945704
21
78.992776
0
LINE
8
Layer 1
10
342.945704
20
78.992776
11
338.708323
21
80.034749
0
LINE
8
Layer 1
10
338.708323
20
80.034749
11
331.058789
21
81.563923
0
LINE
8
Layer 1
10
331.058789
20
81.563923
11
327.972791
21
81.990214
0
LINE
8
Layer 1
10
327.972791
20
81.990214
11
325.165928
21
82.198967
0
LINE
8
Layer 1
10
325.165928
20
82.198967
11
322.478169
21
82.196179
0
LINE
8
Layer 1
10
322.478169
20
82.196179
11
319.749481
21
81.987847
0
LINE
8
Layer 1
10
319.749481
20
81.987847
11
313.529190
21
80.978529
0
LINE
8
Layer 1
10
313.529190
20
80.978529
11
304.877963
21
79.254091
0
LINE
8
Layer 1
10
304.877963
20
79.254091
11
300.063951
21
78.124119
0
LINE
8
Layer 1
10
300.063951
20
78.124119
11
296.894198
21
76.956724
0
LINE
8
Layer 1
10
296.894198
20
76.956724
11
293.175746
21
75.120019
0
LINE
8
Layer 1
10
293.175746
20
75.120019
11
291.340720
21
74.223722
0
LINE
8
Layer 1
10
291.340720
20
74.223722
11
289.850806
21
73.629401
0
LINE
8
Layer 1
10
289.850806
20
73.629401
11
288.567283
21
73.371984
0
LINE
8
Layer 1
10
288.567283
20
73.371984
11
287.351430
21
73.486397
0
LINE
8
Layer 1
10
287.351430
20
73.486397
11
286.064527
21
74.007567
0
LINE
8
Layer 1
10
286.064527
20
74.007567
11
284.567854
21
74.970421
0
LINE
8
Layer 1
10
284.567854
20
74.970421
11
280.390309
21
78.360889
0
LINE
8
Layer 1
10
280.390309
20
78.360889
11
273.214076
21
84.433098
0
LINE
8
Layer 1
10
273.214076
20
84.433098
11
278.823270
21
84.450906
0
LINE
8
Layer 1
10
278.823270
20
84.450906
11
280.644011
21
84.573598
0
LINE
8
Layer 1
10
280.644011
20
84.573598
11
283.024508
21
84.912396
0
LINE
8
Layer 1
10
283.024508
20
84.912396
11
289.161905
21
86.150604
0
LINE
8
Layer 1
10
289.161905
20
86.150604
11
296.629739
21
87.990116
0
LINE
8
Layer 1
10
296.629739
20
87.990116
11
304.822287
21
90.255515
0
LINE
8
Layer 1
10
304.822287
20
90.255515
11
313.133826
21
92.771387
0
LINE
8
Layer 1
10
313.133826
20
92.771387
11
320.958632
21
95.362314
0
LINE
8
Layer 1
10
320.958632
20
95.362314
11
327.690983
21
97.852881
0
LINE
8
Layer 1
10
327.690983
20
97.852881
11
332.725155
21
100.067673
0
LINE
8
Layer 1
10
332.725155
20
100.067673
11
339.101074
21
103.054978
0
LINE
8
Layer 1
10
339.101074
20
103.054978
11
341.040865
21
103.772521
0
LINE
8
Layer 1
10
341.040865
20
103.772521
11
341.569039
21
103.882957
0
LINE
8
Layer 1
10
341.569039
20
103.882957
11
341.753331
21
103.807146
0
LINE
8
Layer 1
10
341.753331
20
103.807146
11
342.390111
21
103.944959
0
LINE
8
Layer 1
10
342.390111
20
103.944959
11
344.193468
21
104.704727
0
LINE
8
Layer 1
10
344.193468
20
104.704727
11
350.658017
21
107.761697
0
LINE
8
Layer 1
10
350.658017
20
107.761697
11
370.525192
21
117.726377
0
LINE
8
Layer 1
10
370.525192
20
117.726377
11
391.084532
21
128.446332
0
LINE
8
Layer 1
10
391.084532
20
128.446332
11
398.414289
21
132.447395
0
LINE
8
Layer 1
10
398.414289
20
132.447395
11
402.065716
21
134.666706
0
LINE
8
Layer 1
10
402.065716
20
134.666706
11
408.305021
21
138.774875
0
LINE
8
Layer 1
10
408.305021
20
138.774875
11
419.445384
21
145.564616
0
LINE
8
Layer 1
10
419.445384
20
145.564616
11
438.266518
21
156.929622
0
LINE
8
Layer 1
10
438.266518
20
156.929622
11
454.179989
21
166.991469
0
LINE
8
Layer 1
10
454.179989
20
166.991469
11
461.259742
21
171.701469
0
LINE
8
Layer 1
10
461.259742
20
171.701469
11
467.868648
21
176.286992
0
LINE
8
Layer 1
10
467.868648
20
176.286992
11
474.092064
21
180.815143
0
LINE
8
Layer 1
10
474.092064
20
180.815143
11
480.015345
21
185.353025
0
LINE
8
Layer 1
10
480.015345
20
185.353025
11
485.723850
21
189.967744
0
LINE
8
Layer 1
10
485.723850
20
189.967744
11
491.302933
21
194.726403
0
LINE
8
Layer 1
10
491.302933
20
194.726403
11
496.837951
21
199.696108
0
LINE
8
Layer 1
10
496.837951
20
199.696108
11
502.414261
21
204.943961
0
LINE
8
Layer 1
10
502.414261
20
204.943961
11
514.032182
21
216.542533
0
LINE
8
Layer 1
10
514.032182
20
216.542533
11
526.839547
21
230.058955
0
LINE
8
Layer 1
10
526.839547
20
230.058955
11
549.284271
21
254.488711
0
LINE
8
Layer 1
10
549.284271
20
254.488711
11
556.253263
21
262.305856
0
LINE
8
Layer 1
10
556.253263
20
262.305856
11
558.981243
21
265.637395
0
LINE
8
Layer 1
10
558.981243
20
265.637395
11
558.981352
21
265.905965
0
LINE
8
Layer 1
10
558.981352
20
265.905965
11
558.740527
21
266.016452
0
LINE
8
Layer 1
10
558.740527
20
266.016452
11
557.626128
21
265.793596
0
LINE
8
Layer 1
10
557.626128
20
265.793596
11
555.818145
21
265.029656
0
LINE
8
Layer 1
10
555.818145
20
265.029656
11
553.496678
21
263.785464
0
LINE
8
Layer 1
10
553.496678
20
263.785464
11
550.693028
21
262.338385
0
LINE
8
Layer 1
10
550.693028
20
262.338385
11
547.572424
21
261.021118
0
LINE
8
Layer 1
10
547.572424
20
261.021118
11
544.515849
21
259.977536
0
LINE
8
Layer 1
10
544.515849
20
259.977536
11
541.904287
21
259.351513
0
LINE
8
Layer 1
10
541.904287
20
259.351513
11
519.966053
21
255.487389
0
LINE
8
Layer 1
10
519.966053
20
255.487389
11
510.619501
21
254.014639
0
LINE
8
Layer 1
10
510.619501
20
254.014639
11
499.231208
21
252.549378
0
LINE
8
Layer 1
10
499.231208
20
252.549378
11
486.460192
21
251.149438
0
LINE
8
Layer 1
10
486.460192
20
251.149438
11
472.965473
21
249.872652
0
LINE
8
Layer 1
10
472.965473
20
249.872652
11
459.406070
21
248.776853
0
LINE
8
Layer 1
10
459.406070
20
248.776853
11
446.441002
21
247.919873
0
LINE
8
Layer 1
10
446.441002
20
247.919873
11
434.729289
21
247.359545
0
LINE
8
Layer 1
10
434.729289
20
247.359545
11
424.929949
21
247.153702
0
LINE
8
Layer 1
10
424.929949
20
247.153702
11
414.661726
21
246.837026
0
LINE
8
Layer 1
10
414.661726
20
246.837026
11
403.631725
21
245.918435
0
LINE
8
Layer 1
10
403.631725
20
245.918435
11
391.922603
21
244.413104
0
LINE
8
Layer 1
10
391.922603
20
244.413104
11
379.617016
21
242.336212
0
LINE
8
Layer 1
10
379.617016
20
242.336212
11
366.797620
21
239.702937
0
LINE
8
Layer 1
10
366.797620
20
239.702937
11
353.547071
21
236.528456
0
LINE
8
Layer 1
10
353.547071
20
236.528456
11
339.948026
21
232.827947
0
LINE
8
Layer 1
10
339.948026
20
232.827947
11
326.083140
21
228.616588
0
LINE
8
Layer 1
10
326.083140
20
228.616588
11
313.337924
21
224.667653
0
LINE
8
Layer 1
10
313.337924
20
224.667653
11
305.979012
21
222.615620
0
LINE
8
Layer 1
10
305.979012
20
222.615620
11
300.602706
21
220.978434
0
LINE
8
Layer 1
10
300.602706
20
220.978434
11
292.623748
21
218.021407
0
LINE
8
Layer 1
10
292.623748
20
218.021407
11
285.487056
21
215.461440
0
LINE
8
Layer 1
10
285.487056
20
215.461440
11
283.166328
21
214.832769
0
LINE
8
Layer 1
10
283.166328
20
214.832769
11
282.135402
21
214.780527
0
LINE
8
Layer 1
10
282.135402
20
214.780527
11
282.229346
21
215.747582
0
LINE
8
Layer 1
10
282.229346
20
215.747582
11
282.972079
21
217.893585
0
LINE
8
Layer 1
10
282.972079
20
217.893585
11
284.240248
21
220.900362
0
LINE
8
Layer 1
10
284.240248
20
220.900362
11
285.910500
21
224.449743
0
LINE
8
Layer 1
10
285.910500
20
224.449743
11
287.718134
21
228.596348
0
LINE
8
Layer 1
10
287.718134
20
228.596348
11
289.360716
21
233.229152
0
LINE
8
Layer 1
10
289.360716
20
233.229152
11
290.658228
21
237.781552
0
LINE
8
Layer 1
10
290.658228
20
237.781552
11
291.430654
21
241.686945
0
LINE
8
Layer 1
10
291.430654
20
241.686945
11
292.700604
21
250.179366
0
LINE
8
Layer 1
10
292.700604
20
250.179366
11
294.226375
21
259.048796
0
LINE
8
Layer 1
10
294.226375
20
259.048796
11
295.420268
21
266.661255
0
LINE
8
Layer 1
10
295.420268
20
266.661255
11
296.820165
21
277.557245
0
LINE
8
Layer 1
10
296.820165
20
277.557245
11
299.866195
21
305.495897
0
LINE
8
Layer 1
10
299.866195
20
305.495897
11
302.620912
21
335.456910
0
LINE
8
Layer 1
10
302.620912
20
335.456910
11
303.656670
21
348.880851
0
LINE
8
Layer 1
10
303.656670
20
348.880851
11
304.340768
21
360.032442
0
LINE
8
Layer 1
10
304.340768
20
360.032442
11
305.533834
21
384.249999
0
LINE
8
Layer 1
10
305.533834
20
384.249999
11
298.232943
21
384.249999
0
LINE
8
Layer 1
10
298.232943
20
384.249999
11
293.457432
21
383.979229
0
LINE
8
Layer 1
10
293.457432
20
383.979229
11
288.379490
21
383.172220
0
LINE
8
Layer 1
10
288.379490
20
383.172220
11
283.012152
21
381.836918
0
LINE
8
Layer 1
10
283.012152
20
381.836918
11
277.368454
21
379.981274
0
LINE
8
Layer 1
10
277.368454
20
379.981274
11
271.461433
21
377.613235
0
LINE
8
Layer 1
10
271.461433
20
377.613235
11
265.304124
21
374.740750
0
LINE
8
Layer 1
10
265.304124
20
374.740750
11
258.909564
21
371.371768
0
LINE
8
Layer 1
10
258.909564
20
371.371768
11
252.290788
21
367.514236
0
LINE
8
Layer 1
10
252.290788
20
367.514236
11
245.460833
21
363.176105
0
LINE
8
Layer 1
10
245.460833
20
363.176105
11
238.432734
21
358.365322
0
LINE
8
Layer 1
10
238.432734
20
358.365322
11
231.219528
21
353.089835
0
LINE
8
Layer 1
10
231.219528
20
353.089835
11
223.834251
21
347.357594
0
LINE
8
Layer 1
10
223.834251
20
347.357594
11
216.289939
21
341.176547
0
LINE
8
Layer 1
10
216.289939
20
341.176547
11
208.599627
21
334.554642
0
LINE
8
Layer 1
10
208.599627
20
334.554642
11
200.776353
21
327.499828
0
LINE
8
Layer 1
10
200.776353
20
327.499828
11
192.833151
21
320.020054
0
LINE
8
Layer 1
10
192.833151
20
320.020054
11
183.976372
21
311.727269
0
LINE
8
Layer 1
10
183.976372
20
311.727269
11
177.203028
21
305.853200
0
LINE
8
Layer 1
10
177.203028
20
305.853200
11
174.684590
21
303.893906
0
LINE
8
Layer 1
10
174.684590
20
303.893906
11
172.791344
21
302.624157
0
LINE
8
Layer 1
10
172.791344
20
302.624157
11
171.558071
21
302.072241
0
LINE
8
Layer 1
10
171.558071
20
302.072241
11
171.199791
21
302.074311
0
LINE
8
Layer 1
10
171.199791
20
302.074311
11
171.019546
21
302.266448
0
LINE
8
Layer 1
10
171.019546
20
302.266448
11
167.048567
21
317.544878
0
LINE
8
Layer 1
10
167.048567
20
317.544878
11
164.366291
21
327.446769
0
LINE
8
Layer 1
10
164.366291
20
327.446769
11
163.218572
21
331.132514
0
LINE
8
Layer 1
10
163.218572
20
331.132514
11
162.400931
21
333.286288
0
LINE
8
Layer 1
10
162.400931
20
333.286288
11
161.758822
21
334.847952
0
LINE
8
Layer 1
10
161.758822
20
334.847952
11
161.090609
21
336.922122
0
LINE
8
Layer 1
10
161.090609
20
336.922122
11
159.996990
21
341.530941
0
LINE
8
Layer 1
10
159.996990
20
341.530941
11
159.348489
21
344.032628
0
LINE
8
Layer 1
10
159.348489
20
344.032628
11
158.084721
21
347.760961
0
LINE
8
Layer 1
10
158.084721
20
347.760961
11
153.882844
21
358.482019
0
LINE
8
Layer 1
10
153.882844
20
358.482019
11
147.734267
21
372.863027
0
LINE
8
Layer 1
10
147.734267
20
372.863027
11
139.981903
21
390.072895
0
LINE
8
Layer 1
10
139.981903
20
390.072895
11
136.609676
21
397.977493
0
LINE
8
Layer 1
10
136.609676
20
397.977493
11
135.585501
21
400.818544
0
LINE
8
Layer 1
10
135.585501
20
400.818544
11
135.209610
21
402.377553
0
LINE
8
Layer 1
10
135.209610
20
402.377553
11
134.760435
21
404.233719
0
LINE
8
Layer 1
10
134.760435
20
404.233719
11
133.538442
21
407.886093
0
LINE
8
Layer 1
10
133.538442
20
407.886093
11
129.529182
21
418.475105
0
LINE
8
Layer 1
10
129.529182
20
418.475105
11
125.276175
21
429.857389
0
LINE
8
Layer 1
10
125.276175
20
429.857389
11
123.788318
21
434.365165
0
LINE
8
Layer 1
10
123.788318
20
434.365165
11
123.011796
21
437.261518
0
LINE
8
Layer 1
10
123.011796
20
437.261518
11
122.413994
21
439.645219
0
LINE
8
Layer 1
10
122.413994
20
439.645219
11
121.412461
21
442.756947
0
LINE
8
Layer 1
10
121.412461
20
442.756947
11
120.146625
21
446.192672
0
LINE
8
Layer 1
10
120.146625
20
446.192672
11
118.755914
21
449.548364
0
LINE
8
Layer 1
10
118.755914
20
449.548364
11
117.048131
21
453.804135
0
LINE
8
Layer 1
10
117.048131
20
453.804135
11
114.918478
21
459.691188
0
LINE
8
Layer 1
10
114.918478
20
459.691188
11
110.475655
21
473.249516
0
LINE
8
Layer 1
10
110.475655
20
473.249516
11
108.046826
21
481.031810
0
LINE
8
Layer 1
10
108.046826
20
481.031810
11
106.415662
21
485.447330
0
LINE
8
Layer 1
10
106.415662
20
485.447330
11
105.678761
21
486.291339
0
LINE
8
Layer 1
10
105.678761
20
486.291339
11
104.931646
21
486.571659
0
LINE
8
Layer 1
10
104.931646
20
486.571659
11
104.218705
21
486.289814
0
LINE
8
Layer 1
10
104.218705
20
486.289814
11
103.584324
21
485.447330
0
LINE
8
Layer 1
10
103.584324
20
485.447330
11
103.584324
21
485.447330
0
LINE
8
Layer 1
10
105.008897
20
420.683175
11
105.930854
21
419.477355
0
LINE
8
Layer 1
10
105.930854
20
419.477355
11
107.000405
21
417.738621
0
LINE
8
Layer 1
10
107.000405
20
417.738621
11
109.353821
21
413.008348
0
LINE
8
Layer 1
10
109.353821
20
413.008348
11
118.898379
21
391.996054
0
LINE
8
Layer 1
10
118.898379
20
391.996054
11
120.969058
21
387.368854
0
LINE
8
Layer 1
10
120.969058
20
387.368854
11
122.666529
21
383.241053
0
LINE
8
Layer 1
10
122.666529
20
383.241053
11
123.815450
21
380.062900
0
LINE
8
Layer 1
10
123.815450
20
380.062900
11
124.240479
21
378.284645
0
LINE
8
Layer 1
10
124.240479
20
378.284645
11
124.476062
21
376.976321
0
LINE
8
Layer 1
10
124.476062
20
376.976321
11
125.108891
21
375.078507
0
LINE
8
Layer 1
10
125.108891
20
375.078507
11
126.042053
21
372.847249
0
LINE
8
Layer 1
10
126.042053
20
372.847249
11
127.178638
21
370.538588
0
LINE
8
Layer 1
10
127.178638
20
370.538588
11
128.932855
21
366.606688
0
LINE
8
Layer 1
10
128.932855
20
366.606688
11
131.548331
21
359.954622
0
LINE
8
Layer 1
10
131.548331
20
359.954622
11
134.672277
21
351.511794
0
LINE
8
Layer 1
10
134.672277
20
351.511794
11
137.951907
21
342.207609
0
LINE
8
Layer 1
10
137.951907
20
342.207609
11
142.376353
21
328.868595
0
LINE
8
Layer 1
10
142.376353
20
328.868595
11
145.386879
21
318.426299
0
LINE
8
Layer 1
10
145.386879
20
318.426299
11
146.492064
21
313.781294
0
LINE
8
Layer 1
10
146.492064
20
313.781294
11
147.399941
21
309.248315
0
LINE
8
Layer 1
10
147.399941
20
309.248315
11
148.831997
21
299.702236
0
LINE
8
Layer 1
10
148.831997
20
299.702236
11
150.434885
21
289.822030
0
LINE
8
Layer 1
10
150.434885
20
289.822030
11
153.568674
21
271.834239
0
LINE
8
Layer 1
10
153.568674
20
271.834239
11
154.439850
21
266.456787
0
LINE
8
Layer 1
10
154.439850
20
266.456787
11
155.222766
21
260.669630
0
LINE
8
Layer 1
10
155.222766
20
260.669630
11
156.516060
21
248.179192
0
LINE
8
Layer 1
10
156.516060
20
248.179192
11
157.433040
21
234.988897
0
LINE
8
Layer 1
10
157.433040
20
234.988897
11
157.958189
21
221.724717
0
LINE
8
Layer 1
10
157.958189
20
221.724717
11
158.075991
21
209.012623
0
LINE
8
Layer 1
10
158.075991
20
209.012623
11
157.770929
21
197.478588
0
LINE
8
Layer 1
10
157.770929
20
197.478588
11
157.454975
21
192.348959
0
LINE
8
Layer 1
10
157.454975
20
192.348959
11
157.027487
21
187.748583
0
LINE
8
Layer 1
10
157.027487
20
187.748583
11
156.486525
21
183.755708
0
LINE
8
Layer 1
10
156.486525
20
183.755708
11
155.830149
21
180.448581
0
LINE
8
Layer 1
10
155.830149
20
180.448581
11
154.107436
21
172.650371
0
LINE
8
Layer 1
10
154.107436
20
172.650371
11
153.087880
21
166.737170
0
LINE
8
Layer 1
10
153.087880
20
166.737170
11
152.786709
21
164.888023
0
LINE
8
Layer 1
10
152.786709
20
164.888023
11
152.350296
21
163.231109
0
LINE
8
Layer 1
10
152.350296
20
163.231109
11
151.837498
21
161.947181
0
LINE
8
Layer 1
10
151.837498
20
161.947181
11
151.307171
21
161.216993
0
LINE
8
Layer 1
10
151.307171
20
161.216993
11
150.750170
21
160.489366
0
LINE
8
Layer 1
10
150.750170
20
160.489366
11
150.164742
21
159.212662
0
LINE
8
Layer 1
10
150.164742
20
159.212662
11
149.620769
21
157.566983
0
LINE
8
Layer 1
10
149.620769
20
157.566983
11
149.188133
21
155.732428
0
LINE
8
Layer 1
10
149.188133
20
155.732428
11
148.613467
21
153.110959
0
LINE
8
Layer 1
10
148.613467
20
153.110959
11
147.877958
21
150.491777
0
LINE
8
Layer 1
10
147.877958
20
150.491777
11
146.970822
21
147.850120
0
LINE
8
Layer 1
10
146.970822
20
147.850120
11
145.881276
21
145.161226
0
LINE
8
Layer 1
10
145.881276
20
145.161226
11
143.111814
21
139.542674
0
LINE
8
Layer 1
10
143.111814
20
139.542674
11
139.483301
21
133.438024
0
LINE
8
Layer 1
10
139.483301
20
133.438024
11
135.134006
21
127.148056
0
LINE
8
Layer 1
10
135.134006
20
127.148056
11
130.583286
21
121.388758
0
LINE
8
Layer 1
10
130.583286
20
121.388758
11
128.503466
21
119.028235
0
LINE
8
Layer 1
10
128.503466
20
119.028235
11
126.698580
21
117.184532
0
LINE
8
Layer 1
10
126.698580
20
117.184532
11
125.277058
21
115.985697
0
LINE
8
Layer 1
10
125.277058
20
115.985697
11
124.347328
21
115.559782
0
LINE
8
Layer 1
10
124.347328
20
115.559782
11
124.135569
21
115.868591
0
LINE
8
Layer 1
10
124.135569
20
115.868591
11
123.928174
21
116.751650
0
LINE
8
Layer 1
10
123.928174
20
116.751650
11
123.547176
21
119.992879
0
LINE
8
Layer 1
10
123.547176
20
119.992879
11
123.245726
21
124.788197
0
LINE
8
Layer 1
10
123.245726
20
124.788197
11
123.065221
21
130.642330
0
LINE
8
Layer 1
10
123.065221
20
130.642330
11
122.135756
21
167.264612
0
LINE
8
Layer 1
10
122.135756
20
167.264612
11
120.640512
21
205.053763
0
LINE
8
Layer 1
10
120.640512
20
205.053763
11
118.697845
21
242.496581
0
LINE
8
Layer 1
10
118.697845
20
242.496581
11
116.426113
21
278.079863
0
LINE
8
Layer 1
10
116.426113
20
278.079863
11
113.943672
21
310.290407
0
LINE
8
Layer 1
10
113.943672
20
310.290407
11
111.368878
21
337.615011
0
LINE
8
Layer 1
10
111.368878
20
337.615011
11
110.083836
21
348.972210
0
LINE
8
Layer 1
10
110.083836
20
348.972210
11
108.820090
21
358.540473
0
LINE
8
Layer 1
10
108.820090
20
358.540473
11
107.592433
21
366.130649
0
LINE
8
Layer 1
10
107.592433
20
366.130649
11
106.415662
21
371.553589
0
LINE
8
Layer 1
10
106.415662
20
371.553589
11
105.744630
21
372.186640
0
LINE
8
Layer 1
10
105.744630
20
372.186640
11
104.980361
21
372.409435
0
LINE
8
Layer 1
10
104.980361
20
372.409435
11
104.225908
21
372.204306
0
LINE
8
Layer 1
10
104.225908
20
372.204306
11
103.584324
21
371.553589
0
LINE
8
Layer 1
10
103.584324
20
371.553589
11
102.407553
21
366.130846
0
LINE
8
Layer 1
10
102.407553
20
366.130846
11
101.179897
21
358.540828
0
LINE
8
Layer 1
10
101.179897
20
358.540828
11
99.916151
21
348.972690
0
LINE
8
Layer 1
10
99.916151
20
348.972690
11
98.631109
21
337.615584
0
LINE
8
Layer 1
10
98.631109
20
337.615584
11
96.056316
21
310.291076
0
LINE
8
Layer 1
10
96.056316
20
310.291076
11
93.573875
21
278.080526
0
LINE
8
Layer 1
10
93.573875
20
278.080526
11
91.302143
21
242.497155
0
LINE
8
Layer 1
10
91.302143
20
242.497155
11
89.359477
21
205.054185
0
LINE
8
Layer 1
10
89.359477
20
205.054185
11
87.864233
21
167.264836
0
LINE
8
Layer 1
10
87.864233
20
167.264836
11
86.934768
21
130.642330
0
LINE
8
Layer 1
10
86.934768
20
130.642330
11
86.754261
21
124.788197
0
LINE
8
Layer 1
10
86.754261
20
124.788197
11
86.452813
21
119.992879
0
LINE
8
Layer 1
10
86.452813
20
119.992879
11
86.071815
21
116.751650
0
LINE
8
Layer 1
10
86.071815
20
116.751650
11
85.864421
21
115.868591
0
LINE
8
Layer 1
10
85.864421
20
115.868591
11
85.652661
21
115.559782
0
LINE
8
Layer 1
10
85.652661
20
115.559782
11
84.722929
21
115.985697
0
LINE
8
Layer 1
10
84.722929
20
115.985697
11
83.301405
21
117.184532
0
LINE
8
Layer 1
10
83.301405
20
117.184532
11
81.496518
21
119.028235
0
LINE
8
Layer 1
10
81.496518
20
119.028235
11
79.416698
21
121.388758
0
LINE
8
Layer 1
10
79.416698
20
121.388758
11
74.865979
21
127.148056
0
LINE
8
Layer 1
10
74.865979
20
127.148056
11
70.516688
21
133.438024
0
LINE
8
Layer 1
10
70.516688
20
133.438024
11
66.888178
21
139.542674
0
LINE
8
Layer 1
10
66.888178
20
139.542674
11
64.118715
21
145.161226
0
LINE
8
Layer 1
10
64.118715
20
145.161226
11
63.029167
21
147.850120
0
LINE
8
Layer 1
10
63.029167
20
147.850120
11
62.122031
21
150.491777
0
LINE
8
Layer 1
10
62.122031
20
150.491777
11
61.386522
21
153.110959
0
LINE
8
Layer 1
10
61.386522
20
153.110959
11
60.811859
21
155.732428
0
LINE
8
Layer 1
10
60.811859
20
155.732428
11
60.379223
21
157.566983
0
LINE
8
Layer 1
10
60.379223
20
157.566983
11
59.835252
21
159.212662
0
LINE
8
Layer 1
10
59.835252
20
159.212662
11
59.249826
21
160.489366
0
LINE
8
Layer 1
10
59.249826
20
160.489366
11
58.692824
21
161.216993
0
LINE
8
Layer 1
10
58.692824
20
161.216993
11
58.162490
21
161.947181
0
LINE
8
Layer 1
10
58.162490
20
161.947181
11
57.649689
21
163.231109
0
LINE
8
Layer 1
10
57.649689
20
163.231109
11
57.213280
21
164.888023
0
LINE
8
Layer 1
10
57.213280
20
164.888023
11
56.912121
21
166.737170
0
LINE
8
Layer 1
10
56.912121
20
166.737170
11
55.892554
21
172.650371
0
LINE
8
Layer 1
10
55.892554
20
172.650371
11
54.169838
21
180.448581
0
LINE
8
Layer 1
10
54.169838
20
180.448581
11
53.513462
21
183.755708
0
LINE
8
Layer 1
10
53.513462
20
183.755708
11
52.972501
21
187.748583
0
LINE
8
Layer 1
10
52.972501
20
187.748583
11
52.545014
21
192.348959
0
LINE
8
Layer 1
10
52.545014
20
192.348959
11
52.229061
21
197.478588
0
LINE
8
Layer 1
10
52.229061
20
197.478588
11
51.924002
21
209.012623
0
LINE
8
Layer 1
10
51.924002
20
209.012623
11
52.041807
21
221.724717
0
LINE
8
Layer 1
10
52.041807
20
221.724717
11
52.566959
21
234.988897
0
LINE
8
Layer 1
10
52.566959
20
234.988897
11
53.483941
21
248.179192
0
LINE
8
Layer 1
10
53.483941
20
248.179192
11
54.777237
21
260.669630
0
LINE
8
Layer 1
10
54.777237
20
260.669630
11
55.560154
21
266.456787
0
LINE
8
Layer 1
10
55.560154
20
266.456787
11
56.431330
21
271.834239
0
LINE
8
Layer 1
10
56.431330
20
271.834239
11
59.565108
21
289.822030
0
LINE
8
Layer 1
10
59.565108
20
289.822030
11
61.168001
21
299.702236
0
LINE
8
Layer 1
10
61.168001
20
299.702236
11
62.600054
21
309.248315
0
LINE
8
Layer 1
10
62.600054
20
309.248315
11
63.507930
21
313.781294
0
LINE
8
Layer 1
10
63.507930
20
313.781294
11
64.613115
21
318.426299
0
LINE
8
Layer 1
10
64.613115
20
318.426299
11
67.623642
21
328.868595
0
LINE
8
Layer 1
10
67.623642
20
328.868595
11
72.048093
21
342.207609
0
LINE
8
Layer 1
10
72.048093
20
342.207609
11
75.327720
21
351.511794
0
LINE
8
Layer 1
10
75.327720
20
351.511794
11
78.451659
21
359.954622
0
LINE
8
Layer 1
10
78.451659
20
359.954622
11
81.067127
21
366.606688
0
LINE
8
Layer 1
10
81.067127
20
366.606688
11
82.821343
21
370.538588
0
LINE
8
Layer 1
10
82.821343
20
370.538588
11
83.957934
21
372.847249
0
LINE
8
Layer 1
10
83.957934
20
372.847249
11
84.891101
21
375.078507
0
LINE
8
Layer 1
10
84.891101
20
375.078507
11
85.523928
21
376.976321
0
LINE
8
Layer 1
10
85.523928
20
376.976321
11
85.759504
21
378.284645
0
LINE
8
Layer 1
10
85.759504
20
378.284645
11
86.184543
21
380.062900
0
LINE
8
Layer 1
10
86.184543
20
380.062900
11
87.333472
21
383.241053
0
LINE
8
Layer 1
10
87.333472
20
383.241053
11
89.030944
21
387.368854
0
LINE
8
Layer 1
10
89.030944
20
387.368854
11
91.101610
21
391.996054
0
LINE
8
Layer 1
10
91.101610
20
391.996054
11
100.646165
21
413.008348
0
LINE
8
Layer 1
10
100.646165
20
413.008348
11
103.009755
21
417.743202
0
LINE
8
Layer 1
10
103.009755
20
417.743202
11
104.084627
21
419.480336
0
LINE
8
Layer 1
10
104.084627
20
419.480336
11
105.008897
21
420.683175
0
LINE
8
Layer 1
10
105.008897
20
420.683175
11
105.008897
21
420.683175
0
LINE
8
Layer 1
10
-68.894523
20
358.661300
11
-67.923429
21
358.438209
0
LINE
8
Layer 1
10
-67.923429
20
358.438209
11
-66.422338
21
357.796744
0
LINE
8
Layer 1
10
-66.422338
20
357.796744
11
-62.075666
21
355.425553
0
LINE
8
Layer 1
10
-62.075666
20
355.425553
11
-56.345511
21
351.881438
0
LINE
8
Layer 1
10
-56.345511
20
351.881438
11
-49.722878
21
347.498110
0
LINE
8
Layer 1
10
-49.722878
20
347.498110
11
-42.698771
21
342.609280
0
LINE
8
Layer 1
10
-42.698771
20
342.609280
11
-35.764196
21
337.548661
0
LINE
8
Layer 1
10
-35.764196
20
337.548661
11
-29.410157
21
332.649963
0
LINE
8
Layer 1
10
-29.410157
20
332.649963
11
-24.127658
21
328.246899
0
LINE
8
Layer 1
10
-24.127658
20
328.246899
11
-18.800745
21
323.294121
0
LINE
8
Layer 1
10
-18.800745
20
323.294121
11
-13.002758
21
317.443576
0
LINE
8
Layer 1
10
-13.002758
20
317.443576
11
-6.856403
21
310.837641
0
LINE
8
Layer 1
10
-6.856403
20
310.837641
11
-0.484391
21
303.618692
0
LINE
8
Layer 1
10
-0.484391
20
303.618692
11
5.990569
21
295.929106
0
LINE
8
Layer 1
10
5.990569
20
295.929106
11
12.445769
21
287.911260
0
LINE
8
Layer 1
10
12.445769
20
287.911260
11
18.758500
21
279.707529
0
LINE
8
Layer 1
10
18.758500
20
279.707529
11
24.806052
21
271.460292
0
LINE
8
Layer 1
10
24.806052
20
271.460292
11
37.876409
21
253.172478
0
LINE
8
Layer 1
10
37.876409
20
253.172478
11
36.879217
21
222.740269
0
LINE
8
Layer 1
10
36.879217
20
222.740269
11
36.361221
21
210.929107
0
LINE
8
Layer 1
10
36.361221
20
210.929107
11
35.694282
21
201.258479
0
LINE
8
Layer 1
10
35.694282
20
201.258479
11
34.965402
21
194.725146
0
LINE
8
Layer 1
10
34.965402
20
194.725146
11
34.604922
21
192.946452
0
LINE
8
Layer 1
10
34.604922
20
192.946452
11
34.261583
21
192.325866
0
LINE
8
Layer 1
10
34.261583
20
192.325866
11
33.496568
21
192.478181
0
LINE
8
Layer 1
10
33.496568
20
192.478181
11
32.553901
21
192.926858
0
LINE
8
Layer 1
10
32.553901
20
192.926858
11
30.172375
21
194.663703
0
LINE
8
Layer 1
10
30.172375
20
194.663703
11
27.190536
21
197.437211
0
LINE
8
Layer 1
10
27.190536
20
197.437211
11
23.681911
21
201.148189
0
LINE
8
Layer 1
10
23.681911
20
201.148189
11
19.720031
21
205.697444
0
LINE
8
Layer 1
10
19.720031
20
205.697444
11
15.378423
21
210.985784
0
LINE
8
Layer 1
10
15.378423
20
210.985784
11
5.850143
21
223.382949
0
LINE
8
Layer 1
10
5.850143
20
223.382949
11
-4.314697
21
237.546145
0
LINE
8
Layer 1
10
-4.314697
20
237.546145
11
-14.527865
21
252.681833
0
LINE
8
Layer 1
10
-14.527865
20
252.681833
11
-19.468750
21
260.366380
0
LINE
8
Layer 1
10
-19.468750
20
260.366380
11
-24.201130
21
267.996473
0
LINE
8
Layer 1
10
-24.201130
20
267.996473
11
-28.651476
21
275.472919
0
LINE
8
Layer 1
10
-28.651476
20
275.472919
11
-32.746259
21
282.696526
0
LINE
8
Layer 1
10
-32.746259
20
282.696526
11
-37.565479
21
291.137485
0
LINE
8
Layer 1
10
-37.565479
20
291.137485
11
-40.581349
21
295.873725
0
LINE
8
Layer 1
10
-40.581349
20
295.873725
11
-42.899216
21
299.420605
0
LINE
8
Layer 1
10
-42.899216
20
299.420605
11
-46.030301
21
305.008730
0
LINE
8
Layer 1
10
-46.030301
20
305.008730
11
-48.288046
21
308.907230
0
LINE
8
Layer 1
10
-48.288046
20
308.907230
11
-48.698575
21
309.256487
0
LINE
8
Layer 1
10
-48.698575
20
309.256487
11
-48.523282
21
308.392067
0
LINE
8
Layer 1
10
-48.523282
20
308.392067
11
-47.259246
21
303.130353
0
LINE
8
Layer 1
10
-47.259246
20
303.130353
11
-45.905651
21
295.606621
0
LINE
8
Layer 1
10
-45.905651
20
295.606621
11
-45.186683
21
291.888003
0
LINE
8
Layer 1
10
-45.186683
20
291.888003
11
-44.039250
21
287.118579
0
LINE
8
Layer 1
10
-44.039250
20
287.118579
11
-40.672728
21
275.057756
0
LINE
8
Layer 1
10
-40.672728
20
275.057756
11
-36.233553
21
260.685027
0
LINE
8
Layer 1
10
-36.233553
20
260.685027
11
-31.149192
21
245.261266
0
LINE
8
Layer 1
10
-31.149192
20
245.261266
11
-25.847112
21
230.047350
0
LINE
8
Layer 1
10
-25.847112
20
230.047350
11
-20.754781
21
216.304152
0
LINE
8
Layer 1
10
-20.754781
20
216.304152
11
-16.299664
21
205.292549
0
LINE
8
Layer 1
10
-16.299664
20
205.292549
11
-14.444646
21
201.205118
0
LINE
8
Layer 1
10
-14.444646
20
201.205118
11
-12.909231
21
198.273415
0
LINE
8
Layer 1
10
-12.909231
20
198.273415
11
-10.343644
21
193.425875
0
LINE
8
Layer 1
10
-10.343644
20
193.425875
11
-9.563220
21
191.563735
0
LINE
8
Layer 1
10
-9.563220
20
191.563735
11
-9.276596
21
190.420516
0
LINE
8
Layer 1
10
-9.276596
20
190.420516
11
-8.728033
21
188.860825
0
LINE
8
Layer 1
10
-8.728033
20
188.860825
11
-7.233547
21
185.863822
0
LINE
8
Layer 1
10
-7.233547
20
185.863822
11
-2.314050
21
177.278929
0
LINE
8
Layer 1
10
-2.314050
20
177.278929
11
2.970437
21
168.237895
0
LINE
8
Layer 1
10
2.970437
20
168.237895
11
4.856122
21
164.748152
0
LINE
8
Layer 1
10
4.856122
20
164.748152
11
5.877182
21
162.588133
0
LINE
8
Layer 1
10
5.877182
20
162.588133
11
6.866732
21
160.354382
0
LINE
8
Layer 1
10
6.866732
20
160.354382
11
8.280589
21
157.774846
0
LINE
8
Layer 1
10
8.280589
20
157.774846
11
10.080199
21
154.894148
0
LINE
8
Layer 1
10
10.080199
20
154.894148
11
12.227006
21
151.756908
0
LINE
8
Layer 1
10
12.227006
20
151.756908
11
17.407986
21
144.891297
0
LINE
8
Layer 1
10
17.407986
20
144.891297
11
23.515087
21
137.534988
0
LINE
8
Layer 1
10
23.515087
20
137.534988
11
30.239863
21
130.044958
0
LINE
8
Layer 1
10
30.239863
20
130.044958
11
37.273871
21
122.778185
0
LINE
8
Layer 1
10
37.273871
20
122.778185
11
44.308665
21
116.091644
0
LINE
8
Layer 1
10
44.308665
20
116.091644
11
51.035802
21
110.342312
0
LINE
8
Layer 1
10
51.035802
20
110.342312
11
55.612208
21
106.691880
0
LINE
8
Layer 1
10
55.612208
20
106.691880
11
40.957026
21
110.093025
0
LINE
8
Layer 1
10
40.957026
20
110.093025
11
29.126395
21
113.052262
0
LINE
8
Layer 1
10
29.126395
20
113.052262
11
24.374695
21
114.389050
0
LINE
8
Layer 1
10
24.374695
20
114.389050
11
21.262453
21
115.399508
0
LINE
8
Layer 1
10
21.262453
20
115.399508
11
18.482369
21
116.715910
0
LINE
8
Layer 1
10
18.482369
20
116.715910
11
15.001061
21
118.764291
0
LINE
8
Layer 1
10
15.001061
20
118.764291
11
11.040354
21
121.380134
0
LINE
8
Layer 1
10
11.040354
20
121.380134
11
6.822070
21
124.398919
0
LINE
8
Layer 1
10
6.822070
20
124.398919
11
2.568032
21
127.656128
0
LINE
8
Layer 1
10
2.568032
20
127.656128
11
-1.499936
21
130.987242
0
LINE
8
Layer 1
10
-1.499936
20
130.987242
11
-5.160010
21
134.227743
0
LINE
8
Layer 1
10
-5.160010
20
134.227743
11
-8.190368
21
137.213113
0
LINE
8
Layer 1
10
-8.190368
20
137.213113
11
-13.857851
21
143.637362
0
LINE
8
Layer 1
10
-13.857851
20
143.637362
11
-19.247033
21
150.592223
0
LINE
8
Layer 1
10
-19.247033
20
150.592223
11
-24.361926
21
158.089395
0
LINE
8
Layer 1
10
-24.361926
20
158.089395
11
-29.206536
21
166.140577
0
LINE
8
Layer 1
10
-29.206536
20
166.140577
11
-33.784875
21
174.757469
0
LINE
8
Layer 1
10
-33.784875
20
174.757469
11
-38.100950
21
183.951771
0
LINE
8
Layer 1
10
-38.100950
20
183.951771
11
-42.158772
21
193.735181
0
LINE
8
Layer 1
10
-42.158772
20
193.735181
11
-45.962349
21
204.119400
0
LINE
8
Layer 1
10
-45.962349
20
204.119400
11
-49.515690
21
215.116127
0
LINE
8
Layer 1
10
-49.515690
20
215.116127
11
-52.822805
21
226.737061
0
LINE
8
Layer 1
10
-52.822805
20
226.737061
11
-55.887704
21
238.993902
0
LINE
8
Layer 1
10
-55.887704
20
238.993902
11
-58.714394
21
251.898349
0
LINE
8
Layer 1
10
-58.714394
20
251.898349
11
-61.306885
21
265.462102
0
LINE
8
Layer 1
10
-61.306885
20
265.462102
11
-63.669187
21
279.696860
0
LINE
8
Layer 1
10
-63.669187
20
279.696860
11
-65.805309
21
294.614323
0
LINE
8
Layer 1
10
-65.805309
20
294.614323
11
-67.719259
21
310.226189
0
LINE
8
Layer 1
10
-67.719259
20
310.226189
11
-68.347073
21
316.901079
0
LINE
8
Layer 1
10
-68.347073
20
316.901079
11
-68.865072
21
324.544093
0
LINE
8
Layer 1
10
-68.865072
20
324.544093
11
-69.516448
21
340.443671
0
LINE
8
Layer 1
10
-69.516448
20
340.443671
11
-69.622241
21
347.554826
0
LINE
8
Layer 1
10
-69.622241
20
347.554826
11
-69.563046
21
353.343286
0
LINE
8
Layer 1
10
-69.563046
20
353.343286
11
-69.325071
21
357.236345
0
LINE
8
Layer 1
10
-69.325071
20
357.236345
11
-69.134730
21
358.293130
0
LINE
8
Layer 1
10
-69.134730
20
358.293130
11
-68.894523
21
358.661300
0
LINE
8
Layer 1
10
-68.894523
20
358.661300
11
-68.894523
21
358.661300
0
LINE
8
Layer 1
10
278.894503
20
358.661300
11
279.134711
21
358.293130
0
LINE
8
Layer 1
10
279.134711
20
358.293130
11
279.325051
21
357.236345
0
LINE
8
Layer 1
10
279.325051
20
357.236345
11
279.563027
21
353.343286
0
LINE
8
Layer 1
10
279.563027
20
353.343286
11
279.622224
21
347.554826
0
LINE
8
Layer 1
10
279.622224
20
347.554826
11
279.516433
21
340.443671
0
LINE
8
Layer 1
10
279.516433
20
340.443671
11
278.865059
21
324.544093
0
LINE
8
Layer 1
10
278.865059
20
324.544093
11
278.347061
21
316.901079
0
LINE
8
Layer 1
10
278.347061
20
316.901079
11
277.719245
21
310.226189
0
LINE
8
Layer 1
10
277.719245
20
310.226189
11
275.805297
21
294.614323
0
LINE
8
Layer 1
10
275.805297
20
294.614323
11
273.669177
21
279.696860
0
LINE
8
Layer 1
10
273.669177
20
279.696860
11
271.306877
21
265.462102
0
LINE
8
Layer 1
10
271.306877
20
265.462102
11
268.714387
21
251.898349
0
LINE
8
Layer 1
10
268.714387
20
251.898349
11
265.887698
21
238.993902
0
LINE
8
Layer 1
10
265.887698
20
238.993902
11
262.822801
21
226.737061
0
LINE
8
Layer 1
10
262.822801
20
226.737061
11
259.515687
21
215.116127
0
LINE
8
Layer 1
10
259.515687
20
215.116127
11
255.962346
21
204.119400
0
LINE
8
Layer 1
10
255.962346
20
204.119400
11
252.158770
21
193.735181
0
LINE
8
Layer 1
10
252.158770
20
193.735181
11
248.100949
21
183.951771
0
LINE
8
Layer 1
10
248.100949
20
183.951771
11
243.784873
21
174.757469
0
LINE
8
Layer 1
10
243.784873
20
174.757469
11
239.206535
21
166.140577
0
LINE
8
Layer 1
10
239.206535
20
166.140577
11
234.361924
21
158.089395
0
LINE
8
Layer 1
10
234.361924
20
158.089395
11
229.247032
21
150.592223
0
LINE
8
Layer 1
10
229.247032
20
150.592223
11
223.857849
21
143.637362
0
LINE
8
Layer 1
10
223.857849
20
143.637362
11
218.190366
21
137.213113
0
LINE
8
Layer 1
10
218.190366
20
137.213113
11
215.160009
21
134.227743
0
LINE
8
Layer 1
10
215.160009
20
134.227743
11
211.499935
21
130.987242
0
LINE
8
Layer 1
10
211.499935
20
130.987242
11
207.431967
21
127.656128
0
LINE
8
Layer 1
10
207.431967
20
127.656128
11
203.177929
21
124.398919
0
LINE
8
Layer 1
10
203.177929
20
124.398919
11
198.959644
21
121.380134
0
LINE
8
Layer 1
10
198.959644
20
121.380134
11
194.998936
21
118.764291
0
LINE
8
Layer 1
10
194.998936
20
118.764291
11
191.517627
21
116.715910
0
LINE
8
Layer 1
10
191.517627
20
116.715910
11
188.737542
21
115.399508
0
LINE
8
Layer 1
10
188.737542
20
115.399508
11
185.625293
21
114.389050
0
LINE
8
Layer 1
10
185.625293
20
114.389050
11
180.873596
21
113.052262
0
LINE
8
Layer 1
10
180.873596
20
113.052262
11
169.042975
21
110.093025
0
LINE
8
Layer 1
10
169.042975
20
110.093025
11
154.387796
21
106.691880
0
LINE
8
Layer 1
10
154.387796
20
106.691880
11
158.964198
21
110.342312
0
LINE
8
Layer 1
10
158.964198
20
110.342312
11
165.691333
21
116.091644
0
LINE
8
Layer 1
10
165.691333
20
116.091644
11
172.726124
21
122.778185
0
LINE
8
Layer 1
10
172.726124
20
122.778185
11
179.760128
21
130.044958
0
LINE
8
Layer 1
10
179.760128
20
130.044958
11
186.484901
21
137.534988
0
LINE
8
Layer 1
10
186.484901
20
137.534988
11
192.591998
21
144.891297
0
LINE
8
Layer 1
10
192.591998
20
144.891297
11
197.772977
21
151.756908
0
LINE
8
Layer 1
10
197.772977
20
151.756908
11
199.919783
21
154.894148
0
LINE
8
Layer 1
10
199.919783
20
154.894148
11
201.719393
21
157.774846
0
LINE
8
Layer 1
10
201.719393
20
157.774846
11
203.133251
21
160.354382
0
LINE
8
Layer 1
10
203.133251
20
160.354382
11
204.122802
21
162.588133
0
LINE
8
Layer 1
10
204.122802
20
162.588133
11
205.143866
21
164.748152
0
LINE
8
Layer 1
10
205.143866
20
164.748152
11
207.029557
21
168.237895
0
LINE
8
Layer 1
10
207.029557
20
168.237895
11
212.314048
21
177.278929
0
LINE
8
Layer 1
10
212.314048
20
177.278929
11
217.233537
21
185.863822
0
LINE
8
Layer 1
10
217.233537
20
185.863822
11
218.728020
21
188.860825
0
LINE
8
Layer 1
10
218.728020
20
188.860825
11
219.276583
21
190.420516
0
LINE
8
Layer 1
10
219.276583
20
190.420516
11
219.563205
21
191.563735
0
LINE
8
Layer 1
10
219.563205
20
191.563735
11
220.343630
21
193.425875
0
LINE
8
Layer 1
10
220.343630
20
193.425875
11
222.909234
21
198.273415
0
LINE
8
Layer 1
10
222.909234
20
198.273415
11
224.444647
21
201.205118
0
LINE
8
Layer 1
10
224.444647
20
201.205118
11
226.299665
21
205.292549
0
LINE
8
Layer 1
10
226.299665
20
205.292549
11
230.754779
21
216.304152
0
LINE
8
Layer 1
10
230.754779
20
216.304152
11
235.847110
21
230.047350
0
LINE
8
Layer 1
10
235.847110
20
230.047350
11
241.149190
21
245.261266
0
LINE
8
Layer 1
10
241.149190
20
245.261266
11
246.233550
21
260.685027
0
LINE
8
Layer 1
10
246.233550
20
260.685027
11
250.672724
21
275.057756
0
LINE
8
Layer 1
10
250.672724
20
275.057756
11
254.039244
21
287.118579
0
LINE
8
Layer 1
10
254.039244
20
287.118579
11
255.186674
21
291.888003
0
LINE
8
Layer 1
10
255.186674
20
291.888003
11
255.905641
21
295.606621
0
LINE
8
Layer 1
10
255.905641
20
295.606621
11
257.259238
21
303.130353
0
LINE
8
Layer 1
10
257.259238
20
303.130353
11
258.523280
21
308.392067
0
LINE
8
Layer 1
10
258.523280
20
308.392067
11
258.698576
21
309.256487
0
LINE
8
Layer 1
10
258.698576
20
309.256487
11
258.288048
21
308.907230
0
LINE
8
Layer 1
10
258.288048
20
308.907230
11
256.030298
21
305.008730
0
LINE
8
Layer 1
10
256.030298
20
305.008730
11
252.899201
21
299.420605
0
LINE
8
Layer 1
10
252.899201
20
299.420605
11
250.581349
21
295.873725
0
LINE
8
Layer 1
10
250.581349
20
295.873725
11
247.565473
21
291.137485
0
LINE
8
Layer 1
10
247.565473
20
291.137485
11
242.746239
21
282.696526
0
LINE
8
Layer 1
10
242.746239
20
282.696526
11
238.651456
21
275.472919
0
LINE
8
Layer 1
10
238.651456
20
275.472919
11
234.201110
21
267.996473
0
LINE
8
Layer 1
10
234.201110
20
267.996473
11
229.468731
21
260.366380
0
LINE
8
Layer 1
10
229.468731
20
260.366380
11
224.527846
21
252.681833
0
LINE
8
Layer 1
10
224.527846
20
252.681833
11
214.314678
21
237.546145
0
LINE
8
Layer 1
10
214.314678
20
237.546145
11
204.149839
21
223.382949
0
LINE
8
Layer 1
10
204.149839
20
223.382949
11
194.621560
21
210.985784
0
LINE
8
Layer 1
10
194.621560
20
210.985784
11
190.279954
21
205.697444
0
LINE
8
Layer 1
10
190.279954
20
205.697444
11
186.318076
21
201.148189
0
LINE
8
Layer 1
10
186.318076
20
201.148189
11
182.809453
21
197.437211
0
LINE
8
Layer 1
10
182.809453
20
197.437211
11
179.827616
21
194.663703
0
LINE
8
Layer 1
10
179.827616
20
194.663703
11
177.446094
21
192.926858
0
LINE
8
Layer 1
10
177.446094
20
192.926858
11
176.503428
21
192.478181
0
LINE
8
Layer 1
10
176.503428
20
192.478181
11
175.738415
21
192.325866
0
LINE
8
Layer 1
10
175.738415
20
192.325866
11
175.395077
21
192.946452
0
LINE
8
Layer 1
10
175.395077
20
192.946452
11
175.034598
21
194.725146
0
LINE
8
Layer 1
10
175.034598
20
194.725146
11
174.305717
21
201.258479
0
LINE
8
Layer 1
10
174.305717
20
201.258479
11
173.638775
21
210.929107
0
LINE
8
Layer 1
10
173.638775
20
210.929107
11
173.120775
21
222.740269
0
LINE
8
Layer 1
10
173.120775
20
222.740269
11
172.123571
21
253.172478
0
LINE
8
Layer 1
10
172.123571
20
253.172478
11
185.193932
21
271.460292
0
LINE
8
Layer 1
10
185.193932
20
271.460292
11
191.241490
21
279.707529
0
LINE
8
Layer 1
10
191.241490
20
279.707529
11
197.554224
21
287.911260
0
LINE
8
Layer 1
10
197.554224
20
287.911260
11
204.009426
21
295.929106
0
LINE
8
Layer 1
10
204.009426
20
295.929106
11
210.484387
21
303.618692
0
LINE
8
Layer 1
10
210.484387
20
303.618692
11
216.856399
21
310.837641
0
LINE
8
Layer 1
10
216.856399
20
310.837641
11
223.002752
21
317.443576
0
LINE
8
Layer 1
10
223.002752
20
317.443576
11
228.800740
21
323.294121
0
LINE
8
Layer 1
10
228.800740
20
323.294121
11
234.127652
21
328.246899
0
LINE
8
Layer 1
10
234.127652
20
328.246899
11
239.410150
21
332.649963
0
LINE
8
Layer 1
10
239.410150
20
332.649963
11
245.764188
21
337.548661
0
LINE
8
Layer 1
10
245.764188
20
337.548661
11
252.698761
21
342.609280
0
LINE
8
Layer 1
10
252.698761
20
342.609280
11
259.722866
21
347.498110
0
LINE
8
Layer 1
10
259.722866
20
347.498110
11
266.345496
21
351.881438
0
LINE
8
Layer 1
10
266.345496
20
351.881438
11
272.075649
21
355.425553
0
LINE
8
Layer 1
10
272.075649
20
355.425553
11
276.422320
21
357.796744
0
LINE
8
Layer 1
10
276.422320
20
357.796744
11
277.923410
21
358.438209
0
LINE
8
Layer 1
10
277.923410
20
358.438209
11
278.894503
21
358.661300
0
LINE
8
Layer 1
10
278.894503
20
358.661300
11
278.894503
21
358.661300
0
LINE
8
Layer 1
10
-253.072595
20
223.968952
11
-248.496190
21
223.968952
0
LINE
8
Layer 1
10
-248.496190
20
223.968952
11
-242.922592
21
223.915533
0
LINE
8
Layer 1
10
-242.922592
20
223.915533
11
-233.220283
21
223.668910
0
LINE
8
Layer 1
10
-233.220283
20
223.668910
11
-224.075946
21
223.210202
0
LINE
8
Layer 1
10
-224.075946
20
223.210202
11
-215.329479
21
222.519147
0
LINE
8
Layer 1
10
-215.329479
20
222.519147
11
-206.820778
21
221.575486
0
LINE
8
Layer 1
10
-206.820778
20
221.575486
11
-198.389742
21
220.358958
0
LINE
8
Layer 1
10
-198.389742
20
220.358958
11
-189.876267
21
218.849302
0
LINE
8
Layer 1
10
-189.876267
20
218.849302
11
-181.120250
21
217.026257
0
LINE
8
Layer 1
10
-181.120250
20
217.026257
11
-171.961590
21
214.869563
0
LINE
8
Layer 1
10
-171.961590
20
214.869563
11
-162.766797
21
212.807732
0
LINE
8
Layer 1
10
-162.766797
20
212.807732
11
-159.343571
21
212.193634
0
LINE
8
Layer 1
10
-159.343571
20
212.193634
11
-157.342022
21
211.984826
0
LINE
8
Layer 1
10
-157.342022
20
211.984826
11
-153.877121
21
211.285812
0
LINE
8
Layer 1
10
-153.877121
20
211.285812
11
-146.664188
21
209.362217
0
LINE
8
Layer 1
10
-146.664188
20
209.362217
11
-125.554222
21
203.211900
0
LINE
8
Layer 1
10
-125.554222
20
203.211900
11
-103.132116
21
196.275105
0
LINE
8
Layer 1
10
-103.132116
20
196.275105
11
-94.279010
21
193.368412
0
LINE
8
Layer 1
10
-94.279010
20
193.368412
11
-88.517865
21
191.293060
0
LINE
8
Layer 1
10
-88.517865
20
191.293060
11
-80.195347
21
187.638326
0
LINE
8
Layer 1
10
-80.195347
20
187.638326
11
-69.990956
21
182.803010
0
LINE
8
Layer 1
10
-69.990956
20
182.803010
11
-61.121441
21
178.353045
0
LINE
8
Layer 1
10
-61.121441
20
178.353045
11
-58.192495
21
176.761924
0
LINE
8
Layer 1
10
-58.192495
20
176.761924
11
-56.803550
21
175.854367
0
LINE
8
Layer 1
10
-56.803550
20
175.854367
11
-49.627319
21
169.746559
0
LINE
8
Layer 1
10
-49.627319
20
169.746559
11
-46.544940
21
167.042712
0
LINE
8
Layer 1
10
-46.544940
20
167.042712
11
-43.554463
21
164.106168
0
LINE
8
Layer 1
10
-43.554463
20
164.106168
11
-40.754234
21
161.062412
0
LINE
8
Layer 1
10
-40.754234
20
161.062412
11
-38.242602
21
158.036929
0
LINE
8
Layer 1
10
-38.242602
20
158.036929
11
-36.117913
21
155.155204
0
LINE
8
Layer 1
10
-36.117913
20
155.155204
11
-34.478514
21
152.542722
0
LINE
8
Layer 1
10
-34.478514
20
152.542722
11
-33.422754
21
150.324967
0
LINE
8
Layer 1
10
-33.422754
20
150.324967
11
-33.144471
21
149.403326
0
LINE
8
Layer 1
10
-33.144471
20
149.403326
11
-33.048979
21
148.627424
0
LINE
8
Layer 1
10
-33.048979
20
148.627424
11
-33.150885
21
147.763807
0
LINE
8
Layer 1
10
-33.150885
20
147.763807
11
-33.524765
21
147.109387
0
LINE
8
Layer 1
10
-33.524765
20
147.109387
11
-34.272872
21
146.650822
0
LINE
8
Layer 1
10
-34.272872
20
146.650822
11
-35.497455
21
146.374772
0
LINE
8
Layer 1
10
-35.497455
20
146.374772
11
-37.300765
21
146.267896
0
LINE
8
Layer 1
10
-37.300765
20
146.267896
11
-39.785052
21
146.316855
0
LINE
8
Layer 1
10
-39.785052
20
146.316855
11
-47.205564
21
146.828915
0
LINE
8
Layer 1
10
-47.205564
20
146.828915
11
-54.806973
21
147.534501
0
LINE
8
Layer 1
10
-54.806973
20
147.534501
11
-61.987167
21
148.371196
0
LINE
8
Layer 1
10
-61.987167
20
148.371196
11
-68.813020
21
149.351671
0
LINE
8
Layer 1
10
-68.813020
20
149.351671
11
-75.351407
21
150.488599
0
LINE
8
Layer 1
10
-75.351407
20
150.488599
11
-81.669202
21
151.794650
0
LINE
8
Layer 1
10
-81.669202
20
151.794650
11
-87.833280
21
153.282498
0
LINE
8
Layer 1
10
-87.833280
20
153.282498
11
-93.910515
21
154.964814
0
LINE
8
Layer 1
10
-93.910515
20
154.964814
11
-99.967782
21
156.854270
0
LINE
8
Layer 1
10
-99.967782
20
156.854270
11
-111.444845
21
160.447549
0
LINE
8
Layer 1
10
-111.444845
20
160.447549
11
-118.789808
21
162.427871
0
LINE
8
Layer 1
10
-118.789808
20
162.427871
11
-122.851941
21
163.521490
0
LINE
8
Layer 1
10
-122.851941
20
163.521490
11
-124.833296
21
164.250621
0
LINE
8
Layer 1
10
-124.833296
20
164.250621
11
-126.446830
21
164.992082
0
LINE
8
Layer 1
10
-126.446830
20
164.992082
11
-133.210829
21
167.868261
0
LINE
8
Layer 1
10
-133.210829
20
167.868261
11
-144.894910
21
172.328576
0
LINE
8
Layer 1
10
-144.894910
20
172.328576
11
-158.579541
21
177.657825
0
LINE
8
Layer 1
10
-158.579541
20
177.657825
11
-170.145275
21
182.621037
0
LINE
8
Layer 1
10
-170.145275
20
182.621037
11
-192.065724
21
192.664200
0
LINE
8
Layer 1
10
-192.065724
20
192.664200
11
-203.146284
21
197.817062
0
LINE
8
Layer 1
10
-203.146284
20
197.817062
11
-213.095823
21
202.689557
0
LINE
8
Layer 1
10
-213.095823
20
202.689557
11
-222.230826
21
207.354998
0
LINE
8
Layer 1
10
-222.230826
20
207.354998
11
-216.746263
21
201.460872
0
LINE
8
Layer 1
10
-216.746263
20
201.460872
11
-214.180930
21
198.968770
0
LINE
8
Layer 1
10
-214.180930
20
198.968770
11
-210.521088
21
195.774054
0
LINE
8
Layer 1
10
-210.521088
20
195.774054
11
-200.993326
21
188.109137
0
LINE
8
Layer 1
10
-200.993326
20
188.109137
11
-190.313871
21
180.130829
0
LINE
8
Layer 1
10
-190.313871
20
180.130829
11
-185.214411
21
176.544375
0
LINE
8
Layer 1
10
-185.214411
20
176.544375
11
-180.633613
21
173.503840
0
LINE
8
Layer 1
10
-180.633613
20
173.503840
11
-175.055462
21
170.255597
0
LINE
8
Layer 1
10
-175.055462
20
170.255597
11
-166.531793
21
165.664549
0
LINE
8
Layer 1
10
-166.531793
20
165.664549
11
-144.211359
21
154.236972
0
LINE
8
Layer 1
10
-144.211359
20
154.236972
11
-120.799235
21
142.786970
0
LINE
8
Layer 1
10
-120.799235
20
142.786970
11
-110.910953
21
138.167892
0
LINE
8
Layer 1
10
-110.910953
20
138.167892
11
-103.422346
21
134.880405
0
LINE
8
Layer 1
10
-103.422346
20
134.880405
11
-71.992944
21
121.827853
0
LINE
8
Layer 1
10
-71.992944
20
121.827853
11
-60.916069
21
117.400418
0
LINE
8
Layer 1
10
-60.916069
20
117.400418
11
-57.160744
21
116.054143
0
LINE
8
Layer 1
10
-57.160744
20
116.054143
11
-55.325566
21
115.559782
0
LINE
8
Layer 1
10
-55.325566
20
115.559782
11
-53.622520
21
115.125522
0
LINE
8
Layer 1
10
-53.622520
20
115.125522
11
-50.225327
21
113.943224
0
LINE
8
Layer 1
10
-50.225327
20
113.943224
11
-40.314245
21
110.057408
0
LINE
8
Layer 1
10
-40.314245
20
110.057408
11
-29.767366
21
105.956751
0
LINE
8
Layer 1
10
-29.767366
20
105.956751
11
-25.684709
21
104.542263
0
LINE
8
Layer 1
10
-25.684709
20
104.542263
11
-23.148270
21
103.824954
0
LINE
8
Layer 1
10
-23.148270
20
103.824954
11
-19.132425
21
102.777415
0
LINE
8
Layer 1
10
-19.132425
20
102.777415
11
-14.569414
21
101.227839
0
LINE
8
Layer 1
10
-14.569414
20
101.227839
11
-10.827913
21
99.685810
0
LINE
8
Layer 1
10
-10.827913
20
99.685810
11
-9.692940
21
99.076869
0
LINE
8
Layer 1
10
-9.692940
20
99.076869
11
-9.276596
21
98.660908
0
LINE
8
Layer 1
10
-9.276596
20
98.660908
11
-10.392693
21
98.564119
0
LINE
8
Layer 1
10
-10.392693
20
98.564119
11
-13.470484
21
98.669512
0
LINE
8
Layer 1
10
-13.470484
20
98.669512
11
-23.888148
21
99.362918
0
LINE
8
Layer 1
10
-23.888148
20
99.362918
11
-37.283595
21
100.493284
0
LINE
8
Layer 1
10
-37.283595
20
100.493284
11
-50.410827
21
101.812766
0
LINE
8
Layer 1
10
-50.410827
20
101.812766
11
-55.401203
21
102.654791
0
LINE
8
Layer 1
10
-55.401203
20
102.654791
11
-62.232210
21
104.191765
0
LINE
8
Layer 1
10
-62.232210
20
104.191765
11
-70.003779
21
106.204196
0
LINE
8
Layer 1
10
-70.003779
20
106.204196
11
-77.815841
21
108.472589
0
LINE
8
Layer 1
10
-77.815841
20
108.472589
11
-91.518751
21
112.628132
0
LINE
8
Layer 1
10
-91.518751
20
112.628132
11
-98.828132
21
114.705044
0
LINE
8
Layer 1
10
-98.828132
20
114.705044
11
-101.401707
21
115.553224
0
LINE
8
Layer 1
10
-101.401707
20
115.553224
11
-105.899083
21
117.337352
0
LINE
8
Layer 1
10
-105.899083
20
117.337352
11
-118.874085
21
122.920085
0
LINE
8
Layer 1
10
-118.874085
20
122.920085
11
-134.170831
21
129.866506
0
LINE
8
Layer 1
10
-134.170831
20
129.866506
11
-148.207016
21
136.589881
0
LINE
8
Layer 1
10
-148.207016
20
136.589881
11
-155.231104
21
140.242153
0
LINE
8
Layer 1
10
-155.231104
20
140.242153
11
-163.181775
21
144.646972
0
LINE
8
Layer 1
10
-163.181775
20
144.646972
11
-171.848963
21
149.675830
0
LINE
8
Layer 1
10
-171.848963
20
149.675830
11
-181.022603
21
155.200218
0
LINE
8
Layer 1
10
-181.022603
20
155.200218
11
-190.492631
21
161.091626
0
LINE
8
Layer 1
10
-190.492631
20
161.091626
11
-200.048981
21
167.221545
0
LINE
8
Layer 1
10
-200.048981
20
167.221545
11
-209.481587
21
173.461465
0
LINE
8
Layer 1
10
-209.481587
20
173.461465
11
-218.580386
21
179.682878
0
LINE
8
Layer 1
10
-218.580386
20
179.682878
11
-225.998461
21
185.051417
0
LINE
8
Layer 1
10
-225.998461
20
185.051417
11
-234.329984
21
191.411122
0
LINE
8
Layer 1
10
-234.329984
20
191.411122
11
-242.988605
21
198.273762
0
LINE
8
Layer 1
10
-242.988605
20
198.273762
11
-251.387974
21
205.151109
0
LINE
8
Layer 1
10
-251.387974
20
205.151109
11
-258.941742
21
211.554934
0
LINE
8
Layer 1
10
-258.941742
20
211.554934
11
-265.063558
21
216.997008
0
LINE
8
Layer 1
10
-265.063558
20
216.997008
11
-269.167074
21
220.989102
0
LINE
8
Layer 1
10
-269.167074
20
220.989102
11
-270.278735
21
222.288835
0
LINE
8
Layer 1
10
-270.278735
20
222.288835
11
-270.665939
21
223.042987
0
LINE
8
Layer 1
10
-270.665939
20
223.042987
11
-270.331759
21
223.234331
0
LINE
8
Layer 1
10
-270.331759
20
223.234331
11
-269.362727
21
223.407387
0
LINE
8
Layer 1
10
-269.362727
20
223.407387
11
-265.724104
21
223.692007
0
LINE
8
Layer 1
10
-265.724104
20
223.692007
11
-253.072595
21
223.968952
0
LINE
8
Layer 1
10
-253.072595
20
223.968952
11
-253.072595
21
223.968952
0
LINE
8
Layer 1
10
458.496190
20
223.968952
11
467.281282
21
223.938056
0
LINE
8
Layer 1
10
467.281282
20
223.938056
11
474.311091
21
223.759446
0
LINE
8
Layer 1
10
474.311091
20
223.759446
11
478.975885
21
223.454099
0
LINE
8
Layer 1
10
478.975885
20
223.454099
11
480.230860
21
223.260452
0
LINE
8
Layer 1
10
480.230860
20
223.260452
11
480.665931
21
223.042987
0
LINE
8
Layer 1
10
480.665931
20
223.042987
11
480.278727
21
222.288835
0
LINE
8
Layer 1
10
480.278727
20
222.288835
11
479.167066
21
220.989102
0
LINE
8
Layer 1
10
479.167066
20
220.989102
11
475.063551
21
216.997008
0
LINE
8
Layer 1
10
475.063551
20
216.997008
11
468.941736
21
211.554934
0
LINE
8
Layer 1
10
468.941736
20
211.554934
11
461.387970
21
205.151109
0
LINE
8
Layer 1
10
461.387970
20
205.151109
11
452.988601
21
198.273762
0
LINE
8
Layer 1
10
452.988601
20
198.273762
11
444.329981
21
191.411122
0
LINE
8
Layer 1
10
444.329981
20
191.411122
11
435.998458
21
185.051417
0
LINE
8
Layer 1
10
435.998458
20
185.051417
11
428.580381
21
179.682878
0
LINE
8
Layer 1
10
428.580381
20
179.682878
11
419.481585
21
173.461465
0
LINE
8
Layer 1
10
419.481585
20
173.461465
11
410.048979
21
167.221545
0
LINE
8
Layer 1
10
410.048979
20
167.221545
11
400.492631
21
161.091626
0
LINE
8
Layer 1
10
400.492631
20
161.091626
11
391.022604
21
155.200218
0
LINE
8
Layer 1
10
391.022604
20
155.200218
11
381.848964
21
149.675830
0
LINE
8
Layer 1
10
381.848964
20
149.675830
11
373.181778
21
144.646972
0
LINE
8
Layer 1
10
373.181778
20
144.646972
11
365.231111
21
140.242153
0
LINE
8
Layer 1
10
365.231111
20
140.242153
11
358.207028
21
136.589881
0
LINE
8
Layer 1
10
358.207028
20
136.589881
11
344.170837
21
129.866506
0
LINE
8
Layer 1
10
344.170837
20
129.866506
11
328.874088
21
122.920085
0
LINE
8
Layer 1
10
328.874088
20
122.920085
11
315.899085
21
117.337352
0
LINE
8
Layer 1
10
315.899085
20
117.337352
11
311.401708
21
115.553224
0
LINE
8
Layer 1
10
311.401708
20
115.553224
11
308.828130
21
114.705044
0
LINE
8
Layer 1
10
308.828130
20
114.705044
11
301.518754
21
112.628132
0
LINE
8
Layer 1
10
301.518754
20
112.628132
11
287.815838
21
108.472589
0
LINE
8
Layer 1
10
287.815838
20
108.472589
11
280.003771
21
106.204196
0
LINE
8
Layer 1
10
280.003771
20
106.204196
11
272.232197
21
104.191765
0
LINE
8
Layer 1
10
272.232197
20
104.191765
11
265.401187
21
102.654791
0
LINE
8
Layer 1
10
265.401187
20
102.654791
11
260.410810
21
101.812766
0
LINE
8
Layer 1
10
260.410810
20
101.812766
11
247.283583
21
100.493284
0
LINE
8
Layer 1
10
247.283583
20
100.493284
11
233.888137
21
99.362918
0
LINE
8
Layer 1
10
233.888137
20
99.362918
11
223.470471
21
98.669512
0
LINE
8
Layer 1
10
223.470471
20
98.669512
11
220.392680
21
98.564119
0
LINE
8
Layer 1
10
220.392680
20
98.564119
11
219.276583
21
98.660908
0
LINE
8
Layer 1
10
219.276583
20
98.660908
11
219.692926
21
99.076869
0
LINE
8
Layer 1
10
219.692926
20
99.076869
11
220.827899
21
99.685810
0
LINE
8
Layer 1
10
220.827899
20
99.685810
11
224.569400
21
101.227839
0
LINE
8
Layer 1
10
224.569400
20
101.227839
11
229.132410
21
102.777415
0
LINE
8
Layer 1
10
229.132410
20
102.777415
11
233.148257
21
103.824954
0
LINE
8
Layer 1
10
233.148257
20
103.824954
11
235.684699
21
104.542263
0
LINE
8
Layer 1
10
235.684699
20
104.542263
11
239.767356
21
105.956751
0
LINE
8
Layer 1
10
239.767356
20
105.956751
11
250.314226
21
110.057408
0
LINE
8
Layer 1
10
250.314226
20
110.057408
11
260.225320
21
113.943224
0
LINE
8
Layer 1
10
260.225320
20
113.943224
11
263.622516
21
115.125522
0
LINE
8
Layer 1
10
263.622516
20
115.125522
11
265.325569
21
115.559782
0
LINE
8
Layer 1
10
265.325569
20
115.559782
11
267.160733
21
116.054143
0
LINE
8
Layer 1
10
267.160733
20
116.054143
11
270.916053
21
117.400418
0
LINE
8
Layer 1
10
270.916053
20
117.400418
11
281.992936
21
121.827853
0
LINE
8
Layer 1
10
281.992936
20
121.827853
11
313.422340
21
134.880405
0
LINE
8
Layer 1
10
313.422340
20
134.880405
11
320.910950
21
138.167892
0
LINE
8
Layer 1
10
320.910950
20
138.167892
11
330.799232
21
142.786970
0
LINE
8
Layer 1
10
330.799232
20
142.786970
11
354.211354
21
154.236972
0
LINE
8
Layer 1
10
354.211354
20
154.236972
11
376.531784
21
165.664549
0
LINE
8
Layer 1
10
376.531784
20
165.664549
11
385.055451
21
170.255597
0
LINE
8
Layer 1
10
385.055451
20
170.255597
11
390.633599
21
173.503840
0
LINE
8
Layer 1
10
390.633599
20
173.503840
11
395.214401
21
176.544375
0
LINE
8
Layer 1
10
395.214401
20
176.544375
11
400.313864
21
180.130829
0
LINE
8
Layer 1
10
400.313864
20
180.130829
11
410.993325
21
188.109137
0
LINE
8
Layer 1
10
410.993325
20
188.109137
11
420.521093
21
195.774054
0
LINE
8
Layer 1
10
420.521093
20
195.774054
11
424.180937
21
198.968770
0
LINE
8
Layer 1
10
424.180937
20
198.968770
11
426.746275
21
201.460872
0
LINE
8
Layer 1
10
426.746275
20
201.460872
11
432.230812
21
207.354998
0
LINE
8
Layer 1
10
432.230812
20
207.354998
11
423.095815
21
202.689557
0
LINE
8
Layer 1
10
423.095815
20
202.689557
11
413.146275
21
197.817062
0
LINE
8
Layer 1
10
413.146275
20
197.817062
11
402.065716
21
192.664200
0
LINE
8
Layer 1
10
402.065716
20
192.664200
11
380.145262
21
182.621037
0
LINE
8
Layer 1
10
380.145262
20
182.621037
11
368.579534
21
177.657825
0
LINE
8
Layer 1
10
368.579534
20
177.657825
11
354.894896
21
172.328576
0
LINE
8
Layer 1
10
354.894896
20
172.328576
11
343.210825
21
167.868261
0
LINE
8
Layer 1
10
343.210825
20
167.868261
11
336.446820
21
164.992082
0
LINE
8
Layer 1
10
336.446820
20
164.992082
11
334.833290
21
164.250621
0
LINE
8
Layer 1
10
334.833290
20
164.250621
11
332.851936
21
163.521490
0
LINE
8
Layer 1
10
332.851936
20
163.521490
11
328.789820
21
162.427871
0
LINE
8
Layer 1
10
328.789820
20
162.427871
11
321.444842
21
160.447549
0
LINE
8
Layer 1
10
321.444842
20
160.447549
11
309.967771
21
156.854270
0
LINE
8
Layer 1
10
309.967771
20
156.854270
11
303.910504
21
154.964814
0
LINE
8
Layer 1
10
303.910504
20
154.964814
11
297.833268
21
153.282498
0
LINE
8
Layer 1
10
297.833268
20
153.282498
11
291.669189
21
151.794650
0
LINE
8
Layer 1
10
291.669189
20
151.794650
11
285.351392
21
150.488599
0
LINE
8
Layer 1
10
285.351392
20
150.488599
11
278.813005
21
149.351671
0
LINE
8
Layer 1
10
278.813005
20
149.351671
11
271.987152
21
148.371196
0
LINE
8
Layer 1
10
271.987152
20
148.371196
11
264.806960
21
147.534501
0
LINE
8
Layer 1
10
264.806960
20
147.534501
11
257.205556
21
146.828915
0
LINE
8
Layer 1
10
257.205556
20
146.828915
11
249.785047
21
146.316855
0
LINE
8
Layer 1
10
249.785047
20
146.316855
11
247.300760
21
146.267896
0
LINE
8
Layer 1
10
247.300760
20
146.267896
11
245.497451
21
146.374772
0
LINE
8
Layer 1
10
245.497451
20
146.374772
11
244.272869
21
146.650822
0
LINE
8
Layer 1
10
244.272869
20
146.650822
11
243.524763
21
147.109387
0
LINE
8
Layer 1
10
243.524763
20
147.109387
11
243.150883
21
147.763807
0
LINE
8
Layer 1
10
243.150883
20
147.763807
11
243.048979
21
148.627424
0
LINE
8
Layer 1
10
243.048979
20
148.627424
11
243.144472
21
149.403326
0
LINE
8
Layer 1
10
243.144472
20
149.403326
11
243.422754
21
150.324967
0
LINE
8
Layer 1
10
243.422754
20
150.324967
11
244.478515
21
152.542722
0
LINE
8
Layer 1
10
244.478515
20
152.542722
11
246.117913
21
155.155204
0
LINE
8
Layer 1
10
246.117913
20
155.155204
11
248.242602
21
158.036929
0
LINE
8
Layer 1
10
248.242602
20
158.036929
11
250.754233
21
161.062412
0
LINE
8
Layer 1
10
250.754233
20
161.062412
11
253.554459
21
164.106168
0
LINE
8
Layer 1
10
253.554459
20
164.106168
11
256.544932
21
167.042712
0
LINE
8
Layer 1
10
256.544932
20
167.042712
11
259.627305
21
169.746559
0
LINE
8
Layer 1
10
259.627305
20
169.746559
11
266.803539
21
175.854367
0
LINE
8
Layer 1
10
266.803539
20
175.854367
11
268.192487
21
176.761924
0
LINE
8
Layer 1
10
268.192487
20
176.761924
11
271.121435
21
178.353045
0
LINE
8
Layer 1
10
271.121435
20
178.353045
11
279.990955
21
182.803010
0
LINE
8
Layer 1
10
279.990955
20
182.803010
11
290.195351
21
187.638326
0
LINE
8
Layer 1
10
290.195351
20
187.638326
11
298.517874
21
191.293060
0
LINE
8
Layer 1
10
298.517874
20
191.293060
11
304.279014
21
193.368412
0
LINE
8
Layer 1
10
304.279014
20
193.368412
11
313.132119
21
196.275105
0
LINE
8
Layer 1
10
313.132119
20
196.275105
11
335.554225
21
203.211900
0
LINE
8
Layer 1
10
335.554225
20
203.211900
11
356.664193
21
209.362217
0
LINE
8
Layer 1
10
356.664193
20
209.362217
11
363.877126
21
211.285812
0
LINE
8
Layer 1
10
363.877126
20
211.285812
11
367.342025
21
211.984826
0
LINE
8
Layer 1
10
367.342025
20
211.984826
11
369.343566
21
212.193634
0
LINE
8
Layer 1
10
369.343566
20
212.193634
11
372.766788
21
212.807732
0
LINE
8
Layer 1
10
372.766788
20
212.807732
11
381.961588
21
214.869563
0
LINE
8
Layer 1
10
381.961588
20
214.869563
11
391.120245
21
217.026257
0
LINE
8
Layer 1
10
391.120245
20
217.026257
11
399.876259
21
218.849302
0
LINE
8
Layer 1
10
399.876259
20
218.849302
11
408.389733
21
220.358958
0
LINE
8
Layer 1
10
408.389733
20
220.358958
11
416.820770
21
221.575486
0
LINE
8
Layer 1
10
416.820770
20
221.575486
11
425.329471
21
222.519147
0
LINE
8
Layer 1
10
425.329471
20
222.519147
11
434.075938
21
223.210202
0
LINE
8
Layer 1
10
434.075938
20
223.210202
11
443.220275
21
223.668910
0
LINE
8
Layer 1
10
443.220275
20
223.668910
11
452.922584
21
223.915533
0
LINE
8
Layer 1
10
452.922584
20
223.915533
11
458.496190
21
223.968952
0
LINE
8
Layer 1
10
458.496190
20
223.968952
11
458.496190
21
223.968952
0
LINE
8
Layer 1
10
31.697371
20
87.602736
11
32.160354
21
87.513723
0
LINE
8
Layer 1
10
32.160354
20
87.513723
11
32.225185
21
87.303314
0
LINE
8
Layer 1
10
32.225185
20
87.303314
11
32.123232
21
86.978479
0
LINE
8
Layer 1
10
32.123232
20
86.978479
11
31.452366
21
86.011815
0
LINE
8
Layer 1
10
31.452366
20
86.011815
11
28.476522
21
82.994509
0
LINE
8
Layer 1
10
28.476522
20
82.994509
11
23.767057
21
78.882361
0
LINE
8
Layer 1
10
23.767057
20
78.882361
11
17.858207
21
74.095930
0
LINE
8
Layer 1
10
17.858207
20
74.095930
11
11.284208
21
69.055772
0
LINE
8
Layer 1
10
11.284208
20
69.055772
11
4.579294
21
64.182446
0
LINE
8
Layer 1
10
4.579294
20
64.182446
11
-1.722298
21
59.896508
0
LINE
8
Layer 1
10
-1.722298
20
59.896508
11
-7.086332
21
56.618518
0
LINE
8
Layer 1
10
-7.086332
20
56.618518
11
-12.703295
21
53.600365
0
LINE
8
Layer 1
10
-12.703295
20
53.600365
11
-18.254291
21
50.847992
0
LINE
8
Layer 1
10
-18.254291
20
50.847992
11
-23.676756
21
48.385574
0
LINE
8
Layer 1
10
-23.676756
20
48.385574
11
-28.908126
21
46.237284
0
LINE
8
Layer 1
10
-28.908126
20
46.237284
11
-33.885835
21
44.427295
0
LINE
8
Layer 1
10
-33.885835
20
44.427295
11
-38.547319
21
42.979781
0
LINE
8
Layer 1
10
-38.547319
20
42.979781
11
-42.830012
21
41.918917
0
LINE
8
Layer 1
10
-42.830012
20
41.918917
11
-46.671351
21
41.268874
0
LINE
8
Layer 1
10
-46.671351
20
41.268874
11
-49.696288
21
40.796199
0
LINE
8
Layer 1
10
-49.696288
20
40.796199
11
-52.597093
21
40.157353
0
LINE
8
Layer 1
10
-52.597093
20
40.157353
11
-55.045818
21
39.437665
0
LINE
8
Layer 1
10
-55.045818
20
39.437665
11
-56.714514
21
38.722468
0
LINE
8
Layer 1
10
-56.714514
20
38.722468
11
-59.250401
21
37.460262
0
LINE
8
Layer 1
10
-59.250401
20
37.460262
11
-60.242528
21
37.173760
0
LINE
8
Layer 1
10
-60.242528
20
37.173760
11
-61.072851
21
37.118712
0
LINE
8
Layer 1
10
-61.072851
20
37.118712
11
-61.757928
21
37.296407
0
LINE
8
Layer 1
10
-61.757928
20
37.296407
11
-62.314314
21
37.708135
0
LINE
8
Layer 1
10
-62.314314
20
37.708135
11
-62.758565
21
38.355186
0
LINE
8
Layer 1
10
-62.758565
20
38.355186
11
-63.107237
21
39.238850
0
LINE
8
Layer 1
10
-63.107237
20
39.238850
11
-64.306400
21
43.340463
0
LINE
8
Layer 1
10
-64.306400
20
43.340463
11
-64.990594
21
46.560169
0
LINE
8
Layer 1
10
-64.990594
20
46.560169
11
-65.097445
21
47.910458
0
LINE
8
Layer 1
10
-65.097445
20
47.910458
11
-65.024995
21
49.125653
0
LINE
8
Layer 1
10
-65.024995
20
49.125653
11
-64.756392
21
50.234213
0
LINE
8
Layer 1
10
-64.756392
20
50.234213
11
-64.274783
21
51.264600
0
LINE
8
Layer 1
10
-64.274783
20
51.264600
11
-63.563314
21
52.245273
0
LINE
8
Layer 1
10
-63.563314
20
52.245273
11
-62.605134
21
53.204694
0
LINE
8
Layer 1
10
-62.605134
20
53.204694
11
-59.881228
21
55.173619
0
LINE
8
Layer 1
10
-59.881228
20
55.173619
11
-55.968242
21
57.399061
0
LINE
8
Layer 1
10
-55.968242
20
57.399061
11
-50.731355
21
60.108703
0
LINE
8
Layer 1
10
-50.731355
20
60.108703
11
-42.779759
21
64.074073
0
LINE
8
Layer 1
10
-42.779759
20
64.074073
11
-35.358439
21
67.596859
0
LINE
8
Layer 1
10
-35.358439
20
67.596859
11
-28.437354
21
70.688648
0
LINE
8
Layer 1
10
-28.437354
20
70.688648
11
-21.986465
21
73.361026
0
LINE
8
Layer 1
10
-21.986465
20
73.361026
11
-15.975730
21
75.625582
0
LINE
8
Layer 1
10
-15.975730
20
75.625582
11
-10.375109
21
77.493900
0
LINE
8
Layer 1
10
-10.375109
20
77.493900
11
-5.154562
21
78.977569
0
LINE
8
Layer 1
10
-5.154562
20
78.977569
11
-0.284048
21
80.088174
0
LINE
8
Layer 1
10
-0.284048
20
80.088174
11
16.792891
21
84.504331
0
LINE
8
Layer 1
10
16.792891
20
84.504331
11
26.196418
21
86.774692
0
LINE
8
Layer 1
10
26.196418
20
86.774692
11
29.603929
21
87.401102
0
LINE
8
Layer 1
10
29.603929
20
87.401102
11
31.697371
21
87.602736
0
LINE
8
Layer 1
10
31.697371
20
87.602736
11
31.697371
21
87.602736
0
LINE
8
Layer 1
10
178.302629
20
87.602736
11
180.396066
21
87.401102
0
LINE
8
Layer 1
10
180.396066
20
87.401102
11
183.803571
21
86.774692
0
LINE
8
Layer 1
10
183.803571
20
86.774692
11
193.207095
21
84.504331
0
LINE
8
Layer 1
10
193.207095
20
84.504331
11
210.284052
21
80.088174
0
LINE
8
Layer 1
10
210.284052
20
80.088174
11
215.154563
21
78.977569
0
LINE
8
Layer 1
10
215.154563
20
78.977569
11
220.375108
21
77.493900
0
LINE
8
Layer 1
10
220.375108
20
77.493900
11
225.975727
21
75.625582
0
LINE
8
Layer 1
10
225.975727
20
75.625582
11
231.986461
21
73.361026
0
LINE
8
Layer 1
10
231.986461
20
73.361026
11
238.437350
21
70.688648
0
LINE
8
Layer 1
10
238.437350
20
70.688648
11
245.358435
21
67.596859
0
LINE
8
Layer 1
10
245.358435
20
67.596859
11
252.779758
21
64.074073
0
LINE
8
Layer 1
10
252.779758
20
64.074073
11
260.731358
21
60.108703
0
LINE
8
Layer 1
10
260.731358
20
60.108703
11
265.968238
21
57.399061
0
LINE
8
Layer 1
10
265.968238
20
57.399061
11
269.881220
21
55.173619
0
LINE
8
Layer 1
10
269.881220
20
55.173619
11
272.605124
21
53.204694
0
LINE
8
Layer 1
10
272.605124
20
53.204694
11
273.563304
21
52.245273
0
LINE
8
Layer 1
10
273.563304
20
52.245273
11
274.274772
21
51.264600
0
LINE
8
Layer 1
10
274.274772
20
51.264600
11
274.756382
21
50.234213
0
LINE
8
Layer 1
10
274.756382
20
50.234213
11
275.024986
21
49.125653
0
LINE
8
Layer 1
10
275.024986
20
49.125653
11
275.097436
21
47.910458
0
LINE
8
Layer 1
10
275.097436
20
47.910458
11
274.990585
21
46.560169
0
LINE
8
Layer 1
10
274.990585
20
46.560169
11
274.306392
21
43.340463
0
LINE
8
Layer 1
10
274.306392
20
43.340463
11
273.107226
21
39.238850
0
LINE
8
Layer 1
10
273.107226
20
39.238850
11
272.758557
21
38.355186
0
LINE
8
Layer 1
10
272.758557
20
38.355186
11
272.314309
21
37.708135
0
LINE
8
Layer 1
10
272.314309
20
37.708135
11
271.757925
21
37.296407
0
LINE
8
Layer 1
10
271.757925
20
37.296407
11
271.072848
21
37.118712
0
LINE
8
Layer 1
10
271.072848
20
37.118712
11
270.242524
21
37.173760
0
LINE
8
Layer 1
10
270.242524
20
37.173760
11
269.250395
21
37.460262
0
LINE
8
Layer 1
10
269.250395
20
37.460262
11
266.714498
21
38.722468
0
LINE
8
Layer 1
10
266.714498
20
38.722468
11
265.045809
21
39.437665
0
LINE
8
Layer 1
10
265.045809
20
39.437665
11
262.597084
21
40.157353
0
LINE
8
Layer 1
10
262.597084
20
40.157353
11
259.696275
21
40.796199
0
LINE
8
Layer 1
10
259.696275
20
40.796199
11
256.671338
21
41.268874
0
LINE
8
Layer 1
10
256.671338
20
41.268874
11
252.830001
21
41.918917
0
LINE
8
Layer 1
10
252.830001
20
41.918917
11
248.547308
21
42.979781
0
LINE
8
Layer 1
10
248.547308
20
42.979781
11
243.885825
21
44.427295
0
LINE
8
Layer 1
10
243.885825
20
44.427295
11
238.908116
21
46.237284
0
LINE
8
Layer 1
10
238.908116
20
46.237284
11
233.676745
21
48.385574
0
LINE
8
Layer 1
10
233.676745
20
48.385574
11
228.254278
21
50.847992
0
LINE
8
Layer 1
10
228.254278
20
50.847992
11
222.703279
21
53.600365
0
LINE
8
Layer 1
10
222.703279
20
53.600365
11
217.086313
21
56.618518
0
LINE
8
Layer 1
10
217.086313
20
56.618518
11
211.722283
21
59.896508
0
LINE
8
Layer 1
10
211.722283
20
59.896508
11
205.420694
21
64.182446
0
LINE
8
Layer 1
10
205.420694
20
64.182446
11
198.715782
21
69.055772
0
LINE
8
Layer 1
10
198.715782
20
69.055772
11
192.141784
21
74.095930
0
LINE
8
Layer 1
10
192.141784
20
74.095930
11
186.232935
21
78.882361
0
LINE
8
Layer 1
10
186.232935
20
78.882361
11
181.523471
21
82.994509
0
LINE
8
Layer 1
10
181.523471
20
82.994509
11
178.547629
21
86.011815
0
LINE
8
Layer 1
10
178.547629
20
86.011815
11
177.876764
21
86.978479
0
LINE
8
Layer 1
10
177.876764
20
86.978479
11
177.774812
21
87.303314
0
LINE
8
Layer 1
10
177.774812
20
87.303314
11
177.839644
21
87.513723
0
LINE
8
Layer 1
10
177.839644
20
87.513723
11
178.302629
21
87.602736
0
LINE
8
Layer 1
10
178.302629
20
87.602736
11
178.302629
21
87.602736
0
LINE
8
Layer 1
10
50.109837
20
76.473359
11
50.652597
21
76.398542
0
LINE
8
Layer 1
10
50.652597
20
76.398542
11
51.267292
21
76.117223
0
LINE
8
Layer 1
10
51.267292
20
76.117223
11
51.697922
21
75.612564
0
LINE
8
Layer 1
10
51.697922
20
75.612564
11
52.036771
21
74.723629
0
LINE
8
Layer 1
10
52.036771
20
74.723629
11
52.454844
21
71.999370
0
LINE
8
Layer 1
10
52.454844
20
71.999370
11
52.552947
21
68.357329
0
LINE
8
Layer 1
10
52.552947
20
68.357329
11
52.362514
21
64.210387
0
LINE
8
Layer 1
10
52.362514
20
64.210387
11
51.914981
21
59.971426
0
LINE
8
Layer 1
10
51.914981
20
59.971426
11
51.241784
21
56.053326
0
LINE
8
Layer 1
10
51.241784
20
56.053326
11
50.374356
21
52.868971
0
LINE
8
Layer 1
10
50.374356
20
52.868971
11
49.877630
21
51.680972
0
LINE
8
Layer 1
10
49.877630
20
51.680972
11
49.344134
21
50.831241
0
LINE
8
Layer 1
10
49.344134
20
50.831241
11
47.878107
21
49.632389
0
LINE
8
Layer 1
10
47.878107
20
49.632389
11
45.379518
21
48.168407
0
LINE
8
Layer 1
10
45.379518
20
48.168407
11
42.196634
21
46.624631
0
LINE
8
Layer 1
10
42.196634
20
46.624631
11
38.677726
21
45.186401
0
LINE
8
Layer 1
10
38.677726
20
45.186401
11
36.770968
21
44.381170
0
LINE
8
Layer 1
10
36.770968
20
44.381170
11
34.667663
21
43.319477
0
LINE
8
Layer 1
10
34.667663
20
43.319477
11
30.148293
21
40.608619
0
LINE
8
Layer 1
10
30.148293
20
40.608619
11
25.673374
21
37.417664
0
LINE
8
Layer 1
10
25.673374
20
37.417664
11
21.796663
21
34.110449
0
LINE
8
Layer 1
10
21.796663
20
34.110449
11
19.236768
21
31.726678
0
LINE
8
Layer 1
10
19.236768
20
31.726678
11
17.004143
21
29.840846
0
LINE
8
Layer 1
10
17.004143
20
29.840846
11
14.925316
21
28.373448
0
LINE
8
Layer 1
10
14.925316
20
28.373448
11
12.826813
21
27.244977
0
LINE
8
Layer 1
10
12.826813
20
27.244977
11
10.535160
21
26.375927
0
LINE
8
Layer 1
10
10.535160
20
26.375927
11
7.876883
21
25.686793
0
LINE
8
Layer 1
10
7.876883
20
25.686793
11
4.678510
21
25.098068
0
LINE
8
Layer 1
10
4.678510
20
25.098068
11
0.766566
21
24.530246
0
LINE
8
Layer 1
10
0.766566
20
24.530246
11
-13.176335
21
22.571483
0
LINE
8
Layer 1
10
-13.176335
20
22.571483
11
-13.783073
21
22.672572
0
LINE
8
Layer 1
10
-13.783073
20
22.672572
11
-14.586758
21
23.121389
0
LINE
8
Layer 1
10
-14.586758
20
23.121389
11
-15.482097
21
23.847273
0
LINE
8
Layer 1
10
-15.482097
20
23.847273
11
-16.363795
21
24.779561
0
LINE
8
Layer 1
10
-16.363795
20
24.779561
11
-17.071184
21
25.802840
0
LINE
8
Layer 1
10
-17.071184
20
25.802840
11
-17.434570
21
26.735802
0
LINE
8
Layer 1
10
-17.434570
20
26.735802
11
-17.464164
21
27.564231
0
LINE
8
Layer 1
10
-17.464164
20
27.564231
11
-17.170178
21
28.273913
0
LINE
8
Layer 1
10
-17.170178
20
28.273913
11
-16.562823
21
28.850633
0
LINE
8
Layer 1
10
-16.562823
20
28.850633
11
-15.652309
21
29.280175
0
LINE
8
Layer 1
10
-15.652309
20
29.280175
11
-14.448847
21
29.548325
0
LINE
8
Layer 1
10
-14.448847
20
29.548325
11
-12.962650
21
29.640867
0
LINE
8
Layer 1
10
-12.962650
20
29.640867
11
-11.158996
21
29.984994
0
LINE
8
Layer 1
10
-11.158996
20
29.984994
11
-8.407475
21
30.956826
0
LINE
8
Layer 1
10
-8.407475
20
30.956826
11
-4.891167
21
32.465543
0
LINE
8
Layer 1
10
-4.891167
20
32.465543
11
-0.793148
21
34.420325
0
LINE
8
Layer 1
10
-0.793148
20
34.420325
11
8.415709
21
39.304801
0
LINE
8
Layer 1
10
8.415709
20
39.304801
11
13.160390
21
42.052854
0
LINE
8
Layer 1
10
13.160390
20
42.052854
11
17.754470
21
44.883689
0
LINE
8
Layer 1
10
17.754470
20
44.883689
11
21.688872
21
47.718736
0
LINE
8
Layer 1
10
21.688872
20
47.718736
11
26.463753
21
51.649734
0
LINE
8
Layer 1
10
26.463753
20
51.649734
11
31.658372
21
56.268406
0
LINE
8
Layer 1
10
31.658372
20
56.268406
11
36.851990
21
61.166472
0
LINE
8
Layer 1
10
36.851990
20
61.166472
11
41.623869
21
65.935655
0
LINE
8
Layer 1
10
41.623869
20
65.935655
11
45.553270
21
70.167675
0
LINE
8
Layer 1
10
45.553270
20
70.167675
11
48.219452
21
73.454254
0
LINE
8
Layer 1
10
48.219452
20
73.454254
11
48.947355
21
74.615416
0
LINE
8
Layer 1
10
48.947355
20
74.615416
11
49.201677
21
75.387114
0
LINE
8
Layer 1
10
49.201677
20
75.387114
11
49.266524
21
75.843677
0
LINE
8
Layer 1
10
49.266524
20
75.843677
11
49.450282
21
76.179834
0
LINE
8
Layer 1
10
49.450282
20
76.179834
11
49.736778
21
76.391192
0
LINE
8
Layer 1
10
49.736778
20
76.391192
11
50.109837
21
76.473359
0
LINE
8
Layer 1
10
50.109837
20
76.473359
11
50.109837
21
76.473359
0
LINE
8
Layer 1
10
159.890141
20
76.473359
11
160.263201
21
76.391192
0
LINE
8
Layer 1
10
160.263201
20
76.391192
11
160.549698
21
76.179834
0
LINE
8
Layer 1
10
160.549698
20
76.179834
11
160.733457
21
75.843677
0
LINE
8
Layer 1
10
160.733457
20
75.843677
11
160.798304
21
75.387114
0
LINE
8
Layer 1
10
160.798304
20
75.387114
11
161.052626
21
74.615416
0
LINE
8
Layer 1
10
161.052626
20
74.615416
11
161.780529
21
73.454254
0
LINE
8
Layer 1
10
161.780529
20
73.454254
11
164.446712
21
70.167675
0
LINE
8
Layer 1
10
164.446712
20
70.167675
11
168.376113
21
65.935655
0
LINE
8
Layer 1
10
168.376113
20
65.935655
11
173.147992
21
61.166472
0
LINE
8
Layer 1
10
173.147992
20
61.166472
11
178.341611
21
56.268406
0
LINE
8
Layer 1
10
178.341611
20
56.268406
11
183.536229
21
51.649734
0
LINE
8
Layer 1
10
183.536229
20
51.649734
11
188.311108
21
47.718736
0
LINE
8
Layer 1
10
188.311108
20
47.718736
11
192.245508
21
44.883689
0
LINE
8
Layer 1
10
192.245508
20
44.883689
11
196.839589
21
42.052854
0
LINE
8
Layer 1
10
196.839589
20
42.052854
11
201.584272
21
39.304801
0
LINE
8
Layer 1
10
201.584272
20
39.304801
11
210.793135
21
34.420325
0
LINE
8
Layer 1
10
210.793135
20
34.420325
11
214.891155
21
32.465543
0
LINE
8
Layer 1
10
214.891155
20
32.465543
11
218.407464
21
30.956826
0
LINE
8
Layer 1
10
218.407464
20
30.956826
11
221.158982
21
29.984994
0
LINE
8
Layer 1
10
221.158982
20
29.984994
11
222.962631
21
29.640867
0
LINE
8
Layer 1
10
222.962631
20
29.640867
11
224.448828
21
29.548325
0
LINE
8
Layer 1
10
224.448828
20
29.548325
11
225.652290
21
29.280175
0
LINE
8
Layer 1
10
225.652290
20
29.280175
11
226.562805
21
28.850633
0
LINE
8
Layer 1
10
226.562805
20
28.850633
11
227.170162
21
28.273913
0
LINE
8
Layer 1
10
227.170162
20
28.273913
11
227.464149
21
27.564231
0
LINE
8
Layer 1
10
227.464149
20
27.564231
11
227.434555
21
26.735802
0
LINE
8
Layer 1
10
227.434555
20
26.735802
11
227.071168
21
25.802840
0
LINE
8
Layer 1
10
227.071168
20
25.802840
11
226.363776
21
24.779561
0
LINE
8
Layer 1
10
226.363776
20
24.779561
11
225.482086
21
23.847273
0
LINE
8
Layer 1
10
225.482086
20
23.847273
11
224.586749
21
23.121389
0
LINE
8
Layer 1
10
224.586749
20
23.121389
11
223.783064
21
22.672572
0
LINE
8
Layer 1
10
223.783064
20
22.672572
11
223.176330
21
22.571483
0
LINE
8
Layer 1
10
223.176330
20
22.571483
11
209.233423
21
24.530246
0
LINE
8
Layer 1
10
209.233423
20
24.530246
11
205.321480
21
25.098068
0
LINE
8
Layer 1
10
205.321480
20
25.098068
11
202.123107
21
25.686793
0
LINE
8
Layer 1
10
202.123107
20
25.686793
11
199.464829
21
26.375927
0
LINE
8
Layer 1
10
199.464829
20
26.375927
11
197.173175
21
27.244977
0
LINE
8
Layer 1
10
197.173175
20
27.244977
11
195.074670
21
28.373448
0
LINE
8
Layer 1
10
195.074670
20
28.373448
11
192.995842
21
29.840846
0
LINE
8
Layer 1
10
192.995842
20
29.840846
11
190.763217
21
31.726678
0
LINE
8
Layer 1
10
190.763217
20
31.726678
11
188.203324
21
34.110449
0
LINE
8
Layer 1
10
188.203324
20
34.110449
11
184.326617
21
37.417664
0
LINE
8
Layer 1
10
184.326617
20
37.417664
11
179.851701
21
40.608619
0
LINE
8
Layer 1
10
179.851701
20
40.608619
11
175.332330
21
43.319477
0
LINE
8
Layer 1
10
175.332330
20
43.319477
11
173.229022
21
44.381170
0
LINE
8
Layer 1
10
173.229022
20
44.381170
11
171.322258
21
45.186401
0
LINE
8
Layer 1
10
171.322258
20
45.186401
11
167.803359
21
46.624631
0
LINE
8
Layer 1
10
167.803359
20
46.624631
11
164.620478
21
48.168407
0
LINE
8
Layer 1
10
164.620478
20
48.168407
11
162.121890
21
49.632389
0
LINE
8
Layer 1
10
162.121890
20
49.632389
11
160.655866
21
50.831241
0
LINE
8
Layer 1
10
160.655866
20
50.831241
11
160.122370
21
51.680972
0
LINE
8
Layer 1
10
160.122370
20
51.680972
11
159.625643
21
52.868971
0
LINE
8
Layer 1
10
159.625643
20
52.868971
11
158.758214
21
56.053326
0
LINE
8
Layer 1
10
158.758214
20
56.053326
11
158.085016
21
59.971426
0
LINE
8
Layer 1
10
158.085016
20
59.971426
11
157.637482
21
64.210387
0
LINE
8
Layer 1
10
157.637482
20
64.210387
11
157.447048
21
68.357329
0
LINE
8
Layer 1
10
157.447048
20
68.357329
11
157.545148
21
71.999370
0
LINE
8
Layer 1
10
157.545148
20
71.999370
11
157.963218
21
74.723629
0
LINE
8
Layer 1
10
157.963218
20
74.723629
11
158.302064
21
75.612564
0
LINE
8
Layer 1
10
158.302064
20
75.612564
11
158.732691
21
76.117223
0
LINE
8
Layer 1
10
158.732691
20
76.117223
11
159.347389
21
76.398542
0
LINE
8
Layer 1
10
159.347389
20
76.398542
11
159.890141
21
76.473359
0
LINE
8
Layer 1
10
159.890141
20
76.473359
11
159.890141
21
76.473359
0
LINE
8
Layer 1
10
86.756697
20
74.995361
11
83.052835
21
63.153684
0
LINE
8
Layer 1
10
83.052835
20
63.153684
11
80.863356
21
56.484702
0
LINE
8
Layer 1
10
80.863356
20
56.484702
11
79.995594
21
54.430026
0
LINE
8
Layer 1
10
79.995594
20
54.430026
11
79.152054
21
53.075489
0
LINE
8
Layer 1
10
79.152054
20
53.075489
11
78.237417
21
52.306286
0
LINE
8
Layer 1
10
78.237417
20
52.306286
11
77.156361
21
52.007612
0
LINE
8
Layer 1
10
77.156361
20
52.007612
11
75.813565
21
52.064663
0
LINE
8
Layer 1
10
75.813565
20
52.064663
11
74.113709
21
52.362635
0
LINE
8
Layer 1
10
74.113709
20
52.362635
11
69.555811
21
53.103669
0
LINE
8
Layer 1
10
69.555811
20
53.103669
11
65.975896
21
53.413263
0
LINE
8
Layer 1
10
65.975896
20
53.413263
11
65.556928
21
53.550455
0
LINE
8
Layer 1
10
65.556928
20
53.550455
11
65.437536
21
53.944466
0
LINE
8
Layer 1
10
65.437536
20
53.944466
11
65.594370
21
54.568938
0
LINE
8
Layer 1
10
65.594370
20
54.568938
11
66.004077
21
55.397511
0
LINE
8
Layer 1
10
66.004077
20
55.397511
11
67.488704
21
57.561524
0
LINE
8
Layer 1
10
67.488704
20
57.561524
11
69.704604
21
60.225628
0
LINE
8
Layer 1
10
69.704604
20
60.225628
11
72.464965
21
63.178948
0
LINE
8
Layer 1
10
72.464965
20
63.178948
11
75.582973
21
66.210609
0
LINE
8
Layer 1
10
75.582973
20
66.210609
11
78.871815
21
69.109734
0
LINE
8
Layer 1
10
78.871815
20
69.109734
11
82.144678
21
71.665449
0
LINE
8
Layer 1
10
82.144678
20
71.665449
11
86.756697
21
74.995361
0
LINE
8
Layer 1
10
86.756697
20
74.995361
11
86.756697
21
74.995361
0
LINE
8
Layer 1
10
123.243303
20
74.995361
11
127.855322
21
71.665449
0
LINE
8
Layer 1
10
127.855322
20
71.665449
11
131.128184
21
69.109734
0
LINE
8
Layer 1
10
131.128184
20
69.109734
11
134.417026
21
66.210609
0
LINE
8
Layer 1
10
134.417026
20
66.210609
11
137.535033
21
63.178948
0
LINE
8
Layer 1
10
137.535033
20
63.178948
11
140.295392
21
60.225628
0
LINE
8
Layer 1
10
140.295392
20
60.225628
11
142.511291
21
57.561524
0
LINE
8
Layer 1
10
142.511291
20
57.561524
11
143.995915
21
55.397511
0
LINE
8
Layer 1
10
143.995915
20
55.397511
11
144.405620
21
54.568938
0
LINE
8
Layer 1
10
144.405620
20
54.568938
11
144.562452
21
53.944466
0
LINE
8
Layer 1
10
144.562452
20
53.944466
11
144.443058
21
53.550455
0
LINE
8
Layer 1
10
144.443058
20
53.550455
11
144.024088
21
53.413263
0
LINE
8
Layer 1
10
144.024088
20
53.413263
11
140.444183
21
53.103669
0
LINE
8
Layer 1
10
140.444183
20
53.103669
11
135.886294
21
52.362635
0
LINE
8
Layer 1
10
135.886294
20
52.362635
11
134.186434
21
52.064663
0
LINE
8
Layer 1
10
134.186434
20
52.064663
11
132.843635
21
52.007612
0
LINE
8
Layer 1
10
132.843635
20
52.007612
11
131.762576
21
52.306286
0
LINE
8
Layer 1
10
131.762576
20
52.306286
11
130.847936
21
53.075489
0
LINE
8
Layer 1
10
130.847936
20
53.075489
11
130.004396
21
54.430026
0
LINE
8
Layer 1
10
130.004396
20
54.430026
11
129.136633
21
56.484702
0
LINE
8
Layer 1
10
129.136633
20
56.484702
11
126.947160
21
63.153684
0
LINE
8
Layer 1
10
126.947160
20
63.153684
11
123.243303
21
74.995361
0
LINE
8
Layer 1
10
123.243303
20
74.995361
11
123.243303
21
74.995361
0
LINE
8
Layer 1
10
104.991089
20
64.097463
11
106.947836
21
60.541109
0
LINE
8
Layer 1
10
106.947836
20
60.541109
11
109.159755
21
55.549375
0
LINE
8
Layer 1
10
109.159755
20
55.549375
11
111.152625
21
50.179604
0
LINE
8
Layer 1
10
111.152625
20
50.179604
11
111.918723
21
47.683375
0
LINE
8
Layer 1
10
111.918723
20
47.683375
11
112.452226
21
45.489141
0
LINE
8
Layer 1
10
112.452226
20
45.489141
11
113.216650
21
42.183398
0
LINE
8
Layer 1
10
113.216650
20
42.183398
11
114.126086
21
38.936138
0
LINE
8
Layer 1
10
114.126086
20
38.936138
11
114.274102
21
38.204059
0
LINE
8
Layer 1
10
114.274102
20
38.204059
11
114.278937
21
37.419049
0
LINE
8
Layer 1
10
114.278937
20
37.419049
11
113.887862
21
35.764165
0
LINE
8
Layer 1
10
113.887862
20
35.764165
11
113.010463
21
34.119346
0
LINE
8
Layer 1
10
113.010463
20
34.119346
11
111.704337
21
32.632451
0
LINE
8
Layer 1
10
111.704337
20
32.632451
11
110.312628
21
31.648373
0
LINE
8
Layer 1
10
110.312628
20
31.648373
11
108.677165
21
30.945458
0
LINE
8
Layer 1
10
108.677165
20
30.945458
11
106.879199
21
30.523708
0
LINE
8
Layer 1
10
106.879199
20
30.523708
11
104.999983
21
30.383122
0
LINE
8
Layer 1
10
104.999983
20
30.383122
11
103.120768
21
30.523703
0
LINE
8
Layer 1
10
103.120768
20
30.523703
11
101.322806
21
30.945450
0
LINE
8
Layer 1
10
101.322806
20
30.945450
11
99.687349
21
31.648366
0
LINE
8
Layer 1
10
99.687349
20
31.648366
11
98.295649
21
32.632451
0
LINE
8
Layer 1
10
98.295649
20
32.632451
11
96.989540
21
34.119346
0
LINE
8
Layer 1
10
96.989540
20
34.119346
11
96.112145
21
35.764165
0
LINE
8
Layer 1
10
96.112145
20
35.764165
11
95.721065
21
37.419049
0
LINE
8
Layer 1
10
95.721065
20
37.419049
11
95.725893
21
38.204059
0
LINE
8
Layer 1
10
95.725893
20
38.204059
11
95.873900
21
38.936138
0
LINE
8
Layer 1
10
95.873900
20
38.936138
11
96.783379
21
42.183398
0
LINE
8
Layer 1
10
96.783379
20
42.183398
11
97.547760
21
45.489141
0
LINE
8
Layer 1
10
97.547760
20
45.489141
11
98.844595
21
50.179604
0
LINE
8
Layer 1
10
98.844595
20
50.179604
11
100.831349
21
55.549375
0
LINE
8
Layer 1
10
100.831349
20
55.549375
11
103.037141
21
60.541109
0
LINE
8
Layer 1
10
103.037141
20
60.541109
11
104.991089
21
64.097463
0
LINE
8
Layer 1
10
104.991089
20
64.097463
11
104.991089
21
64.097463
0
LINE
8
Layer 1
10
-113.429895
20
58.630706
11
-109.598830
21
58.445669
0
LINE
8
Layer 1
10
-109.598830
20
58.445669
11
-105.869834
21
57.918569
0
LINE
8
Layer 1
10
-105.869834
20
57.918569
11
-102.273006
21
57.055126
0
LINE
8
Layer 1
10
-102.273006
20
57.055126
11
-98.838443
21
55.861065
0
LINE
8
Layer 1
10
-98.838443
20
55.861065
11
-95.596242
21
54.342107
0
LINE
8
Layer 1
10
-95.596242
20
54.342107
11
-92.576502
21
52.503976
0
LINE
8
Layer 1
10
-92.576502
20
52.503976
11
-89.809320
21
50.352393
0
LINE
8
Layer 1
10
-89.809320
20
50.352393
11
-87.324794
21
47.893081
0
LINE
8
Layer 1
10
-87.324794
20
47.893081
11
-85.626634
21
45.938521
0
LINE
8
Layer 1
10
-85.626634
20
45.938521
11
-84.349423
21
44.218481
0
LINE
8
Layer 1
10
-84.349423
20
44.218481
11
-83.442605
21
42.483453
0
LINE
8
Layer 1
10
-83.442605
20
42.483453
11
-82.855624
21
40.483933
0
LINE
8
Layer 1
10
-82.855624
20
40.483933
11
-82.537926
21
37.970413
0
LINE
8
Layer 1
10
-82.537926
20
37.970413
11
-82.438953
21
34.693388
0
LINE
8
Layer 1
10
-82.438953
20
34.693388
11
-82.694966
21
24.850794
0
LINE
8
Layer 1
10
-82.694966
20
24.850794
11
-82.863376
21
18.192305
0
LINE
8
Layer 1
10
-82.863376
20
18.192305
11
-82.859081
21
12.739539
0
LINE
8
Layer 1
10
-82.859081
20
12.739539
11
-82.692597
21
9.055354
0
LINE
8
Layer 1
10
-82.692597
20
9.055354
11
-82.551821
21
8.052372
0
LINE
8
Layer 1
10
-82.551821
20
8.052372
11
-82.374441
21
7.702608
0
LINE
8
Layer 1
10
-82.374441
20
7.702608
11
-81.495853
21
8.048632
0
LINE
8
Layer 1
10
-81.495853
20
8.048632
11
-79.804726
21
8.989813
0
LINE
8
Layer 1
10
-79.804726
20
8.989813
11
-74.966717
21
12.083148
0
LINE
8
Layer 1
10
-74.966717
20
12.083148
11
-71.385428
21
14.313939
0
LINE
8
Layer 1
10
-71.385428
20
14.313939
11
-67.834450
21
16.125796
0
LINE
8
Layer 1
10
-67.834450
20
16.125796
11
-64.325091
21
17.521796
0
LINE
8
Layer 1
10
-64.325091
20
17.521796
11
-60.868659
21
18.505014
0
LINE
8
Layer 1
10
-60.868659
20
18.505014
11
-57.476460
21
19.078527
0
LINE
8
Layer 1
10
-57.476460
20
19.078527
11
-54.159802
21
19.245411
0
LINE
8
Layer 1
10
-54.159802
20
19.245411
11
-50.929993
21
19.008744
0
LINE
8
Layer 1
10
-50.929993
20
19.008744
11
-47.798340
21
18.371600
0
LINE
8
Layer 1
10
-47.798340
20
18.371600
11
-44.776151
21
17.337058
0
LINE
8
Layer 1
10
-44.776151
20
17.337058
11
-41.874733
21
15.908192
0
LINE
8
Layer 1
10
-41.874733
20
15.908192
11
-39.105394
21
14.088079
0
LINE
8
Layer 1
10
-39.105394
20
14.088079
11
-36.479441
21
11.879796
0
LINE
8
Layer 1
10
-36.479441
20
11.879796
11
-34.008181
21
9.286419
0
LINE
8
Layer 1
10
-34.008181
20
9.286419
11
-31.702923
21
6.311024
0
LINE
8
Layer 1
10
-31.702923
20
6.311024
11
-29.574974
21
2.956688
0
LINE
8
Layer 1
10
-29.574974
20
2.956688
11
-27.635640
21
-0.773513
0
LINE
8
Layer 1
10
-27.635640
20
-0.773513
11
-26.176911
21
-4.539667
0
LINE
8
Layer 1
10
-26.176911
20
-4.539667
11
-24.995056
21
-8.867058
0
LINE
8
Layer 1
10
-24.995056
20
-8.867058
11
-24.203077
21
-13.252196
0
LINE
8
Layer 1
10
-24.203077
20
-13.252196
11
-23.913973
21
-17.191594
0
LINE
8
Layer 1
10
-23.913973
20
-17.191594
11
-24.041329
21
-20.209980
0
LINE
8
Layer 1
10
-24.041329
20
-20.209980
11
-24.423233
21
-23.069625
0
LINE
8
Layer 1
10
-24.423233
20
-23.069625
11
-25.059437
21
-25.770329
0
LINE
8
Layer 1
10
-25.059437
20
-25.770329
11
-25.949693
21
-28.311889
0
LINE
8
Layer 1
10
-25.949693
20
-28.311889
11
-27.093752
21
-30.694103
0
LINE
8
Layer 1
10
-27.093752
20
-30.694103
11
-28.491365
21
-32.916769
0
LINE
8
Layer 1
10
-28.491365
20
-32.916769
11
-30.142285
21
-34.979685
0
LINE
8
Layer 1
10
-30.142285
20
-34.979685
11
-32.046263
21
-36.882651
0
LINE
8
Layer 1
10
-32.046263
20
-36.882651
11
-34.203051
21
-38.625463
0
LINE
8
Layer 1
10
-34.203051
20
-38.625463
11
-36.612401
21
-40.207920
0
LINE
8
Layer 1
10
-36.612401
20
-40.207920
11
-39.274063
21
-41.629819
0
LINE
8
Layer 1
10
-39.274063
20
-41.629819
11
-42.187789
21
-42.890960
0
LINE
8
Layer 1
10
-42.187789
20
-42.890960
11
-45.353332
21
-43.991141
0
LINE
8
Layer 1
10
-45.353332
20
-43.991141
11
-48.770443
21
-44.930158
0
LINE
8
Layer 1
10
-48.770443
20
-44.930158
11
-52.438874
21
-45.707811
0
LINE
8
Layer 1
10
-52.438874
20
-45.707811
11
-56.358375
21
-46.323898
0
LINE
8
Layer 1
10
-56.358375
20
-46.323898
11
-63.136648
21
-47.471576
0
LINE
8
Layer 1
10
-63.136648
20
-47.471576
11
-65.198907
21
-48.014601
0
LINE
8
Layer 1
10
-65.198907
20
-48.014601
11
-65.760434
21
-48.247518
0
LINE
8
Layer 1
10
-65.760434
20
-48.247518
11
-65.956363
21
-48.442935
0
LINE
8
Layer 1
10
-65.956363
20
-48.442935
11
-65.161276
21
-49.659477
0
LINE
8
Layer 1
10
-65.161276
20
-49.659477
11
-62.997703
21
-52.348619
0
LINE
8
Layer 1
10
-62.997703
20
-52.348619
11
-55.895392
21
-60.551708
0
LINE
8
Layer 1
10
-55.895392
20
-60.551708
11
-50.323591
21
-67.024743
0
LINE
8
Layer 1
10
-50.323591
20
-67.024743
11
-48.549253
21
-69.439464
0
LINE
8
Layer 1
10
-48.549253
20
-69.439464
11
-47.317924
21
-71.579576
0
LINE
8
Layer 1
10
-47.317924
20
-71.579576
11
-46.531081
21
-73.650021
0
LINE
8
Layer 1
10
-46.531081
20
-73.650021
11
-46.090201
21
-75.855740
0
LINE
8
Layer 1
10
-46.090201
20
-75.855740
11
-45.896758
21
-78.401674
0
LINE
8
Layer 1
10
-45.896758
20
-78.401674
11
-45.852230
21
-81.492766
0
LINE
8
Layer 1
10
-45.852230
20
-81.492766
11
-46.124450
21
-86.573292
0
LINE
8
Layer 1
10
-46.124450
20
-86.573292
11
-46.471880
21
-88.947034
0
LINE
8
Layer 1
10
-46.471880
20
-88.947034
11
-46.963545
21
-91.215033
0
LINE
8
Layer 1
10
-46.963545
20
-91.215033
11
-47.601964
21
-93.381243
0
LINE
8
Layer 1
10
-47.601964
20
-93.381243
11
-48.389655
21
-95.449619
0
LINE
8
Layer 1
10
-48.389655
20
-95.449619
11
-49.329135
21
-97.424112
0
LINE
8
Layer 1
10
-49.329135
20
-97.424112
11
-50.422923
21
-99.308679
0
LINE
8
Layer 1
10
-50.422923
20
-99.308679
11
-51.673534
21
-101.107271
0
LINE
8
Layer 1
10
-51.673534
20
-101.107271
11
-53.083489
21
-102.823844
0
LINE
8
Layer 1
10
-53.083489
20
-102.823844
11
-54.655303
21
-104.462351
0
LINE
8
Layer 1
10
-54.655303
20
-104.462351
11
-56.391496
21
-106.026745
0
LINE
8
Layer 1
10
-56.391496
20
-106.026745
11
-58.294584
21
-107.520981
0
LINE
8
Layer 1
10
-58.294584
20
-107.520981
11
-60.367085
21
-108.949012
0
LINE
8
Layer 1
10
-60.367085
20
-108.949012
11
-65.030398
21
-111.622274
0
LINE
8
Layer 1
10
-65.030398
20
-111.622274
11
-67.987718
21
-112.779196
0
LINE
8
Layer 1
10
-67.987718
20
-112.779196
11
-71.530530
21
-113.599868
0
LINE
8
Layer 1
10
-71.530530
20
-113.599868
11
-75.453976
21
-114.084913
0
LINE
8
Layer 1
10
-75.453976
20
-114.084913
11
-79.553197
21
-114.234957
0
LINE
8
Layer 1
10
-79.553197
20
-114.234957
11
-83.623336
21
-114.050625
0
LINE
8
Layer 1
10
-83.623336
20
-114.050625
11
-87.459534
21
-113.532541
0
LINE
8
Layer 1
10
-87.459534
20
-113.532541
11
-90.856932
21
-112.681330
0
LINE
8
Layer 1
10
-90.856932
20
-112.681330
11
-92.327063
21
-112.130997
0
LINE
8
Layer 1
10
-92.327063
20
-112.130997
11
-93.610673
21
-111.497617
0
LINE
8
Layer 1
10
-93.610673
20
-111.497617
11
-94.650269
21
-110.781725
0
LINE
8
Layer 1
10
-94.650269
20
-110.781725
11
-95.844031
21
-109.750282
0
LINE
8
Layer 1
10
-95.844031
20
-109.750282
11
-98.571949
21
-106.912157
0
LINE
8
Layer 1
10
-98.571949
20
-106.912157
11
-101.550213
21
-103.326086
0
LINE
8
Layer 1
10
-101.550213
20
-103.326086
11
-104.534606
21
-99.334911
0
LINE
8
Layer 1
10
-104.534606
20
-99.334911
11
-107.280915
21
-95.281474
0
LINE
8
Layer 1
10
-107.280915
20
-95.281474
11
-109.544925
21
-91.508618
0
LINE
8
Layer 1
10
-109.544925
20
-91.508618
11
-111.082422
21
-88.359185
0
LINE
8
Layer 1
10
-111.082422
20
-88.359185
11
-111.502411
21
-87.125391
0
LINE
8
Layer 1
10
-111.502411
20
-87.125391
11
-111.649191
21
-86.176018
0
LINE
8
Layer 1
10
-111.649191
20
-86.176018
11
-111.798397
21
-84.714769
0
LINE
8
Layer 1
10
-111.798397
20
-84.714769
11
-112.209086
21
-83.880315
0
LINE
8
Layer 1
10
-112.209086
20
-83.880315
11
-112.495177
21
-83.686203
0
LINE
8
Layer 1
10
-112.495177
20
-83.686203
11
-112.825867
21
-83.634468
0
LINE
8
Layer 1
10
-112.825867
20
-83.634468
11
-113.593351
21
-83.939036
0
LINE
8
Layer 1
10
-113.593351
20
-83.939036
11
-114.456148
21
-84.755832
0
LINE
8
Layer 1
10
-114.456148
20
-84.755832
11
-115.358870
21
-86.046665
0
LINE
8
Layer 1
10
-115.358870
20
-86.046665
11
-116.246126
21
-87.773345
0
LINE
8
Layer 1
10
-116.246126
20
-87.773345
11
-117.062527
21
-89.897682
0
LINE
8
Layer 1
10
-117.062527
20
-89.897682
11
-118.474711
21
-92.987516
0
LINE
8
Layer 1
10
-118.474711
20
-92.987516
11
-120.805649
21
-96.813594
0
LINE
8
Layer 1
10
-120.805649
20
-96.813594
11
-123.731300
21
-100.890033
0
LINE
8
Layer 1
10
-123.731300
20
-100.890033
11
-126.927621
21
-104.730944
0
LINE
8
Layer 1
10
-126.927621
20
-104.730944
11
-131.037673
21
-108.956250
0
LINE
8
Layer 1
10
-131.037673
20
-108.956250
11
-132.833299
21
-110.505631
0
LINE
8
Layer 1
10
-132.833299
20
-110.505631
11
-134.533651
21
-111.729346
0
LINE
8
Layer 1
10
-134.533651
20
-111.729346
11
-136.196972
21
-112.664780
0
LINE
8
Layer 1
10
-136.196972
20
-112.664780
11
-137.881507
21
-113.349319
0
LINE
8
Layer 1
10
-137.881507
20
-113.349319
11
-139.645498
21
-113.820349
0
LINE
8
Layer 1
10
-139.645498
20
-113.820349
11
-141.547190
21
-114.115256
0
LINE
8
Layer 1
10
-141.547190
20
-114.115256
11
-145.477417
21
-114.322914
0
LINE
8
Layer 1
10
-145.477417
20
-114.322914
11
-149.373950
21
-114.081450
0
LINE
8
Layer 1
10
-149.373950
20
-114.081450
11
-153.219707
21
-113.397196
0
LINE
8
Layer 1
10
-153.219707
20
-113.397196
11
-156.997608
21
-112.276483
0
LINE
8
Layer 1
10
-156.997608
20
-112.276483
11
-160.690573
21
-110.725644
0
LINE
8
Layer 1
10
-160.690573
20
-110.725644
11
-164.281522
21
-108.751010
0
LINE
8
Layer 1
10
-164.281522
20
-108.751010
11
-167.753373
21
-106.358914
0
LINE
8
Layer 1
10
-167.753373
20
-106.358914
11
-171.089046
21
-103.555686
0
LINE
8
Layer 1
10
-171.089046
20
-103.555686
11
-172.985385
21
-101.700145
0
LINE
8
Layer 1
10
-172.985385
20
-101.700145
11
-174.703886
21
-99.795521
0
LINE
8
Layer 1
10
-174.703886
20
-99.795521
11
-176.243516
21
-97.845915
0
LINE
8
Layer 1
10
-176.243516
20
-97.845915
11
-177.603243
21
-95.855430
0
LINE
8
Layer 1
10
-177.603243
20
-95.855430
11
-178.782035
21
-93.828169
0
LINE
8
Layer 1
10
-178.782035
20
-93.828169
11
-179.778860
21
-91.768233
0
LINE
8
Layer 1
10
-179.778860
20
-91.768233
11
-180.592684
21
-89.679726
0
LINE
8
Layer 1
10
-180.592684
20
-89.679726
11
-181.222477
21
-87.566749
0
LINE
8
Layer 1
10
-181.222477
20
-87.566749
11
-181.667205
21
-85.433406
0
LINE
8
Layer 1
10
-181.667205
20
-85.433406
11
-181.925835
21
-83.283799
0
LINE
8
Layer 1
10
-181.925835
20
-83.283799
11
-181.997337
21
-81.122030
0
LINE
8
Layer 1
10
-181.997337
20
-81.122030
11
-181.880676
21
-78.952202
0
LINE
8
Layer 1
10
-181.880676
20
-78.952202
11
-181.574822
21
-76.778417
0
LINE
8
Layer 1
10
-181.574822
20
-76.778417
11
-181.078741
21
-74.604778
0
LINE
8
Layer 1
10
-181.078741
20
-74.604778
11
-180.391402
21
-72.435388
0
LINE
8
Layer 1
10
-180.391402
20
-72.435388
11
-179.511771
21
-70.274348
0
LINE
8
Layer 1
10
-179.511771
20
-70.274348
11
-177.575169
21
-66.743807
0
LINE
8
Layer 1
10
-177.575169
20
-66.743807
11
-174.848810
21
-62.756209
0
LINE
8
Layer 1
10
-174.848810
20
-62.756209
11
-171.693841
21
-58.801557
0
LINE
8
Layer 1
10
-171.693841
20
-58.801557
11
-168.471413
21
-55.369854
0
LINE
8
Layer 1
10
-168.471413
20
-55.369854
11
-160.867812
21
-48.086799
0
LINE
8
Layer 1
10
-160.867812
20
-48.086799
11
-171.445188
21
-45.967762
0
LINE
8
Layer 1
10
-171.445188
20
-45.967762
11
-186.385282
21
-42.798096
0
LINE
8
Layer 1
10
-186.385282
20
-42.798096
11
-189.226630
21
-41.868224
0
LINE
8
Layer 1
10
-189.226630
20
-41.868224
11
-191.829939
21
-40.520559
0
LINE
8
Layer 1
10
-191.829939
20
-40.520559
11
-194.186055
21
-38.790333
0
LINE
8
Layer 1
10
-194.186055
20
-38.790333
11
-196.285823
21
-36.712777
0
LINE
8
Layer 1
10
-196.285823
20
-36.712777
11
-198.120089
21
-34.323125
0
LINE
8
Layer 1
10
-198.120089
20
-34.323125
11
-199.679698
21
-31.656606
0
LINE
8
Layer 1
10
-199.679698
20
-31.656606
11
-200.955497
21
-28.748454
0
LINE
8
Layer 1
10
-200.955497
20
-28.748454
11
-201.938330
21
-25.633901
0
LINE
8
Layer 1
10
-201.938330
20
-25.633901
11
-202.619044
21
-22.348177
0
LINE
8
Layer 1
10
-202.619044
20
-22.348177
11
-202.988484
21
-18.926516
0
LINE
8
Layer 1
10
-202.988484
20
-18.926516
11
-203.037496
21
-15.404148
0
LINE
8
Layer 1
10
-203.037496
20
-15.404148
11
-202.756925
21
-11.816307
0
LINE
8
Layer 1
10
-202.756925
20
-11.816307
11
-202.137617
21
-8.198222
0
LINE
8
Layer 1
10
-202.137617
20
-8.198222
11
-201.170417
21
-4.585128
0
LINE
8
Layer 1
10
-201.170417
20
-4.585128
11
-199.846172
21
-1.012254
0
LINE
8
Layer 1
10
-199.846172
20
-1.012254
11
-198.155727
21
2.485166
0
LINE
8
Layer 1
10
-198.155727
20
2.485166
11
-196.338441
21
5.557772
0
LINE
8
Layer 1
10
-196.338441
20
5.557772
11
-194.404550
21
8.312448
0
LINE
8
Layer 1
10
-194.404550
20
8.312448
11
-192.354553
21
10.749059
0
LINE
8
Layer 1
10
-192.354553
20
10.749059
11
-190.188946
21
12.867467
0
LINE
8
Layer 1
10
-190.188946
20
12.867467
11
-187.908229
21
14.667535
0
LINE
8
Layer 1
10
-187.908229
20
14.667535
11
-185.512899
21
16.149125
0
LINE
8
Layer 1
10
-185.512899
20
16.149125
11
-183.003453
21
17.312102
0
LINE
8
Layer 1
10
-183.003453
20
17.312102
11
-180.380391
21
18.156328
0
LINE
8
Layer 1
10
-180.380391
20
18.156328
11
-177.644210
21
18.681667
0
LINE
8
Layer 1
10
-177.644210
20
18.681667
11
-174.795407
21
18.887981
0
LINE
8
Layer 1
10
-174.795407
20
18.887981
11
-171.834482
21
18.775133
0
LINE
8
Layer 1
10
-171.834482
20
18.775133
11
-168.761932
21
18.342987
0
LINE
8
Layer 1
10
-168.761932
20
18.342987
11
-165.578255
21
17.591406
0
LINE
8
Layer 1
10
-165.578255
20
17.591406
11
-162.283949
21
16.520252
0
LINE
8
Layer 1
10
-162.283949
20
16.520252
11
-158.879512
21
15.129389
0
LINE
8
Layer 1
10
-158.879512
20
15.129389
11
-155.365442
21
13.418680
0
LINE
8
Layer 1
10
-155.365442
20
13.418680
11
-147.533357
21
9.384846
0
LINE
8
Layer 1
10
-147.533357
20
9.384846
11
-143.968944
21
7.702608
0
LINE
8
Layer 1
10
-143.968944
20
7.702608
11
-143.814591
21
8.966911
0
LINE
8
Layer 1
10
-143.814591
20
8.966911
11
-143.786223
21
12.408105
0
LINE
8
Layer 1
10
-143.786223
20
12.408105
11
-144.093593
21
23.711124
0
LINE
8
Layer 1
10
-144.093593
20
23.711124
11
-144.219742
21
30.789454
0
LINE
8
Layer 1
10
-144.219742
20
30.789454
11
-143.923980
21
36.711596
0
LINE
8
Layer 1
10
-143.923980
20
36.711596
11
-143.599076
21
39.281526
0
LINE
8
Layer 1
10
-143.599076
20
39.281526
11
-143.146128
21
41.613326
0
LINE
8
Layer 1
10
-143.146128
20
41.613326
11
-142.557611
21
43.723965
0
LINE
8
Layer 1
10
-142.557611
20
43.723965
11
-141.826004
21
45.630418
0
LINE
8
Layer 1
10
-141.826004
20
45.630418
11
-140.943785
21
47.349654
0
LINE
8
Layer 1
10
-140.943785
20
47.349654
11
-139.903430
21
48.898648
0
LINE
8
Layer 1
10
-139.903430
20
48.898648
11
-138.697418
21
50.294369
0
LINE
8
Layer 1
10
-138.697418
20
50.294369
11
-137.318225
21
51.553791
0
LINE
8
Layer 1
10
-137.318225
20
51.553791
11
-135.758330
21
52.693884
0
LINE
8
Layer 1
10
-135.758330
20
52.693884
11
-134.010209
21
53.731622
0
LINE
8
Layer 1
10
-134.010209
20
53.731622
11
-129.919202
21
55.567917
0
LINE
8
Layer 1
10
-129.919202
20
55.567917
11
-125.797125
21
56.925108
0
LINE
8
Layer 1
10
-125.797125
20
56.925108
11
-121.652811
21
57.884542
0
LINE
8
Layer 1
10
-121.652811
20
57.884542
11
-117.519366
21
58.451361
0
LINE
8
Layer 1
10
-117.519366
20
58.451361
11
-113.429895
21
58.630706
0
LINE
8
Layer 1
10
-113.429895
20
58.630706
11
-113.429895
21
58.630706
0
LINE
8
Layer 1
10
323.429884
20
58.630706
11
327.519366
21
58.451361
0
LINE
8
Layer 1
10
327.519366
20
58.451361
11
331.652813
21
57.884542
0
LINE
8
Layer 1
10
331.652813
20
57.884542
11
335.797124
21
56.925108
0
LINE
8
Layer 1
10
335.797124
20
56.925108
11
339.919197
21
55.567917
0
LINE
8
Layer 1
10
339.919197
20
55.567917
11
344.010204
21
53.731622
0
LINE
8
Layer 1
10
344.010204
20
53.731622
11
345.758325
21
52.693884
0
LINE
8
Layer 1
10
345.758325
20
52.693884
11
347.318220
21
51.553791
0
LINE
8
Layer 1
10
347.318220
20
51.553791
11
348.697412
21
50.294369
0
LINE
8
Layer 1
10
348.697412
20
50.294369
11
349.903424
21
48.898648
0
LINE
8
Layer 1
10
349.903424
20
48.898648
11
350.943778
21
47.349654
0
LINE
8
Layer 1
10
350.943778
20
47.349654
11
351.825997
21
45.630418
0
LINE
8
Layer 1
10
351.825997
20
45.630418
11
352.557604
21
43.723965
0
LINE
8
Layer 1
10
352.557604
20
43.723965
11
353.146120
21
41.613326
0
LINE
8
Layer 1
10
353.146120
20
41.613326
11
353.599068
21
39.281526
0
LINE
8
Layer 1
10
353.599068
20
39.281526
11
353.923971
21
36.711596
0
LINE
8
Layer 1
10
353.923971
20
36.711596
11
354.219732
21
30.789454
0
LINE
8
Layer 1
10
354.219732
20
30.789454
11
354.093582
21
23.711124
0
LINE
8
Layer 1
10
354.093582
20
23.711124
11
353.786221
21
12.408105
0
LINE
8
Layer 1
10
353.786221
20
12.408105
11
353.814595
21
8.966911
0
LINE
8
Layer 1
10
353.814595
20
8.966911
11
353.968953
21
7.702608
0
LINE
8
Layer 1
10
353.968953
20
7.702608
11
357.533360
21
9.384846
0
LINE
8
Layer 1
10
357.533360
20
9.384846
11
365.365453
21
13.418680
0
LINE
8
Layer 1
10
365.365453
20
13.418680
11
368.879519
21
15.129389
0
LINE
8
Layer 1
10
368.879519
20
15.129389
11
372.283953
21
16.520252
0
LINE
8
Layer 1
10
372.283953
20
16.520252
11
375.578257
21
17.591406
0
LINE
8
Layer 1
10
375.578257
20
17.591406
11
378.761932
21
18.342987
0
LINE
8
Layer 1
10
378.761932
20
18.342987
11
381.834481
21
18.775133
0
LINE
8
Layer 1
10
381.834481
20
18.775133
11
384.795406
21
18.887981
0
LINE
8
Layer 1
10
384.795406
20
18.887981
11
387.644208
21
18.681667
0
LINE
8
Layer 1
10
387.644208
20
18.681667
11
390.380389
21
18.156328
0
LINE
8
Layer 1
10
390.380389
20
18.156328
11
393.003452
21
17.312102
0
LINE
8
Layer 1
10
393.003452
20
17.312102
11
395.512899
21
16.149125
0
LINE
8
Layer 1
10
395.512899
20
16.149125
11
397.908230
21
14.667535
0
LINE
8
Layer 1
10
397.908230
20
14.667535
11
400.188949
21
12.867467
0
LINE
8
Layer 1
10
400.188949
20
12.867467
11
402.354556
21
10.749059
0
LINE
8
Layer 1
10
402.354556
20
10.749059
11
404.404555
21
8.312448
0
LINE
8
Layer 1
10
404.404555
20
8.312448
11
406.338446
21
5.557772
0
LINE
8
Layer 1
10
406.338446
20
5.557772
11
408.155733
21
2.485166
0
LINE
8
Layer 1
10
408.155733
20
2.485166
11
409.846176
21
-1.012254
0
LINE
8
Layer 1
10
409.846176
20
-1.012254
11
411.170419
21
-4.585128
0
LINE
8
Layer 1
10
411.170419
20
-4.585128
11
412.137618
21
-8.198222
0
LINE
8
Layer 1
10
412.137618
20
-8.198222
11
412.756925
21
-11.816307
0
LINE
8
Layer 1
10
412.756925
20
-11.816307
11
413.037496
21
-15.404148
0
LINE
8
Layer 1
10
413.037496
20
-15.404148
11
412.988485
21
-18.926516
0
LINE
8
Layer 1
10
412.988485
20
-18.926516
11
412.619046
21
-22.348177
0
LINE
8
Layer 1
10
412.619046
20
-22.348177
11
411.938332
21
-25.633901
0
LINE
8
Layer 1
10
411.938332
20
-25.633901
11
410.955500
21
-28.748454
0
LINE
8
Layer 1
10
410.955500
20
-28.748454
11
409.679702
21
-31.656606
0
LINE
8
Layer 1
10
409.679702
20
-31.656606
11
408.120093
21
-34.323125
0
LINE
8
Layer 1
10
408.120093
20
-34.323125
11
406.285828
21
-36.712777
0
LINE
8
Layer 1
10
406.285828
20
-36.712777
11
404.186061
21
-38.790333
0
LINE
8
Layer 1
10
404.186061
20
-38.790333
11
401.829946
21
-40.520559
0
LINE
8
Layer 1
10
401.829946
20
-40.520559
11
399.226636
21
-41.868224
0
LINE
8
Layer 1
10
399.226636
20
-41.868224
11
396.385288
21
-42.798096
0
LINE
8
Layer 1
10
396.385288
20
-42.798096
11
381.445177
21
-45.967762
0
LINE
8
Layer 1
10
381.445177
20
-45.967762
11
370.867799
21
-48.086799
0
LINE
8
Layer 1
10
370.867799
20
-48.086799
11
378.471402
21
-55.369854
0
LINE
8
Layer 1
10
378.471402
20
-55.369854
11
381.693832
21
-58.801557
0
LINE
8
Layer 1
10
381.693832
20
-58.801557
11
384.848802
21
-62.756209
0
LINE
8
Layer 1
10
384.848802
20
-62.756209
11
387.575163
21
-66.743807
0
LINE
8
Layer 1
10
387.575163
20
-66.743807
11
389.511766
21
-70.274348
0
LINE
8
Layer 1
10
389.511766
20
-70.274348
11
390.391398
21
-72.435388
0
LINE
8
Layer 1
10
390.391398
20
-72.435388
11
391.078739
21
-74.604778
0
LINE
8
Layer 1
10
391.078739
20
-74.604778
11
391.574821
21
-76.778417
0
LINE
8
Layer 1
10
391.574821
20
-76.778417
11
391.880676
21
-78.952202
0
LINE
8
Layer 1
10
391.880676
20
-78.952202
11
391.997336
21
-81.122030
0
LINE
8
Layer 1
10
391.997336
20
-81.122030
11
391.925835
21
-83.283799
0
LINE
8
Layer 1
10
391.925835
20
-83.283799
11
391.667205
21
-85.433406
0
LINE
8
Layer 1
10
391.667205
20
-85.433406
11
391.222477
21
-87.566749
0
LINE
8
Layer 1
10
391.222477
20
-87.566749
11
390.592684
21
-89.679726
0
LINE
8
Layer 1
10
390.592684
20
-89.679726
11
389.778859
21
-91.768233
0
LINE
8
Layer 1
10
389.778859
20
-91.768233
11
388.782034
21
-93.828169
0
LINE
8
Layer 1
10
388.782034
20
-93.828169
11
387.603242
21
-95.855430
0
LINE
8
Layer 1
10
387.603242
20
-95.855430
11
386.243513
21
-97.845915
0
LINE
8
Layer 1
10
386.243513
20
-97.845915
11
384.703882
21
-99.795521
0
LINE
8
Layer 1
10
384.703882
20
-99.795521
11
382.985381
21
-101.700145
0
LINE
8
Layer 1
10
382.985381
20
-101.700145
11
381.089041
21
-103.555686
0
LINE
8
Layer 1
10
381.089041
20
-103.555686
11
377.753369
21
-106.358914
0
LINE
8
Layer 1
10
377.753369
20
-106.358914
11
374.281517
21
-108.751010
0
LINE
8
Layer 1
10
374.281517
20
-108.751010
11
370.690568
21
-110.725644
0
LINE
8
Layer 1
10
370.690568
20
-110.725644
11
366.997601
21
-112.276483
0
LINE
8
Layer 1
10
366.997601
20
-112.276483
11
363.219697
21
-113.397196
0
LINE
8
Layer 1
10
363.219697
20
-113.397196
11
359.373938
21
-114.081450
0
LINE
8
Layer 1
10
359.373938
20
-114.081450
11
355.477404
21
-114.322914
0
LINE
8
Layer 1
10
355.477404
20
-114.322914
11
351.547176
21
-114.115256
0
LINE
8
Layer 1
10
351.547176
20
-114.115256
11
349.645488
21
-113.820349
0
LINE
8
Layer 1
10
349.645488
20
-113.820349
11
347.881498
21
-113.349319
0
LINE
8
Layer 1
10
347.881498
20
-113.349319
11
346.196965
21
-112.664780
0
LINE
8
Layer 1
10
346.196965
20
-112.664780
11
344.533643
21
-111.729346
0
LINE
8
Layer 1
10
344.533643
20
-111.729346
11
342.833291
21
-110.505631
0
LINE
8
Layer 1
10
342.833291
20
-110.505631
11
341.037664
21
-108.956250
0
LINE
8
Layer 1
10
341.037664
20
-108.956250
11
336.927613
21
-104.730944
0
LINE
8
Layer 1
10
336.927613
20
-104.730944
11
333.731294
21
-100.890033
0
LINE
8
Layer 1
10
333.731294
20
-100.890033
11
330.805645
21
-96.813594
0
LINE
8
Layer 1
10
330.805645
20
-96.813594
11
328.474712
21
-92.987516
0
LINE
8
Layer 1
10
328.474712
20
-92.987516
11
327.062536
21
-89.897682
0
LINE
8
Layer 1
10
327.062536
20
-89.897682
11
326.246128
21
-87.773345
0
LINE
8
Layer 1
10
326.246128
20
-87.773345
11
325.358869
21
-86.046665
0
LINE
8
Layer 1
10
325.358869
20
-86.046665
11
324.456147
21
-84.755832
0
LINE
8
Layer 1
10
324.456147
20
-84.755832
11
323.593351
21
-83.939036
0
LINE
8
Layer 1
10
323.593351
20
-83.939036
11
322.825869
21
-83.634468
0
LINE
8
Layer 1
10
322.825869
20
-83.634468
11
322.495181
21
-83.686203
0
LINE
8
Layer 1
10
322.495181
20
-83.686203
11
322.209092
21
-83.880315
0
LINE
8
Layer 1
10
322.209092
20
-83.880315
11
321.798407
21
-84.714769
0
LINE
8
Layer 1
10
321.798407
20
-84.714769
11
321.649203
21
-86.176018
0
LINE
8
Layer 1
10
321.649203
20
-86.176018
11
321.502423
21
-87.125391
0
LINE
8
Layer 1
10
321.502423
20
-87.125391
11
321.082434
21
-88.359185
0
LINE
8
Layer 1
10
321.082434
20
-88.359185
11
319.544936
21
-91.508618
0
LINE
8
Layer 1
10
319.544936
20
-91.508618
11
317.280925
21
-95.281474
0
LINE
8
Layer 1
10
317.280925
20
-95.281474
11
314.534613
21
-99.334911
0
LINE
8
Layer 1
10
314.534613
20
-99.334911
11
311.550217
21
-103.326086
0
LINE
8
Layer 1
10
311.550217
20
-103.326086
11
308.571949
21
-106.912157
0
LINE
8
Layer 1
10
308.571949
20
-106.912157
11
305.844025
21
-109.750282
0
LINE
8
Layer 1
10
305.844025
20
-109.750282
11
304.650259
21
-110.781725
0
LINE
8
Layer 1
10
304.650259
20
-110.781725
11
303.610659
21
-111.497617
0
LINE
8
Layer 1
10
303.610659
20
-111.497617
11
302.327053
21
-112.130997
0
LINE
8
Layer 1
10
302.327053
20
-112.130997
11
300.856924
21
-112.681330
0
LINE
8
Layer 1
10
300.856924
20
-112.681330
11
297.459529
21
-113.532541
0
LINE
8
Layer 1
10
297.459529
20
-113.532541
11
293.623331
21
-114.050625
0
LINE
8
Layer 1
10
293.623331
20
-114.050625
11
289.553191
21
-114.234957
0
LINE
8
Layer 1
10
289.553191
20
-114.234957
11
285.453966
21
-114.084913
0
LINE
8
Layer 1
10
285.453966
20
-114.084913
11
281.530515
21
-113.599868
0
LINE
8
Layer 1
10
281.530515
20
-113.599868
11
277.987698
21
-112.779196
0
LINE
8
Layer 1
10
277.987698
20
-112.779196
11
275.030373
21
-111.622274
0
LINE
8
Layer 1
10
275.030373
20
-111.622274
11
270.367063
21
-108.949012
0
LINE
8
Layer 1
10
270.367063
20
-108.949012
11
268.294564
21
-107.520981
0
LINE
8
Layer 1
10
268.294564
20
-107.520981
11
266.391478
21
-106.026745
0
LINE
8
Layer 1
10
266.391478
20
-106.026745
11
264.655287
21
-104.462351
0
LINE
8
Layer 1
10
264.655287
20
-104.462351
11
263.083474
21
-102.823844
0
LINE
8
Layer 1
10
263.083474
20
-102.823844
11
261.673521
21
-101.107271
0
LINE
8
Layer 1
10
261.673521
20
-101.107271
11
260.422911
21
-99.308679
0
LINE
8
Layer 1
10
260.422911
20
-99.308679
11
259.329125
21
-97.424112
0
LINE
8
Layer 1
10
259.329125
20
-97.424112
11
258.389645
21
-95.449619
0
LINE
8
Layer 1
10
258.389645
20
-95.449619
11
257.601955
21
-93.381243
0
LINE
8
Layer 1
10
257.601955
20
-93.381243
11
256.963536
21
-91.215033
0
LINE
8
Layer 1
10
256.963536
20
-91.215033
11
256.471870
21
-88.947034
0
LINE
8
Layer 1
10
256.471870
20
-88.947034
11
256.124440
21
-86.573292
0
LINE
8
Layer 1
10
256.124440
20
-86.573292
11
255.852216
21
-81.492766
0
LINE
8
Layer 1
10
255.852216
20
-81.492766
11
255.896743
21
-78.401674
0
LINE
8
Layer 1
10
255.896743
20
-78.401674
11
256.090186
21
-75.855740
0
LINE
8
Layer 1
10
256.090186
20
-75.855740
11
256.531068
21
-73.650021
0
LINE
8
Layer 1
10
256.531068
20
-73.650021
11
257.317912
21
-71.579576
0
LINE
8
Layer 1
10
257.317912
20
-71.579576
11
258.549242
21
-69.439464
0
LINE
8
Layer 1
10
258.549242
20
-69.439464
11
260.323580
21
-67.024743
0
LINE
8
Layer 1
10
260.323580
20
-67.024743
11
265.895376
21
-60.551708
0
LINE
8
Layer 1
10
265.895376
20
-60.551708
11
272.997696
21
-52.348619
0
LINE
8
Layer 1
10
272.997696
20
-52.348619
11
275.161264
21
-49.659477
0
LINE
8
Layer 1
10
275.161264
20
-49.659477
11
275.956344
21
-48.442935
0
LINE
8
Layer 1
10
275.956344
20
-48.442935
11
275.760415
21
-48.247518
0
LINE
8
Layer 1
10
275.760415
20
-48.247518
11
275.198891
21
-48.014601
0
LINE
8
Layer 1
10
275.198891
20
-48.014601
11
273.136637
21
-47.471576
0
LINE
8
Layer 1
10
273.136637
20
-47.471576
11
266.358362
21
-46.323898
0
LINE
8
Layer 1
10
266.358362
20
-46.323898
11
262.438859
21
-45.707811
0
LINE
8
Layer 1
10
262.438859
20
-45.707811
11
258.770428
21
-44.930158
0
LINE
8
Layer 1
10
258.770428
20
-44.930158
11
255.353317
21
-43.991141
0
LINE
8
Layer 1
10
255.353317
20
-43.991141
11
252.187773
21
-42.890960
0
LINE
8
Layer 1
10
252.187773
20
-42.890960
11
249.274046
21
-41.629819
0
LINE
8
Layer 1
10
249.274046
20
-41.629819
11
246.612384
21
-40.207920
0
LINE
8
Layer 1
10
246.612384
20
-40.207920
11
244.203035
21
-38.625463
0
LINE
8
Layer 1
10
244.203035
20
-38.625463
11
242.046247
21
-36.882651
0
LINE
8
Layer 1
10
242.046247
20
-36.882651
11
240.142269
21
-34.979685
0
LINE
8
Layer 1
10
240.142269
20
-34.979685
11
238.491349
21
-32.916769
0
LINE
8
Layer 1
10
238.491349
20
-32.916769
11
237.093735
21
-30.694103
0
LINE
8
Layer 1
10
237.093735
20
-30.694103
11
235.949676
21
-28.311889
0
LINE
8
Layer 1
10
235.949676
20
-28.311889
11
235.059420
21
-25.770329
0
LINE
8
Layer 1
10
235.059420
20
-25.770329
11
234.423215
21
-23.069625
0
LINE
8
Layer 1
10
234.423215
20
-23.069625
11
234.041311
21
-20.209980
0
LINE
8
Layer 1
10
234.041311
20
-20.209980
11
233.913954
21
-17.191594
0
LINE
8
Layer 1
10
233.913954
20
-17.191594
11
234.203058
21
-13.252196
0
LINE
8
Layer 1
10
234.203058
20
-13.252196
11
234.995038
21
-8.867058
0
LINE
8
Layer 1
10
234.995038
20
-8.867058
11
236.176891
21
-4.539667
0
LINE
8
Layer 1
10
236.176891
20
-4.539667
11
237.635618
21
-0.773513
0
LINE
8
Layer 1
10
237.635618
20
-0.773513
11
239.574952
21
2.956688
0
LINE
8
Layer 1
10
239.574952
20
2.956688
11
241.702902
21
6.311024
0
LINE
8
Layer 1
10
241.702902
20
6.311024
11
244.008161
21
9.286419
0
LINE
8
Layer 1
10
244.008161
20
9.286419
11
246.479422
21
11.879796
0
LINE
8
Layer 1
10
246.479422
20
11.879796
11
249.105376
21
14.088079
0
LINE
8
Layer 1
10
249.105376
20
14.088079
11
251.874716
21
15.908192
0
LINE
8
Layer 1
10
251.874716
20
15.908192
11
254.776136
21
17.337058
0
LINE
8
Layer 1
10
254.776136
20
17.337058
11
257.798326
21
18.371600
0
LINE
8
Layer 1
10
257.798326
20
18.371600
11
260.929981
21
19.008744
0
LINE
8
Layer 1
10
260.929981
20
19.008744
11
264.159792
21
19.245411
0
LINE
8
Layer 1
10
264.159792
20
19.245411
11
267.476451
21
19.078527
0
LINE
8
Layer 1
10
267.476451
20
19.078527
11
270.868652
21
18.505014
0
LINE
8
Layer 1
10
270.868652
20
18.505014
11
274.325087
21
17.521796
0
LINE
8
Layer 1
10
274.325087
20
17.521796
11
277.834449
21
16.125796
0
LINE
8
Layer 1
10
277.834449
20
16.125796
11
281.385429
21
14.313939
0
LINE
8
Layer 1
10
281.385429
20
14.313939
11
284.966720
21
12.083148
0
LINE
8
Layer 1
10
284.966720
20
12.083148
11
289.804729
21
8.989813
0
LINE
8
Layer 1
10
289.804729
20
8.989813
11
291.495854
21
8.048632
0
LINE
8
Layer 1
10
291.495854
20
8.048632
11
292.374433
21
7.702608
0
LINE
8
Layer 1
10
292.374433
20
7.702608
11
292.551811
21
8.052372
0
LINE
8
Layer 1
10
292.551811
20
8.052372
11
292.692587
21
9.055354
0
LINE
8
Layer 1
10
292.692587
20
9.055354
11
292.859072
21
12.739539
0
LINE
8
Layer 1
10
292.859072
20
12.739539
11
292.863367
21
18.192305
0
LINE
8
Layer 1
10
292.863367
20
18.192305
11
292.694953
21
24.850794
0
LINE
8
Layer 1
10
292.694953
20
24.850794
11
292.438943
21
34.693388
0
LINE
8
Layer 1
10
292.438943
20
34.693388
11
292.537918
21
37.970413
0
LINE
8
Layer 1
10
292.537918
20
37.970413
11
292.855618
21
40.483933
0
LINE
8
Layer 1
10
292.855618
20
40.483933
11
293.442600
21
42.483453
0
LINE
8
Layer 1
10
293.442600
20
42.483453
11
294.349417
21
44.218481
0
LINE
8
Layer 1
10
294.349417
20
44.218481
11
295.626626
21
45.938521
0
LINE
8
Layer 1
10
295.626626
20
45.938521
11
297.324780
21
47.893081
0
LINE
8
Layer 1
10
297.324780
20
47.893081
11
299.809310
21
50.352393
0
LINE
8
Layer 1
10
299.809310
20
50.352393
11
302.576496
21
52.503976
0
LINE
8
Layer 1
10
302.576496
20
52.503976
11
305.596239
21
54.342107
0
LINE
8
Layer 1
10
305.596239
20
54.342107
11
308.838441
21
55.861065
0
LINE
8
Layer 1
10
308.838441
20
55.861065
11
312.273005
21
57.055126
0
LINE
8
Layer 1
10
312.273005
20
57.055126
11
315.869832
21
57.918569
0
LINE
8
Layer 1
10
315.869832
20
57.918569
11
319.598824
21
58.445669
0
LINE
8
Layer 1
10
319.598824
20
58.445669
11
323.429884
21
58.630706
0
LINE
8
Layer 1
10
323.429884
20
58.630706
11
323.429884
21
58.630706
0
LINE
8
Layer 1
10
-114.925684
20
34.609023
11
-116.135986
21
34.407893
0
LINE
8
Layer 1
10
-116.135986
20
34.407893
11
-117.240248
21
33.945180
0
LINE
8
Layer 1
10
-117.240248
20
33.945180
11
-118.237232
21
33.224845
0
LINE
8
Layer 1
10
-118.237232
20
33.224845
11
-119.125702
21
32.250845
0
LINE
8
Layer 1
10
-119.125702
20
32.250845
11
-119.904422
21
31.027139
0
LINE
8
Layer 1
10
-119.904422
20
31.027139
11
-120.572156
21
29.557686
0
LINE
8
Layer 1
10
-120.572156
20
29.557686
11
-121.127667
21
27.846446
0
LINE
8
Layer 1
10
-121.127667
20
27.846446
11
-121.569719
21
25.897377
0
LINE
8
Layer 1
10
-121.569719
20
25.897377
11
-122.108499
21
21.301586
0
LINE
8
Layer 1
10
-122.108499
20
21.301586
11
-122.178605
21
15.801987
0
LINE
8
Layer 1
10
-122.178605
20
15.801987
11
-121.770147
21
9.430248
0
LINE
8
Layer 1
10
-121.770147
20
9.430248
11
-120.873232
21
2.218042
0
LINE
8
Layer 1
10
-120.873232
20
2.218042
11
-118.006300
21
-17.245018
0
LINE
8
Layer 1
10
-118.006300
20
-17.245018
11
-117.286083
21
-21.146155
0
LINE
8
Layer 1
10
-117.286083
20
-21.146155
11
-116.279018
21
-25.008895
0
LINE
8
Layer 1
10
-116.279018
20
-25.008895
11
-115.645602
21
-27.723573
0
LINE
8
Layer 1
10
-115.645602
20
-27.723573
11
-115.629641
21
-28.551048
0
LINE
8
Layer 1
10
-115.629641
20
-28.551048
11
-115.833844
21
-28.855217
0
LINE
8
Layer 1
10
-115.833844
20
-28.855217
11
-122.754340
21
-25.632659
0
LINE
8
Layer 1
10
-122.754340
20
-25.632659
11
-138.306310
21
-17.886086
0
LINE
8
Layer 1
10
-138.306310
20
-17.886086
11
-146.168646
21
-14.052057
0
LINE
8
Layer 1
10
-146.168646
20
-14.052057
11
-152.970273
21
-11.047677
0
LINE
8
Layer 1
10
-152.970273
20
-11.047677
11
-158.783258
21
-8.857024
0
LINE
8
Layer 1
10
-158.783258
20
-8.857024
11
-163.679663
21
-7.464177
0
LINE
8
Layer 1
10
-163.679663
20
-7.464177
11
-165.806670
21
-7.061955
0
LINE
8
Layer 1
10
-165.806670
20
-7.061955
11
-167.731556
21
-6.853213
0
LINE
8
Layer 1
10
-167.731556
20
-6.853213
11
-169.463330
21
-6.835962
0
LINE
8
Layer 1
10
-169.463330
20
-6.835962
11
-171.011000
21
-7.008211
0
LINE
8
Layer 1
10
-171.011000
20
-7.008211
11
-172.383574
21
-7.367969
0
LINE
8
Layer 1
10
-172.383574
20
-7.367969
11
-173.590061
21
-7.913248
0
LINE
8
Layer 1
10
-173.590061
20
-7.913248
11
-174.639467
21
-8.642056
0
LINE
8
Layer 1
10
-174.639467
20
-8.642056
11
-175.540803
21
-9.552402
0
LINE
8
Layer 1
10
-175.540803
20
-9.552402
11
-176.796198
21
-11.484523
0
LINE
8
Layer 1
10
-176.796198
20
-11.484523
11
-177.182439
21
-12.466903
0
LINE
8
Layer 1
10
-177.182439
20
-12.466903
11
-177.409688
21
-13.456031
0
LINE
8
Layer 1
10
-177.409688
20
-13.456031
11
-177.479428
21
-14.448809
0
LINE
8
Layer 1
10
-177.479428
20
-14.448809
11
-177.393145
21
-15.442137
0
LINE
8
Layer 1
10
-177.393145
20
-15.442137
11
-176.758444
21
-17.418049
0
LINE
8
Layer 1
10
-176.758444
20
-17.418049
11
-175.517459
21
-19.358978
0
LINE
8
Layer 1
10
-175.517459
20
-19.358978
11
-173.682064
21
-21.240133
0
LINE
8
Layer 1
10
-173.682064
20
-21.240133
11
-171.264131
21
-23.036725
0
LINE
8
Layer 1
10
-171.264131
20
-23.036725
11
-168.275536
21
-24.723964
0
LINE
8
Layer 1
10
-168.275536
20
-24.723964
11
-165.889225
21
-25.809409
0
LINE
8
Layer 1
10
-165.889225
20
-25.809409
11
-163.374386
21
-26.740286
0
LINE
8
Layer 1
10
-163.374386
20
-26.740286
11
-160.640769
21
-27.533575
0
LINE
8
Layer 1
10
-160.640769
20
-27.533575
11
-157.598121
21
-28.206254
0
LINE
8
Layer 1
10
-157.598121
20
-28.206254
11
-154.156191
21
-28.775304
0
LINE
8
Layer 1
10
-154.156191
20
-28.775304
11
-150.224727
21
-29.257705
0
LINE
8
Layer 1
10
-150.224727
20
-29.257705
11
-140.532189
21
-30.030475
0
LINE
8
Layer 1
10
-140.532189
20
-30.030475
11
-132.796472
21
-30.596931
0
LINE
8
Layer 1
10
-132.796472
20
-30.596931
11
-126.137919
21
-31.258491
0
LINE
8
Layer 1
10
-126.137919
20
-31.258491
11
-121.267617
21
-31.933741
0
LINE
8
Layer 1
10
-121.267617
20
-31.933741
11
-119.725274
21
-32.251057
0
LINE
8
Layer 1
10
-119.725274
20
-32.251057
11
-118.896652
21
-32.541265
0
LINE
8
Layer 1
10
-118.896652
20
-32.541265
11
-118.722151
21
-32.772198
0
LINE
8
Layer 1
10
-118.722151
20
-32.772198
11
-118.715604
21
-33.143572
0
LINE
8
Layer 1
10
-118.715604
20
-33.143572
11
-119.199878
21
-34.300018
0
LINE
8
Layer 1
10
-119.199878
20
-34.300018
11
-120.336494
21
-35.995363
0
LINE
8
Layer 1
10
-120.336494
20
-35.995363
11
-122.112470
21
-38.214366
0
LINE
8
Layer 1
10
-122.112470
20
-38.214366
11
-127.530576
21
-44.162380
0
LINE
8
Layer 1
10
-127.530576
20
-44.162380
11
-135.350343
21
-52.022134
0
LINE
8
Layer 1
10
-135.350343
20
-52.022134
11
-145.092730
21
-61.753398
0
LINE
8
Layer 1
10
-145.092730
20
-61.753398
11
-148.406156
21
-65.327947
0
LINE
8
Layer 1
10
-148.406156
20
-65.327947
11
-150.865227
21
-68.281058
0
LINE
8
Layer 1
10
-150.865227
20
-68.281058
11
-152.608057
21
-70.792195
0
LINE
8
Layer 1
10
-152.608057
20
-70.792195
11
-153.772763
21
-73.040820
0
LINE
8
Layer 1
10
-153.772763
20
-73.040820
11
-154.497461
21
-75.206398
0
LINE
8
Layer 1
10
-154.497461
20
-75.206398
11
-154.920267
21
-77.468390
0
LINE
8
Layer 1
10
-154.920267
20
-77.468390
11
-155.221547
21
-81.009655
0
LINE
8
Layer 1
10
-155.221547
20
-81.009655
11
-155.013706
21
-83.681653
0
LINE
8
Layer 1
10
-155.013706
20
-83.681653
11
-154.706162
21
-84.754865
0
LINE
8
Layer 1
10
-154.706162
20
-84.754865
11
-154.256096
21
-85.686584
0
LINE
8
Layer 1
10
-154.256096
20
-85.686584
11
-153.658427
21
-86.502086
0
LINE
8
Layer 1
10
-153.658427
20
-86.502086
11
-152.908073
21
-87.226647
0
LINE
8
Layer 1
10
-152.908073
20
-87.226647
11
-151.292885
21
-88.233769
0
LINE
8
Layer 1
10
-151.292885
20
-88.233769
11
-149.559509
21
-88.679754
0
LINE
8
Layer 1
10
-149.559509
20
-88.679754
11
-147.713311
21
-88.571422
0
LINE
8
Layer 1
10
-147.713311
20
-88.571422
11
-145.759656
21
-87.915597
0
LINE
8
Layer 1
10
-145.759656
20
-87.915597
11
-143.703910
21
-86.719099
0
LINE
8
Layer 1
10
-143.703910
20
-86.719099
11
-141.551438
21
-84.988750
0
LINE
8
Layer 1
10
-141.551438
20
-84.988750
11
-139.307607
21
-82.731374
0
LINE
8
Layer 1
10
-139.307607
20
-82.731374
11
-136.977782
21
-79.953791
0
LINE
8
Layer 1
10
-136.977782
20
-79.953791
11
-134.567328
21
-76.662823
0
LINE
8
Layer 1
10
-134.567328
20
-76.662823
11
-132.081612
21
-72.865292
0
LINE
8
Layer 1
10
-132.081612
20
-72.865292
11
-129.525998
21
-68.568021
0
LINE
8
Layer 1
10
-129.525998
20
-68.568021
11
-126.905852
21
-63.777831
0
LINE
8
Layer 1
10
-126.905852
20
-63.777831
11
-124.226540
21
-58.501544
0
LINE
8
Layer 1
10
-124.226540
20
-58.501544
11
-121.493427
21
-52.745982
0
LINE
8
Layer 1
10
-121.493427
20
-52.745982
11
-115.887263
21
-39.824320
0
LINE
8
Layer 1
10
-115.887263
20
-39.824320
11
-114.741122
21
-37.309104
0
LINE
8
Layer 1
10
-114.741122
20
-37.309104
11
-114.260419
21
-36.783629
0
LINE
8
Layer 1
10
-114.260419
20
-36.783629
11
-113.751347
21
-36.795010
0
LINE
8
Layer 1
10
-113.751347
20
-36.795010
11
-113.146447
21
-37.379820
0
LINE
8
Layer 1
10
-113.146447
20
-37.379820
11
-112.378258
21
-38.574632
0
LINE
8
Layer 1
10
-112.378258
20
-38.574632
11
-110.082175
21
-42.940561
0
LINE
8
Layer 1
10
-110.082175
20
-42.940561
11
-108.558967
21
-46.115895
0
LINE
8
Layer 1
10
-108.558967
20
-46.115895
11
-107.313686
21
-49.072019
0
LINE
8
Layer 1
10
-107.313686
20
-49.072019
11
-106.473262
21
-51.477656
0
LINE
8
Layer 1
10
-106.473262
20
-51.477656
11
-106.164628
21
-53.001530
0
LINE
8
Layer 1
10
-106.164628
20
-53.001530
11
-106.013665
21
-53.829512
0
LINE
8
Layer 1
10
-106.013665
20
-53.829512
11
-105.581356
21
-55.027719
0
LINE
8
Layer 1
10
-105.581356
20
-55.027719
11
-103.992849
21
-58.343270
0
LINE
8
Layer 1
10
-103.992849
20
-58.343270
11
-101.639401
21
-62.565111
0
LINE
8
Layer 1
10
-101.639401
20
-62.565111
11
-98.761307
21
-67.310168
0
LINE
8
Layer 1
10
-98.761307
20
-67.310168
11
-95.598864
21
-72.195370
0
LINE
8
Layer 1
10
-95.598864
20
-72.195370
11
-92.392367
21
-76.837644
0
LINE
8
Layer 1
10
-92.392367
20
-76.837644
11
-89.382110
21
-80.853917
0
LINE
8
Layer 1
10
-89.382110
20
-80.853917
11
-86.808389
21
-83.861118
0
LINE
8
Layer 1
10
-86.808389
20
-83.861118
11
-84.612367
21
-85.953507
0
LINE
8
Layer 1
10
-84.612367
20
-85.953507
11
-82.555528
21
-87.494549
0
LINE
8
Layer 1
10
-82.555528
20
-87.494549
11
-80.627293
21
-88.485491
0
LINE
8
Layer 1
10
-80.627293
20
-88.485491
11
-78.817085
21
-88.927575
0
LINE
8
Layer 1
10
-78.817085
20
-88.927575
11
-77.114325
21
-88.822048
0
LINE
8
Layer 1
10
-77.114325
20
-88.822048
11
-75.508437
21
-88.170153
0
LINE
8
Layer 1
10
-75.508437
20
-88.170153
11
-73.988842
21
-86.973135
0
LINE
8
Layer 1
10
-73.988842
20
-86.973135
11
-72.544963
21
-85.232239
0
LINE
8
Layer 1
10
-72.544963
20
-85.232239
11
-71.726605
21
-83.854143
0
LINE
8
Layer 1
10
-71.726605
20
-83.854143
11
-71.171207
21
-82.410899
0
LINE
8
Layer 1
10
-71.171207
20
-82.410899
11
-70.889206
21
-80.885728
0
LINE
8
Layer 1
10
-70.889206
20
-80.885728
11
-70.891041
21
-79.261847
0
LINE
8
Layer 1
10
-70.891041
20
-79.261847
11
-71.187148
21
-77.522477
0
LINE
8
Layer 1
10
-71.187148
20
-77.522477
11
-71.787966
21
-75.650836
0
LINE
8
Layer 1
10
-71.787966
20
-75.650836
11
-72.703932
21
-73.630144
0
LINE
8
Layer 1
10
-72.703932
20
-73.630144
11
-73.945485
21
-71.443619
0
LINE
8
Layer 1
10
-73.945485
20
-71.443619
11
-75.523062
21
-69.074482
0
LINE
8
Layer 1
10
-75.523062
20
-69.074482
11
-77.447100
21
-66.505950
0
LINE
8
Layer 1
10
-77.447100
20
-66.505950
11
-82.376315
21
-60.703582
0
LINE
8
Layer 1
10
-82.376315
20
-60.703582
11
-88.816631
21
-53.902268
0
LINE
8
Layer 1
10
-88.816631
20
-53.902268
11
-96.851552
21
-45.967762
0
LINE
8
Layer 1
10
-96.851552
20
-45.967762
11
-101.276216
21
-41.479524
0
LINE
8
Layer 1
10
-101.276216
20
-41.479524
11
-104.735665
21
-37.540874
0
LINE
8
Layer 1
10
-104.735665
20
-37.540874
11
-106.884046
21
-34.574790
0
LINE
8
Layer 1
10
-106.884046
20
-34.574790
11
-107.358507
21
-33.588641
0
LINE
8
Layer 1
10
-107.358507
20
-33.588641
11
-107.375506
21
-33.004251
0
LINE
8
Layer 1
10
-107.375506
20
-33.004251
11
-106.753346
21
-32.622149
0
LINE
8
Layer 1
10
-106.753346
20
-32.622149
11
-105.395857
21
-32.216037
0
LINE
8
Layer 1
10
-105.395857
20
-32.216037
11
-100.815454
21
-31.381917
0
LINE
8
Layer 1
10
-100.815454
20
-31.381917
11
-94.315425
21
-30.602165
0
LINE
8
Layer 1
10
-94.315425
20
-30.602165
11
-86.576899
21
-29.977050
0
LINE
8
Layer 1
10
-86.576899
20
-29.977050
11
-79.199718
21
-29.346284
0
LINE
8
Layer 1
10
-79.199718
20
-29.346284
11
-72.543877
21
-28.436092
0
LINE
8
Layer 1
10
-72.543877
20
-28.436092
11
-66.626241
21
-27.252119
0
LINE
8
Layer 1
10
-66.626241
20
-27.252119
11
-61.463672
21
-25.800010
0
LINE
8
Layer 1
10
-61.463672
20
-25.800010
11
-57.073035
21
-24.085409
0
LINE
8
Layer 1
10
-57.073035
20
-24.085409
11
-55.172461
21
-23.131438
0
LINE
8
Layer 1
10
-55.172461
20
-23.131438
11
-53.471194
21
-22.113961
0
LINE
8
Layer 1
10
-53.471194
20
-22.113961
11
-51.971341
21
-21.033683
0
LINE
8
Layer 1
10
-51.971341
20
-21.033683
11
-50.675012
21
-19.891310
0
LINE
8
Layer 1
10
-50.675012
20
-19.891310
11
-49.584313
21
-18.687547
0
LINE
8
Layer 1
10
-49.584313
20
-18.687547
11
-48.701353
21
-17.423100
0
LINE
8
Layer 1
10
-48.701353
20
-17.423100
11
-47.859996
21
-15.518051
0
LINE
8
Layer 1
10
-47.859996
20
-15.518051
11
-47.683336
21
-14.607604
0
LINE
8
Layer 1
10
-47.683336
20
-14.607604
11
-47.664257
21
-13.730561
0
LINE
8
Layer 1
10
-47.664257
20
-13.730561
11
-47.798936
21
-12.890938
0
LINE
8
Layer 1
10
-47.798936
20
-12.890938
11
-48.083549
21
-12.092750
0
LINE
8
Layer 1
10
-48.083549
20
-12.092750
11
-49.087286
21
-10.636739
0
LINE
8
Layer 1
10
-49.087286
20
-10.636739
11
-50.644882
21
-9.394647
0
LINE
8
Layer 1
10
-50.644882
20
-9.394647
11
-52.725749
21
-8.398596
0
LINE
8
Layer 1
10
-52.725749
20
-8.398596
11
-55.299303
21
-7.680703
0
LINE
8
Layer 1
10
-55.299303
20
-7.680703
11
-58.334955
21
-7.273091
0
LINE
8
Layer 1
10
-58.334955
20
-7.273091
11
-59.873780
21
-7.263193
0
LINE
8
Layer 1
10
-59.873780
20
-7.263193
11
-61.659189
21
-7.438184
0
LINE
8
Layer 1
10
-61.659189
20
-7.438184
11
-65.901029
21
-8.314969
0
LINE
8
Layer 1
10
-65.901029
20
-8.314969
11
-70.923009
21
-9.847721
0
LINE
8
Layer 1
10
-70.923009
20
-9.847721
11
-76.587665
21
-11.980717
0
LINE
8
Layer 1
10
-76.587665
20
-11.980717
11
-82.757532
21
-14.658231
0
LINE
8
Layer 1
10
-82.757532
20
-14.658231
11
-89.295145
21
-17.824541
0
LINE
8
Layer 1
10
-89.295145
20
-17.824541
11
-96.063039
21
-21.423921
0
LINE
8
Layer 1
10
-96.063039
20
-21.423921
11
-102.923749
21
-25.400648
0
LINE
8
Layer 1
10
-102.923749
20
-25.400648
11
-105.645515
21
-26.928807
0
LINE
8
Layer 1
10
-105.645515
20
-26.928807
11
-108.014139
21
-28.042611
0
LINE
8
Layer 1
10
-108.014139
20
-28.042611
11
-109.774082
21
-28.636747
0
LINE
8
Layer 1
10
-109.774082
20
-28.636747
11
-110.345942
21
-28.706029
0
LINE
8
Layer 1
10
-110.345942
20
-28.706029
11
-110.669807
21
-28.605902
0
LINE
8
Layer 1
10
-110.669807
20
-28.605902
11
-110.877716
21
-27.754427
0
LINE
8
Layer 1
10
-110.877716
20
-27.754427
11
-110.765664
21
-26.114215
0
LINE
8
Layer 1
10
-110.765664
20
-26.114215
11
-110.365289
21
-23.921336
0
LINE
8
Layer 1
10
-110.365289
20
-23.921336
11
-109.708225
21
-21.411860
0
LINE
8
Layer 1
10
-109.708225
20
-21.411860
11
-108.926849
21
-18.398066
0
LINE
8
Layer 1
10
-108.926849
20
-18.398066
11
-108.188688
21
-14.831934
0
LINE
8
Layer 1
10
-108.188688
20
-14.831934
11
-107.578146
21
-11.159079
0
LINE
8
Layer 1
10
-107.578146
20
-11.159079
11
-107.179629
21
-7.825118
0
LINE
8
Layer 1
10
-107.179629
20
-7.825118
11
-106.352069
21
-0.153415
0
LINE
8
Layer 1
10
-106.352069
20
-0.153415
11
-105.256468
21
8.023156
0
LINE
8
Layer 1
10
-105.256468
20
8.023156
11
-104.727895
21
12.695425
0
LINE
8
Layer 1
10
-104.727895
20
12.695425
11
-104.580812
21
17.085844
0
LINE
8
Layer 1
10
-104.580812
20
17.085844
11
-104.800150
21
21.126083
0
LINE
8
Layer 1
10
-104.800150
20
21.126083
11
-105.370838
21
24.747815
0
LINE
8
Layer 1
10
-105.370838
20
24.747815
11
-106.277805
21
27.882709
0
LINE
8
Layer 1
10
-106.277805
20
27.882709
11
-107.505982
21
30.462438
0
LINE
8
Layer 1
10
-107.505982
20
30.462438
11
-108.235815
21
31.522762
0
LINE
8
Layer 1
10
-108.235815
20
31.522762
11
-109.040298
21
32.418671
0
LINE
8
Layer 1
10
-109.040298
20
32.418671
11
-109.917549
21
33.141624
0
LINE
8
Layer 1
10
-109.917549
20
33.141624
11
-110.865683
21
33.683080
0
LINE
8
Layer 1
10
-110.865683
20
33.683080
11
-112.628731
21
34.335292
0
LINE
8
Layer 1
10
-112.628731
20
34.335292
11
-114.249017
21
34.609023
0
LINE
8
Layer 1
10
-114.249017
20
34.609023
11
-114.925684
21
34.609023
0
LINE
8
Layer 1
10
-114.925684
20
34.609023
11
-114.925684
21
34.609023
0
LINE
8
Layer 1
10
324.249006
20
34.609023
11
322.628722
21
34.335292
0
LINE
8
Layer 1
10
322.628722
20
34.335292
11
320.865669
21
33.683080
0
LINE
8
Layer 1
10
320.865669
20
33.683080
11
319.917540
21
33.141624
0
LINE
8
Layer 1
10
319.917540
20
33.141624
11
319.040293
21
32.418671
0
LINE
8
Layer 1
10
319.040293
20
32.418671
11
318.235812
21
31.522762
0
LINE
8
Layer 1
10
318.235812
20
31.522762
11
317.505982
21
30.462438
0
LINE
8
Layer 1
10
317.505982
20
30.462438
11
316.277808
21
27.882709
0
LINE
8
Layer 1
10
316.277808
20
27.882709
11
315.370841
21
24.747815
0
LINE
8
Layer 1
10
315.370841
20
24.747815
11
314.800154
21
21.126083
0
LINE
8
Layer 1
10
314.800154
20
21.126083
11
314.580816
21
17.085844
0
LINE
8
Layer 1
10
314.580816
20
17.085844
11
314.727900
21
12.695425
0
LINE
8
Layer 1
10
314.727900
20
12.695425
11
315.256474
21
8.023156
0
LINE
8
Layer 1
10
315.256474
20
8.023156
11
316.352065
21
-0.153415
0
LINE
8
Layer 1
10
316.352065
20
-0.153415
11
317.179621
21
-7.825118
0
LINE
8
Layer 1
10
317.179621
20
-7.825118
11
317.578140
21
-11.159079
0
LINE
8
Layer 1
10
317.578140
20
-11.159079
11
318.188682
21
-14.831934
0
LINE
8
Layer 1
10
318.188682
20
-14.831934
11
318.926844
21
-18.398066
0
LINE
8
Layer 1
10
318.926844
20
-18.398066
11
319.708220
21
-21.411860
0
LINE
8
Layer 1
10
319.708220
20
-21.411860
11
320.365289
21
-23.921336
0
LINE
8
Layer 1
10
320.365289
20
-23.921336
11
320.765667
21
-26.114215
0
LINE
8
Layer 1
10
320.765667
20
-26.114215
11
320.877719
21
-27.754427
0
LINE
8
Layer 1
10
320.877719
20
-27.754427
11
320.669807
21
-28.605902
0
LINE
8
Layer 1
10
320.669807
20
-28.605902
11
320.345942
21
-28.706029
0
LINE
8
Layer 1
10
320.345942
20
-28.706029
11
319.774079
21
-28.636747
0
LINE
8
Layer 1
10
319.774079
20
-28.636747
11
318.014131
21
-28.042611
0
LINE
8
Layer 1
10
318.014131
20
-28.042611
11
315.645505
21
-26.928807
0
LINE
8
Layer 1
10
315.645505
20
-26.928807
11
312.923738
21
-25.400648
0
LINE
8
Layer 1
10
312.923738
20
-25.400648
11
306.063032
21
-21.423921
0
LINE
8
Layer 1
10
306.063032
20
-21.423921
11
299.295139
21
-17.824541
0
LINE
8
Layer 1
10
299.295139
20
-17.824541
11
292.757525
21
-14.658231
0
LINE
8
Layer 1
10
292.757525
20
-14.658231
11
286.587656
21
-11.980717
0
LINE
8
Layer 1
10
286.587656
20
-11.980717
11
280.922997
21
-9.847721
0
LINE
8
Layer 1
10
280.922997
20
-9.847721
11
275.901013
21
-8.314969
0
LINE
8
Layer 1
10
275.901013
20
-8.314969
11
271.659170
21
-7.438184
0
LINE
8
Layer 1
10
271.659170
20
-7.438184
11
269.873759
21
-7.263193
0
LINE
8
Layer 1
10
269.873759
20
-7.263193
11
268.334933
21
-7.273091
0
LINE
8
Layer 1
10
268.334933
20
-7.273091
11
265.299284
21
-7.680703
0
LINE
8
Layer 1
10
265.299284
20
-7.680703
11
262.725734
21
-8.398596
0
LINE
8
Layer 1
10
262.725734
20
-8.398596
11
260.644868
21
-9.394647
0
LINE
8
Layer 1
10
260.644868
20
-9.394647
11
259.087273
21
-10.636739
0
LINE
8
Layer 1
10
259.087273
20
-10.636739
11
258.083536
21
-12.092750
0
LINE
8
Layer 1
10
258.083536
20
-12.092750
11
257.798922
21
-12.890938
0
LINE
8
Layer 1
10
257.798922
20
-12.890938
11
257.664242
21
-13.730561
0
LINE
8
Layer 1
10
257.664242
20
-13.730561
11
257.683320
21
-14.607604
0
LINE
8
Layer 1
10
257.683320
20
-14.607604
11
257.859980
21
-15.518051
0
LINE
8
Layer 1
10
257.859980
20
-15.518051
11
258.701334
21
-17.423100
0
LINE
8
Layer 1
10
258.701334
20
-17.423100
11
259.584294
21
-18.687547
0
LINE
8
Layer 1
10
259.584294
20
-18.687547
11
260.674994
21
-19.891310
0
LINE
8
Layer 1
10
260.674994
20
-19.891310
11
261.971324
21
-21.033683
0
LINE
8
Layer 1
10
261.971324
20
-21.033683
11
263.471178
21
-22.113961
0
LINE
8
Layer 1
10
263.471178
20
-22.113961
11
265.172446
21
-23.131438
0
LINE
8
Layer 1
10
265.172446
20
-23.131438
11
267.073021
21
-24.085409
0
LINE
8
Layer 1
10
267.073021
20
-24.085409
11
271.463660
21
-25.800010
0
LINE
8
Layer 1
10
271.463660
20
-25.800010
11
276.626231
21
-27.252119
0
LINE
8
Layer 1
10
276.626231
20
-27.252119
11
282.543869
21
-28.436092
0
LINE
8
Layer 1
10
282.543869
20
-28.436092
11
289.199710
21
-29.346284
0
LINE
8
Layer 1
10
289.199710
20
-29.346284
11
296.576891
21
-29.977050
0
LINE
8
Layer 1
10
296.576891
20
-29.977050
11
304.315419
21
-30.602165
0
LINE
8
Layer 1
10
304.315419
20
-30.602165
11
310.815454
21
-31.381917
0
LINE
8
Layer 1
10
310.815454
20
-31.381917
11
315.395862
21
-32.216037
0
LINE
8
Layer 1
10
315.395862
20
-32.216037
11
316.753353
21
-32.622149
0
LINE
8
Layer 1
10
316.753353
20
-32.622149
11
317.375512
21
-33.004251
0
LINE
8
Layer 1
10
317.375512
20
-33.004251
11
317.358506
21
-33.588641
0
LINE
8
Layer 1
10
317.358506
20
-33.588641
11
316.884042
21
-34.574790
0
LINE
8
Layer 1
10
316.884042
20
-34.574790
11
314.735662
21
-37.540874
0
LINE
8
Layer 1
10
314.735662
20
-37.540874
11
311.276218
21
-41.479524
0
LINE
8
Layer 1
10
311.276218
20
-41.479524
11
306.851558
21
-45.967762
0
LINE
8
Layer 1
10
306.851558
20
-45.967762
11
298.816634
21
-53.902268
0
LINE
8
Layer 1
10
298.816634
20
-53.902268
11
292.376314
21
-60.703582
0
LINE
8
Layer 1
10
292.376314
20
-60.703582
11
287.447096
21
-66.505950
0
LINE
8
Layer 1
10
287.447096
20
-66.505950
11
285.523056
21
-69.074482
0
LINE
8
Layer 1
10
285.523056
20
-69.074482
11
283.945479
21
-71.443619
0
LINE
8
Layer 1
10
283.945479
20
-71.443619
11
282.703925
21
-73.630144
0
LINE
8
Layer 1
10
282.703925
20
-73.630144
11
281.787959
21
-75.650836
0
LINE
8
Layer 1
10
281.787959
20
-75.650836
11
281.187142
21
-77.522477
0
LINE
8
Layer 1
10
281.187142
20
-77.522477
11
280.891036
21
-79.261847
0
LINE
8
Layer 1
10
280.891036
20
-79.261847
11
280.889204
21
-80.885728
0
LINE
8
Layer 1
10
280.889204
20
-80.885728
11
281.171207
21
-82.410899
0
LINE
8
Layer 1
10
281.171207
20
-82.410899
11
281.726609
21
-83.854143
0
LINE
8
Layer 1
10
281.726609
20
-83.854143
11
282.544972
21
-85.232239
0
LINE
8
Layer 1
10
282.544972
20
-85.232239
11
283.988846
21
-86.973135
0
LINE
8
Layer 1
10
283.988846
20
-86.973135
11
285.508438
21
-88.170153
0
LINE
8
Layer 1
10
285.508438
20
-88.170153
11
287.114325
21
-88.822048
0
LINE
8
Layer 1
10
287.114325
20
-88.822048
11
288.817085
21
-88.927575
0
LINE
8
Layer 1
10
288.817085
20
-88.927575
11
290.627295
21
-88.485491
0
LINE
8
Layer 1
10
290.627295
20
-88.485491
11
292.555532
21
-87.494549
0
LINE
8
Layer 1
10
292.555532
20
-87.494549
11
294.612374
21
-85.953507
0
LINE
8
Layer 1
10
294.612374
20
-85.953507
11
296.808398
21
-83.861118
0
LINE
8
Layer 1
10
296.808398
20
-83.861118
11
299.382117
21
-80.853917
0
LINE
8
Layer 1
10
299.382117
20
-80.853917
11
302.392372
21
-76.837644
0
LINE
8
Layer 1
10
302.392372
20
-76.837644
11
305.598868
21
-72.195370
0
LINE
8
Layer 1
10
305.598868
20
-72.195370
11
308.761310
21
-67.310168
0
LINE
8
Layer 1
10
308.761310
20
-67.310168
11
311.639403
21
-62.565111
0
LINE
8
Layer 1
10
311.639403
20
-62.565111
11
313.992851
21
-58.343270
0
LINE
8
Layer 1
10
313.992851
20
-58.343270
11
315.581361
21
-55.027719
0
LINE
8
Layer 1
10
315.581361
20
-55.027719
11
316.013672
21
-53.829512
0
LINE
8
Layer 1
10
316.013672
20
-53.829512
11
316.164637
21
-53.001530
0
LINE
8
Layer 1
10
316.164637
20
-53.001530
11
316.473265
21
-51.477656
0
LINE
8
Layer 1
10
316.473265
20
-51.477656
11
317.313680
21
-49.072019
0
LINE
8
Layer 1
10
317.313680
20
-49.072019
11
318.558956
21
-46.115895
0
LINE
8
Layer 1
10
318.558956
20
-46.115895
11
320.082164
21
-42.940561
0
LINE
8
Layer 1
10
320.082164
20
-42.940561
11
322.378255
21
-38.574632
0
LINE
8
Layer 1
10
322.378255
20
-38.574632
11
323.146444
21
-37.379820
0
LINE
8
Layer 1
10
323.146444
20
-37.379820
11
323.751342
21
-36.795010
0
LINE
8
Layer 1
10
323.751342
20
-36.795010
11
324.260411
21
-36.783629
0
LINE
8
Layer 1
10
324.260411
20
-36.783629
11
324.741111
21
-37.309104
0
LINE
8
Layer 1
10
324.741111
20
-37.309104
11
325.887249
21
-39.824320
0
LINE
8
Layer 1
10
325.887249
20
-39.824320
11
331.493419
21
-52.745982
0
LINE
8
Layer 1
10
331.493419
20
-52.745982
11
334.226533
21
-58.501544
0
LINE
8
Layer 1
10
334.226533
20
-58.501544
11
336.905846
21
-63.777831
0
LINE
8
Layer 1
10
336.905846
20
-63.777831
11
339.525992
21
-68.568021
0
LINE
8
Layer 1
10
339.525992
20
-68.568021
11
342.081606
21
-72.865292
0
LINE
8
Layer 1
10
342.081606
20
-72.865292
11
344.567323
21
-76.662823
0
LINE
8
Layer 1
10
344.567323
20
-76.662823
11
346.977776
21
-79.953791
0
LINE
8
Layer 1
10
346.977776
20
-79.953791
11
349.307600
21
-82.731374
0
LINE
8
Layer 1
10
349.307600
20
-82.731374
11
351.551431
21
-84.988750
0
LINE
8
Layer 1
10
351.551431
20
-84.988750
11
353.703901
21
-86.719099
0
LINE
8
Layer 1
10
353.703901
20
-86.719099
11
355.759646
21
-87.915597
0
LINE
8
Layer 1
10
355.759646
20
-87.915597
11
357.713299
21
-88.571422
0
LINE
8
Layer 1
10
357.713299
20
-88.571422
11
359.559497
21
-88.679754
0
LINE
8
Layer 1
10
359.559497
20
-88.679754
11
361.292872
21
-88.233769
0
LINE
8
Layer 1
10
361.292872
20
-88.233769
11
362.908060
21
-87.226647
0
LINE
8
Layer 1
10
362.908060
20
-87.226647
11
363.658414
21
-86.502086
0
LINE
8
Layer 1
10
363.658414
20
-86.502086
11
364.256086
21
-85.686584
0
LINE
8
Layer 1
10
364.256086
20
-85.686584
11
364.706155
21
-84.754865
0
LINE
8
Layer 1
10
364.706155
20
-84.754865
11
365.013702
21
-83.681653
0
LINE
8
Layer 1
10
365.013702
20
-83.681653
11
365.221551
21
-81.009655
0
LINE
8
Layer 1
10
365.221551
20
-81.009655
11
364.920276
21
-77.468390
0
LINE
8
Layer 1
10
364.920276
20
-77.468390
11
364.497467
21
-75.206398
0
LINE
8
Layer 1
10
364.497467
20
-75.206398
11
363.772767
21
-73.040820
0
LINE
8
Layer 1
10
363.772767
20
-73.040820
11
362.608060
21
-70.792195
0
LINE
8
Layer 1
10
362.608060
20
-70.792195
11
360.865229
21
-68.281058
0
LINE
8
Layer 1
10
360.865229
20
-68.281058
11
358.406158
21
-65.327947
0
LINE
8
Layer 1
10
358.406158
20
-65.327947
11
355.092730
21
-61.753398
0
LINE
8
Layer 1
10
355.092730
20
-61.753398
11
345.350338
21
-52.022134
0
LINE
8
Layer 1
10
345.350338
20
-52.022134
11
337.530578
21
-44.162380
0
LINE
8
Layer 1
10
337.530578
20
-44.162380
11
332.112472
21
-38.214366
0
LINE
8
Layer 1
10
332.112472
20
-38.214366
11
330.336494
21
-35.995363
0
LINE
8
Layer 1
10
330.336494
20
-35.995363
11
329.199875
21
-34.300018
0
LINE
8
Layer 1
10
329.199875
20
-34.300018
11
328.715597
21
-33.143572
0
LINE
8
Layer 1
10
328.715597
20
-33.143572
11
328.722142
21
-32.772198
0
LINE
8
Layer 1
10
328.722142
20
-32.772198
11
328.896641
21
-32.541265
0
LINE
8
Layer 1
10
328.896641
20
-32.541265
11
329.725269
21
-32.251057
0
LINE
8
Layer 1
10
329.725269
20
-32.251057
11
331.267614
21
-31.933741
0
LINE
8
Layer 1
10
331.267614
20
-31.933741
11
336.137917
21
-31.258491
0
LINE
8
Layer 1
10
336.137917
20
-31.258491
11
342.796470
21
-30.596931
0
LINE
8
Layer 1
10
342.796470
20
-30.596931
11
350.532192
21
-30.030475
0
LINE
8
Layer 1
10
350.532192
20
-30.030475
11
360.224724
21
-29.257705
0
LINE
8
Layer 1
10
360.224724
20
-29.257705
11
364.156187
21
-28.775304
0
LINE
8
Layer 1
10
364.156187
20
-28.775304
11
367.598117
21
-28.206254
0
LINE
8
Layer 1
10
367.598117
20
-28.206254
11
370.640765
21
-27.533575
0
LINE
8
Layer 1
10
370.640765
20
-27.533575
11
373.374384
21
-26.740286
0
LINE
8
Layer 1
10
373.374384
20
-26.740286
11
375.889225
21
-25.809409
0
LINE
8
Layer 1
10
375.889225
20
-25.809409
11
378.275540
21
-24.723964
0
LINE
8
Layer 1
10
378.275540
20
-24.723964
11
381.264131
21
-23.036725
0
LINE
8
Layer 1
10
381.264131
20
-23.036725
11
383.682062
21
-21.240133
0
LINE
8
Layer 1
10
383.682062
20
-21.240133
11
385.517458
21
-19.358978
0
LINE
8
Layer 1
10
385.517458
20
-19.358978
11
386.758445
21
-17.418049
0
LINE
8
Layer 1
10
386.758445
20
-17.418049
11
387.393148
21
-15.442137
0
LINE
8
Layer 1
10
387.393148
20
-15.442137
11
387.479432
21
-14.448809
0
LINE
8
Layer 1
10
387.479432
20
-14.448809
11
387.409693
21
-13.456031
0
LINE
8
Layer 1
10
387.409693
20
-13.456031
11
387.182446
21
-12.466903
0
LINE
8
Layer 1
10
387.182446
20
-12.466903
11
386.796207
21
-11.484523
0
LINE
8
Layer 1
10
386.796207
20
-11.484523
11
385.540814
21
-9.552402
0
LINE
8
Layer 1
10
385.540814
20
-9.552402
11
384.639477
21
-8.642056
0
LINE
8
Layer 1
10
384.639477
20
-8.642056
11
383.590068
21
-7.913248
0
LINE
8
Layer 1
10
383.590068
20
-7.913248
11
382.383580
21
-7.367969
0
LINE
8
Layer 1
10
382.383580
20
-7.367969
11
381.011004
21
-7.008211
0
LINE
8
Layer 1
10
381.011004
20
-7.008211
11
379.463333
21
-6.835962
0
LINE
8
Layer 1
10
379.463333
20
-6.835962
11
377.731558
21
-6.853213
0
LINE
8
Layer 1
10
377.731558
20
-6.853213
11
375.806671
21
-7.061955
0
LINE
8
Layer 1
10
375.806671
20
-7.061955
11
373.679664
21
-7.464177
0
LINE
8
Layer 1
10
373.679664
20
-7.464177
11
368.783256
21
-8.857024
0
LINE
8
Layer 1
10
368.783256
20
-8.857024
11
362.970271
21
-11.047677
0
LINE
8
Layer 1
10
362.970271
20
-11.047677
11
356.168643
21
-14.052057
0
LINE
8
Layer 1
10
356.168643
20
-14.052057
11
348.306305
21
-17.886086
0
LINE
8
Layer 1
10
348.306305
20
-17.886086
11
332.754333
21
-25.632659
0
LINE
8
Layer 1
10
332.754333
20
-25.632659
11
325.833853
21
-28.855217
0
LINE
8
Layer 1
10
325.833853
20
-28.855217
11
325.629640
21
-28.551048
0
LINE
8
Layer 1
10
325.629640
20
-28.551048
11
325.645597
21
-27.723573
0
LINE
8
Layer 1
10
325.645597
20
-27.723573
11
326.279030
21
-25.008895
0
LINE
8
Layer 1
10
326.279030
20
-25.008895
11
327.286084
21
-21.146155
0
LINE
8
Layer 1
10
327.286084
20
-21.146155
11
328.006287
21
-17.245018
0
LINE
8
Layer 1
10
328.006287
20
-17.245018
11
330.873241
21
2.218042
0
LINE
8
Layer 1
10
330.873241
20
2.218042
11
331.790401
21
9.649065
0
LINE
8
Layer 1
10
331.790401
20
9.649065
11
332.186613
21
16.183423
0
LINE
8
Layer 1
10
332.186613
20
16.183423
11
332.073038
21
21.786285
0
LINE
8
Layer 1
10
332.073038
20
21.786285
11
331.828569
21
24.227520
0
LINE
8
Layer 1
10
331.828569
20
24.227520
11
331.460838
21
26.422818
0
LINE
8
Layer 1
10
331.460838
20
26.422818
11
330.971242
21
28.367826
0
LINE
8
Layer 1
10
330.971242
20
28.367826
11
330.361174
21
30.058190
0
LINE
8
Layer 1
10
330.361174
20
30.058190
11
329.632030
21
31.489556
0
LINE
8
Layer 1
10
329.632030
20
31.489556
11
328.785206
21
32.657570
0
LINE
8
Layer 1
10
328.785206
20
32.657570
11
327.822097
21
33.557878
0
LINE
8
Layer 1
10
327.822097
20
33.557878
11
326.744097
21
34.186125
0
LINE
8
Layer 1
10
326.744097
20
34.186125
11
325.552601
21
34.537958
0
LINE
8
Layer 1
10
325.552601
20
34.537958
11
324.249006
21
34.609023
0
LINE
8
Layer 1
10
324.249006
20
34.609023
11
324.249006
21
34.609023
0
LINE
8
Layer 1
10
63.714404
20
25.937011
11
67.200817
21
25.821923
0
LINE
8
Layer 1
10
67.200817
20
25.821923
11
70.676012
21
25.269062
0
LINE
8
Layer 1
10
70.676012
20
25.269062
11
74.138321
21
24.280018
0
LINE
8
Layer 1
10
74.138321
20
24.280018
11
77.586078
21
22.856386
0
LINE
8
Layer 1
10
77.586078
20
22.856386
11
78.869878
21
22.089505
0
LINE
8
Layer 1
10
78.869878
20
22.089505
11
80.258771
21
20.986427
0
LINE
8
Layer 1
10
80.258771
20
20.986427
11
83.264871
21
17.952886
0
LINE
8
Layer 1
10
83.264871
20
17.952886
11
86.430443
21
14.118177
0
LINE
8
Layer 1
10
86.430443
20
14.118177
11
89.581555
21
9.844715
0
LINE
8
Layer 1
10
89.581555
20
9.844715
11
92.544274
21
5.494916
0
LINE
8
Layer 1
10
92.544274
20
5.494916
11
95.144667
21
1.431195
0
LINE
8
Layer 1
10
95.144667
20
1.431195
11
98.562744
21
-4.388357
0
LINE
8
Layer 1
10
98.562744
20
-4.388357
11
99.149620
21
-5.334010
0
LINE
8
Layer 1
10
99.149620
20
-5.334010
11
99.830085
21
-6.147909
0
LINE
8
Layer 1
10
99.830085
20
-6.147909
11
101.416454
21
-7.385299
0
LINE
8
Layer 1
10
101.416454
20
-7.385299
11
103.211191
21
-8.110243
0
LINE
8
Layer 1
10
103.211191
20
-8.110243
11
105.103633
21
-8.332458
0
LINE
8
Layer 1
10
105.103633
20
-8.332458
11
106.983120
21
-8.061661
0
LINE
8
Layer 1
10
106.983120
20
-8.061661
11
108.738991
21
-7.307567
0
LINE
8
Layer 1
10
108.738991
20
-7.307567
11
110.260586
21
-6.079893
0
LINE
8
Layer 1
10
110.260586
20
-6.079893
11
110.898947
21
-5.291501
0
LINE
8
Layer 1
10
110.898947
20
-5.291501
11
111.437242
21
-4.388357
0
LINE
8
Layer 1
10
111.437242
20
-4.388357
11
114.814981
21
1.452019
0
LINE
8
Layer 1
10
114.814981
20
1.452019
11
117.413696
21
5.516608
0
LINE
8
Layer 1
10
117.413696
20
5.516608
11
120.382580
21
9.863226
0
LINE
8
Layer 1
10
120.382580
20
9.863226
11
123.544340
21
14.131192
0
LINE
8
Layer 1
10
123.544340
20
14.131192
11
126.721679
21
17.959827
0
LINE
8
Layer 1
10
126.721679
20
17.959827
11
129.737303
21
20.988452
0
LINE
8
Layer 1
10
129.737303
20
20.988452
11
131.129067
21
22.090048
0
LINE
8
Layer 1
10
131.129067
20
22.090048
11
132.413917
21
22.856386
0
LINE
8
Layer 1
10
132.413917
20
22.856386
11
134.919274
21
23.934016
0
LINE
8
Layer 1
10
134.919274
20
23.934016
11
137.431718
21
24.780899
0
LINE
8
Layer 1
10
137.431718
20
24.780899
11
139.951094
21
25.397057
0
LINE
8
Layer 1
10
139.951094
20
25.397057
11
142.477246
21
25.782512
0
LINE
8
Layer 1
10
142.477246
20
25.782512
11
145.010021
21
25.937289
0
LINE
8
Layer 1
10
145.010021
20
25.937289
11
147.549261
21
25.861408
0
LINE
8
Layer 1
10
147.549261
20
25.861408
11
150.094814
21
25.554894
0
LINE
8
Layer 1
10
150.094814
20
25.554894
11
152.646523
21
25.017768
0
LINE
8
Layer 1
10
152.646523
20
25.017768
11
155.204234
21
24.250053
0
LINE
8
Layer 1
10
155.204234
20
24.250053
11
157.767792
21
23.251773
0
LINE
8
Layer 1
10
157.767792
20
23.251773
11
160.337042
21
22.022949
0
LINE
8
Layer 1
10
160.337042
20
22.022949
11
162.911828
21
20.563605
0
LINE
8
Layer 1
10
162.911828
20
20.563605
11
165.491996
21
18.873763
0
LINE
8
Layer 1
10
165.491996
20
18.873763
11
168.077391
21
16.953445
0
LINE
8
Layer 1
10
168.077391
20
16.953445
11
170.667858
21
14.802676
0
LINE
8
Layer 1
10
170.667858
20
14.802676
11
173.263241
21
12.421476
0
LINE
8
Layer 1
10
173.263241
20
12.421476
11
178.634181
21
7.013443
0
LINE
8
Layer 1
10
178.634181
20
7.013443
11
180.428915
21
4.873913
0
LINE
8
Layer 1
10
180.428915
20
4.873913
11
181.750242
21
2.900350
0
LINE
8
Layer 1
10
181.750242
20
2.900350
11
182.688473
21
0.934986
0
LINE
8
Layer 1
10
182.688473
20
0.934986
11
183.333920
21
-1.179946
0
LINE
8
Layer 1
10
183.333920
20
-1.179946
11
183.776897
21
-3.602214
0
LINE
8
Layer 1
10
183.776897
20
-3.602214
11
184.107715
21
-6.489586
0
LINE
8
Layer 1
10
184.107715
20
-6.489586
11
184.450601
21
-11.206956
0
LINE
8
Layer 1
10
184.450601
20
-11.206956
11
184.431526
21
-15.205859
0
LINE
8
Layer 1
10
184.431526
20
-15.205859
11
183.962444
21
-18.695973
0
LINE
8
Layer 1
10
183.962444
20
-18.695973
11
183.531635
21
-20.315758
0
LINE
8
Layer 1
10
183.531635
20
-20.315758
11
182.955306
21
-21.886974
0
LINE
8
Layer 1
10
182.955306
20
-21.886974
11
181.322065
21
-24.988538
0
LINE
8
Layer 1
10
181.322065
20
-24.988538
11
178.974672
21
-28.210340
0
LINE
8
Layer 1
10
178.974672
20
-28.210340
11
175.825081
21
-31.762058
0
LINE
8
Layer 1
10
175.825081
20
-31.762058
11
171.785243
21
-35.853369
0
LINE
8
Layer 1
10
171.785243
20
-35.853369
11
160.905153
21
-46.519788
0
LINE
8
Layer 1
10
160.905153
20
-46.519788
11
175.863044
21
-49.742851
0
LINE
8
Layer 1
10
175.863044
20
-49.742851
11
181.204496
21
-50.999947
0
LINE
8
Layer 1
10
181.204496
20
-50.999947
11
185.813075
21
-52.338156
0
LINE
8
Layer 1
10
185.813075
20
-52.338156
11
189.777714
21
-53.806666
0
LINE
8
Layer 1
10
189.777714
20
-53.806666
11
193.187343
21
-55.454669
0
LINE
8
Layer 1
10
193.187343
20
-55.454669
11
196.130894
21
-57.331353
0
LINE
8
Layer 1
10
196.130894
20
-57.331353
11
198.697299
21
-59.485910
0
LINE
8
Layer 1
10
198.697299
20
-59.485910
11
200.975488
21
-61.967528
0
LINE
8
Layer 1
10
200.975488
20
-61.967528
11
203.054393
21
-64.825399
0
LINE
8
Layer 1
10
203.054393
20
-64.825399
11
204.291391
21
-66.951361
0
LINE
8
Layer 1
10
204.291391
20
-66.951361
11
205.313800
21
-69.217743
0
LINE
8
Layer 1
10
205.313800
20
-69.217743
11
206.123579
21
-71.608057
0
LINE
8
Layer 1
10
206.123579
20
-71.608057
11
206.722688
21
-74.105816
0
LINE
8
Layer 1
10
206.722688
20
-74.105816
11
207.113087
21
-76.694533
0
LINE
8
Layer 1
10
207.113087
20
-76.694533
11
207.296736
21
-79.357720
0
LINE
8
Layer 1
10
207.296736
20
-79.357720
11
207.275593
21
-82.078890
0
LINE
8
Layer 1
10
207.275593
20
-82.078890
11
207.051619
21
-84.841555
0
LINE
8
Layer 1
10
207.051619
20
-84.841555
11
206.626774
21
-87.629228
0
LINE
8
Layer 1
10
206.626774
20
-87.629228
11
206.003016
21
-90.425423
0
LINE
8
Layer 1
10
206.003016
20
-90.425423
11
205.182306
21
-93.213650
0
LINE
8
Layer 1
10
205.182306
20
-93.213650
11
204.166604
21
-95.977423
0
LINE
8
Layer 1
10
204.166604
20
-95.977423
11
202.957868
21
-98.700255
0
LINE
8
Layer 1
10
202.957868
20
-98.700255
11
201.558059
21
-101.365658
0
LINE
8
Layer 1
10
201.558059
20
-101.365658
11
199.969136
21
-103.957145
0
LINE
8
Layer 1
10
199.969136
20
-103.957145
11
198.193059
21
-106.458228
0
LINE
8
Layer 1
10
198.193059
20
-106.458228
11
195.760040
21
-109.387575
0
LINE
8
Layer 1
10
195.760040
20
-109.387575
11
193.246199
21
-111.887340
0
LINE
8
Layer 1
10
193.246199
20
-111.887340
11
190.623917
21
-113.971971
0
LINE
8
Layer 1
10
190.623917
20
-113.971971
11
187.865578
21
-115.655918
0
LINE
8
Layer 1
10
187.865578
20
-115.655918
11
184.943563
21
-116.953630
0
LINE
8
Layer 1
10
184.943563
20
-116.953630
11
181.830256
21
-117.879557
0
LINE
8
Layer 1
10
181.830256
20
-117.879557
11
178.498038
21
-118.448147
0
LINE
8
Layer 1
10
178.498038
20
-118.448147
11
174.919293
21
-118.673850
0
LINE
8
Layer 1
10
174.919293
20
-118.673850
11
171.714137
21
-118.455250
0
LINE
8
Layer 1
10
171.714137
20
-118.455250
11
167.800739
21
-117.770862
0
LINE
8
Layer 1
10
167.800739
20
-117.770862
11
163.452436
21
-116.709600
0
LINE
8
Layer 1
10
163.452436
20
-116.709600
11
158.942566
21
-115.360378
0
LINE
8
Layer 1
10
158.942566
20
-115.360378
11
154.544466
21
-113.812110
0
LINE
8
Layer 1
10
154.544466
20
-113.812110
11
150.531475
21
-112.153710
0
LINE
8
Layer 1
10
150.531475
20
-112.153710
11
147.176930
21
-110.474092
0
LINE
8
Layer 1
10
147.176930
20
-110.474092
11
144.754168
21
-108.862169
0
LINE
8
Layer 1
10
144.754168
20
-108.862169
11
143.552166
21
-107.982811
0
LINE
8
Layer 1
10
143.552166
20
-107.982811
11
142.627541
21
-107.578313
0
LINE
8
Layer 1
10
142.627541
20
-107.578313
11
141.977388
21
-107.658656
0
LINE
8
Layer 1
10
141.977388
20
-107.658656
11
141.598800
21
-108.233819
0
LINE
8
Layer 1
10
141.598800
20
-108.233819
11
141.488872
21
-109.313782
0
LINE
8
Layer 1
10
141.488872
20
-109.313782
11
141.644696
21
-110.908524
0
LINE
8
Layer 1
10
141.644696
20
-110.908524
11
142.741980
21
-115.682267
0
LINE
8
Layer 1
10
142.741980
20
-115.682267
11
143.518473
21
-118.910674
0
LINE
8
Layer 1
10
143.518473
20
-118.910674
11
144.081408
21
-122.170683
0
LINE
8
Layer 1
10
144.081408
20
-122.170683
11
144.436013
21
-125.440235
0
LINE
8
Layer 1
10
144.436013
20
-125.440235
11
144.587519
21
-128.697268
0
LINE
8
Layer 1
10
144.587519
20
-128.697268
11
144.541155
21
-131.919723
0
LINE
8
Layer 1
10
144.541155
20
-131.919723
11
144.302150
21
-135.085538
0
LINE
8
Layer 1
10
144.302150
20
-135.085538
11
143.875734
21
-138.172654
0
LINE
8
Layer 1
10
143.875734
20
-138.172654
11
143.267136
21
-141.159010
0
LINE
8
Layer 1
10
143.267136
20
-141.159010
11
142.481585
21
-144.022546
0
LINE
8
Layer 1
10
142.481585
20
-144.022546
11
141.524312
21
-146.741201
0
LINE
8
Layer 1
10
141.524312
20
-146.741201
11
140.400546
21
-149.292915
0
LINE
8
Layer 1
10
140.400546
20
-149.292915
11
139.115515
21
-151.655628
0
LINE
8
Layer 1
10
139.115515
20
-151.655628
11
137.674450
21
-153.807279
0
LINE
8
Layer 1
10
137.674450
20
-153.807279
11
136.082580
21
-155.725808
0
LINE
8
Layer 1
10
136.082580
20
-155.725808
11
134.345134
21
-157.389154
0
LINE
8
Layer 1
10
134.345134
20
-157.389154
11
132.467342
21
-158.775258
0
LINE
8
Layer 1
10
132.467342
20
-158.775258
11
129.445542
21
-160.061576
0
LINE
8
Layer 1
10
129.445542
20
-160.061576
11
126.258346
21
-161.188873
0
LINE
8
Layer 1
10
126.258346
20
-161.188873
11
122.929435
21
-162.154472
0
LINE
8
Layer 1
10
122.929435
20
-162.154472
11
119.482491
21
-162.955697
0
LINE
8
Layer 1
10
119.482491
20
-162.955697
11
115.941196
21
-163.589872
0
LINE
8
Layer 1
10
115.941196
20
-163.589872
11
112.329230
21
-164.054323
0
LINE
8
Layer 1
10
112.329230
20
-164.054323
11
108.670276
21
-164.346372
0
LINE
8
Layer 1
10
108.670276
20
-164.346372
11
104.988014
21
-164.463344
0
LINE
8
Layer 1
10
104.988014
20
-164.463344
11
101.306127
21
-164.402564
0
LINE
8
Layer 1
10
101.306127
20
-164.402564
11
97.648297
21
-164.161355
0
LINE
8
Layer 1
10
97.648297
20
-164.161355
11
94.038204
21
-163.737042
0
LINE
8
Layer 1
10
94.038204
20
-163.737042
11
90.499530
21
-163.126948
0
LINE
8
Layer 1
10
90.499530
20
-163.126948
11
87.055956
21
-162.328399
0
LINE
8
Layer 1
10
87.055956
20
-162.328399
11
83.731165
21
-161.338718
0
LINE
8
Layer 1
10
83.731165
20
-161.338718
11
80.548838
21
-160.155229
0
LINE
8
Layer 1
10
80.548838
20
-160.155229
11
77.532656
21
-158.775258
0
LINE
8
Layer 1
10
77.532656
20
-158.775258
11
75.654863
21
-157.389154
0
LINE
8
Layer 1
10
75.654863
20
-157.389154
11
73.917416
21
-155.725808
0
LINE
8
Layer 1
10
73.917416
20
-155.725808
11
72.325544
21
-153.807279
0
LINE
8
Layer 1
10
72.325544
20
-153.807279
11
70.884478
21
-151.655628
0
LINE
8
Layer 1
10
70.884478
20
-151.655628
11
69.599447
21
-149.292915
0
LINE
8
Layer 1
10
69.599447
20
-149.292915
11
68.475680
21
-146.741201
0
LINE
8
Layer 1
10
68.475680
20
-146.741201
11
67.518407
21
-144.022546
0
LINE
8
Layer 1
10
67.518407
20
-144.022546
11
66.732856
21
-141.159010
0
LINE
8
Layer 1
10
66.732856
20
-141.159010
11
66.124258
21
-138.172654
0
LINE
8
Layer 1
10
66.124258
20
-138.172654
11
65.697841
21
-135.085538
0
LINE
8
Layer 1
10
65.697841
20
-135.085538
11
65.458835
21
-131.919723
0
LINE
8
Layer 1
10
65.458835
20
-131.919723
11
65.412470
21
-128.697268
0
LINE
8
Layer 1
10
65.412470
20
-128.697268
11
65.563975
21
-125.440235
0
LINE
8
Layer 1
10
65.563975
20
-125.440235
11
65.918579
21
-122.170683
0
LINE
8
Layer 1
10
65.918579
20
-122.170683
11
66.481512
21
-118.910674
0
LINE
8
Layer 1
10
66.481512
20
-118.910674
11
67.258003
21
-115.682267
0
LINE
8
Layer 1
10
67.258003
20
-115.682267
11
68.355288
21
-110.908524
0
LINE
8
Layer 1
10
68.355288
20
-110.908524
11
68.511113
21
-109.313782
0
LINE
8
Layer 1
10
68.511113
20
-109.313782
11
68.401184
21
-108.233819
0
LINE
8
Layer 1
10
68.401184
20
-108.233819
11
68.022595
21
-107.658656
0
LINE
8
Layer 1
10
68.022595
20
-107.658656
11
67.372440
21
-107.578313
0
LINE
8
Layer 1
10
67.372440
20
-107.578313
11
66.447814
21
-107.982811
0
LINE
8
Layer 1
10
66.447814
20
-107.982811
11
65.245810
21
-108.862169
0
LINE
8
Layer 1
10
65.245810
20
-108.862169
11
62.823049
21
-110.474092
0
LINE
8
Layer 1
10
62.823049
20
-110.474092
11
59.468505
21
-112.153710
0
LINE
8
Layer 1
10
59.468505
20
-112.153710
11
55.455516
21
-113.812110
0
LINE
8
Layer 1
10
55.455516
20
-113.812110
11
51.057420
21
-115.360378
0
LINE
8
Layer 1
10
51.057420
20
-115.360378
11
46.547553
21
-116.709600
0
LINE
8
Layer 1
10
46.547553
20
-116.709600
11
42.199253
21
-117.770862
0
LINE
8
Layer 1
10
42.199253
20
-117.770862
11
38.285858
21
-118.455250
0
LINE
8
Layer 1
10
38.285858
20
-118.455250
11
35.080705
21
-118.673850
0
LINE
8
Layer 1
10
35.080705
20
-118.673850
11
31.501957
21
-118.448147
0
LINE
8
Layer 1
10
31.501957
20
-118.448147
11
28.169738
21
-117.879557
0
LINE
8
Layer 1
10
28.169738
20
-117.879557
11
25.056430
21
-116.953630
0
LINE
8
Layer 1
10
25.056430
20
-116.953630
11
22.134415
21
-115.655918
0
LINE
8
Layer 1
10
22.134415
20
-115.655918
11
19.376074
21
-113.971971
0
LINE
8
Layer 1
10
19.376074
20
-113.971971
11
16.753791
21
-111.887340
0
LINE
8
Layer 1
10
16.753791
20
-111.887340
11
14.239946
21
-109.387575
0
LINE
8
Layer 1
10
14.239946
20
-109.387575
11
11.806922
21
-106.458228
0
LINE
8
Layer 1
10
11.806922
20
-106.458228
11
10.030846
21
-103.957145
0
LINE
8
Layer 1
10
10.030846
20
-103.957145
11
8.441923
21
-101.365658
0
LINE
8
Layer 1
10
8.441923
20
-101.365658
11
7.042115
21
-98.700255
0
LINE
8
Layer 1
10
7.042115
20
-98.700255
11
5.833381
21
-95.977423
0
LINE
8
Layer 1
10
5.833381
20
-95.977423
11
4.817679
21
-93.213650
0
LINE
8
Layer 1
10
4.817679
20
-93.213650
11
3.996970
21
-90.425423
0
LINE
8
Layer 1
10
3.996970
20
-90.425423
11
3.373214
21
-87.629228
0
LINE
8
Layer 1
10
3.373214
20
-87.629228
11
2.948370
21
-84.841555
0
LINE
8
Layer 1
10
2.948370
20
-84.841555
11
2.724397
21
-82.078890
0
LINE
8
Layer 1
10
2.724397
20
-82.078890
11
2.703256
21
-79.357720
0
LINE
8
Layer 1
10
2.703256
20
-79.357720
11
2.886906
21
-76.694533
0
LINE
8
Layer 1
10
2.886906
20
-76.694533
11
3.277306
21
-74.105816
0
LINE
8
Layer 1
10
3.277306
20
-74.105816
11
3.876416
21
-71.608057
0
LINE
8
Layer 1
10
3.876416
20
-71.608057
11
4.686196
21
-69.217743
0
LINE
8
Layer 1
10
4.686196
20
-69.217743
11
5.708606
21
-66.951361
0
LINE
8
Layer 1
10
5.708606
20
-66.951361
11
6.945605
21
-64.825399
0
LINE
8
Layer 1
10
6.945605
20
-64.825399
11
9.024510
21
-61.967528
0
LINE
8
Layer 1
10
9.024510
20
-61.967528
11
11.302697
21
-59.485910
0
LINE
8
Layer 1
10
11.302697
20
-59.485910
11
13.869099
21
-57.331353
0
LINE
8
Layer 1
10
13.869099
20
-57.331353
11
16.812647
21
-55.454669
0
LINE
8
Layer 1
10
16.812647
20
-55.454669
11
20.222272
21
-53.806666
0
LINE
8
Layer 1
10
20.222272
20
-53.806666
11
24.186907
21
-52.338156
0
LINE
8
Layer 1
10
24.186907
20
-52.338156
11
28.795484
21
-50.999947
0
LINE
8
Layer 1
10
28.795484
20
-50.999947
11
34.136934
21
-49.742851
0
LINE
8
Layer 1
10
34.136934
20
-49.742851
11
49.094836
21
-46.519788
0
LINE
8
Layer 1
10
49.094836
20
-46.519788
11
38.214743
21
-35.853369
0
LINE
8
Layer 1
10
38.214743
20
-35.853369
11
34.174908
21
-31.762058
0
LINE
8
Layer 1
10
34.174908
20
-31.762058
11
31.025319
21
-28.210340
0
LINE
8
Layer 1
10
31.025319
20
-28.210340
11
28.677928
21
-24.988538
0
LINE
8
Layer 1
10
28.677928
20
-24.988538
11
27.044688
21
-21.886974
0
LINE
8
Layer 1
10
27.044688
20
-21.886974
11
26.468359
21
-20.315758
0
LINE
8
Layer 1
10
26.468359
20
-20.315758
11
26.037550
21
-18.695973
0
LINE
8
Layer 1
10
26.037550
20
-18.695973
11
25.568468
21
-15.205859
0
LINE
8
Layer 1
10
25.568468
20
-15.205859
11
25.549394
21
-11.206956
0
LINE
8
Layer 1
10
25.549394
20
-11.206956
11
25.892280
21
-6.489586
0
LINE
8
Layer 1
10
25.892280
20
-6.489586
11
26.223096
21
-3.602214
0
LINE
8
Layer 1
10
26.223096
20
-3.602214
11
26.666070
21
-1.179946
0
LINE
8
Layer 1
10
26.666070
20
-1.179946
11
27.311516
21
0.934986
0
LINE
8
Layer 1
10
27.311516
20
0.934986
11
28.249746
21
2.900350
0
LINE
8
Layer 1
10
28.249746
20
2.900350
11
29.571073
21
4.873913
0
LINE
8
Layer 1
10
29.571073
20
4.873913
11
31.365809
21
7.013443
0
LINE
8
Layer 1
10
31.365809
20
7.013443
11
36.736759
21
12.421476
0
LINE
8
Layer 1
10
36.736759
20
12.421476
11
40.141908
21
15.499927
0
LINE
8
Layer 1
10
40.141908
20
15.499927
11
43.538029
21
18.182035
0
LINE
8
Layer 1
10
43.538029
20
18.182035
11
46.924930
21
20.467542
0
LINE
8
Layer 1
10
46.924930
20
20.467542
11
50.302419
21
22.356190
0
LINE
8
Layer 1
10
50.302419
20
22.356190
11
53.670303
21
23.847719
0
LINE
8
Layer 1
10
53.670303
20
23.847719
11
57.028390
21
24.941872
0
LINE
8
Layer 1
10
57.028390
20
24.941872
11
60.376488
21
25.638388
0
LINE
8
Layer 1
10
60.376488
20
25.638388
11
63.714404
21
25.937011
0
LINE
8
Layer 1
10
63.714404
20
25.937011
11
63.714404
21
25.937011
0
LINE
8
Layer 1
10
62.058350
20
-3.480194
11
60.425200
21
-3.619396
0
LINE
8
Layer 1
10
60.425200
20
-3.619396
11
58.867675
21
-4.185887
0
LINE
8
Layer 1
10
58.867675
20
-4.185887
11
57.365180
21
-5.174140
0
LINE
8
Layer 1
10
57.365180
20
-5.174140
11
55.897120
21
-6.578627
0
LINE
8
Layer 1
10
55.897120
20
-6.578627
11
54.983025
21
-7.656025
0
LINE
8
Layer 1
10
54.983025
20
-7.656025
11
54.357069
21
-8.637799
0
LINE
8
Layer 1
10
54.357069
20
-8.637799
11
54.033433
21
-9.640433
0
LINE
8
Layer 1
10
54.033433
20
-9.640433
11
54.026295
21
-10.780415
0
LINE
8
Layer 1
10
54.026295
20
-10.780415
11
54.349836
21
-12.174230
0
LINE
8
Layer 1
10
54.349836
20
-12.174230
11
55.018236
21
-13.938364
0
LINE
8
Layer 1
10
55.018236
20
-13.938364
11
57.446331
21
-19.043536
0
LINE
8
Layer 1
10
57.446331
20
-19.043536
11
59.509058
21
-22.691748
0
LINE
8
Layer 1
10
59.509058
20
-22.691748
11
62.235544
21
-26.724831
0
LINE
8
Layer 1
10
62.235544
20
-26.724831
11
65.564926
21
-31.073410
0
LINE
8
Layer 1
10
65.564926
20
-31.073410
11
69.436339
21
-35.668107
0
LINE
8
Layer 1
10
69.436339
20
-35.668107
11
73.788920
21
-40.439548
0
LINE
8
Layer 1
10
73.788920
20
-40.439548
11
78.561804
21
-45.318355
0
LINE
8
Layer 1
10
78.561804
20
-45.318355
11
83.694129
21
-50.235154
0
LINE
8
Layer 1
10
83.694129
20
-50.235154
11
89.125030
21
-55.120567
0
LINE
8
Layer 1
10
89.125030
20
-55.120567
11
92.152120
21
-57.858379
0
LINE
8
Layer 1
10
92.152120
20
-57.858379
11
94.531143
21
-60.201678
0
LINE
8
Layer 1
10
94.531143
20
-60.201678
11
96.023429
21
-61.900871
0
LINE
8
Layer 1
10
96.023429
20
-61.900871
11
96.362462
21
-62.430928
0
LINE
8
Layer 1
10
96.362462
20
-62.430928
11
96.390310
21
-62.706362
0
LINE
8
Layer 1
10
96.390310
20
-62.706362
11
94.548130
21
-63.104453
0
LINE
8
Layer 1
10
94.548130
20
-63.104453
11
90.025989
21
-63.695836
0
LINE
8
Layer 1
10
90.025989
20
-63.695836
11
75.662920
21
-65.145919
0
LINE
8
Layer 1
10
75.662920
20
-65.145919
11
65.174505
21
-66.306921
0
LINE
8
Layer 1
10
65.174505
20
-66.306921
11
56.086345
21
-67.799282
0
LINE
8
Layer 1
10
56.086345
20
-67.799282
11
52.067186
21
-68.669659
0
LINE
8
Layer 1
10
52.067186
20
-68.669659
11
48.397883
21
-69.622802
0
LINE
8
Layer 1
10
48.397883
20
-69.622802
11
45.078367
21
-70.658685
0
LINE
8
Layer 1
10
45.078367
20
-70.658685
11
42.108568
21
-71.777284
0
LINE
8
Layer 1
10
42.108568
20
-71.777284
11
39.488416
21
-72.978573
0
LINE
8
Layer 1
10
39.488416
20
-72.978573
11
37.217843
21
-74.262527
0
LINE
8
Layer 1
10
37.217843
20
-74.262527
11
35.296778
21
-75.629123
0
LINE
8
Layer 1
10
35.296778
20
-75.629123
11
33.725154
21
-77.078335
0
LINE
8
Layer 1
10
33.725154
20
-77.078335
11
32.502900
21
-78.610137
0
LINE
8
Layer 1
10
32.502900
20
-78.610137
11
31.629947
21
-80.224507
0
LINE
8
Layer 1
10
31.629947
20
-80.224507
11
31.106227
21
-81.921417
0
LINE
8
Layer 1
10
31.106227
20
-81.921417
11
30.931668
21
-83.700844
0
LINE
8
Layer 1
10
30.931668
20
-83.700844
11
31.141784
21
-86.390300
0
LINE
8
Layer 1
10
31.141784
20
-86.390300
11
31.433310
21
-87.403004
0
LINE
8
Layer 1
10
31.433310
20
-87.403004
11
31.874824
21
-88.231277
0
LINE
8
Layer 1
10
31.874824
20
-88.231277
11
32.485582
21
-88.902806
0
LINE
8
Layer 1
10
32.485582
20
-88.902806
11
33.284840
21
-89.445281
0
LINE
8
Layer 1
10
33.284840
20
-89.445281
11
34.291854
21
-89.886389
0
LINE
8
Layer 1
10
34.291854
20
-89.886389
11
35.525882
21
-90.253819
0
LINE
8
Layer 1
10
35.525882
20
-90.253819
11
37.621049
21
-90.630555
0
LINE
8
Layer 1
10
37.621049
20
-90.630555
11
39.963009
21
-90.777765
0
LINE
8
Layer 1
10
39.963009
20
-90.777765
11
42.534635
21
-90.701307
0
LINE
8
Layer 1
10
42.534635
20
-90.701307
11
45.318796
21
-90.407041
0
LINE
8
Layer 1
10
45.318796
20
-90.407041
11
48.298365
21
-89.900824
0
LINE
8
Layer 1
10
48.298365
20
-89.900824
11
51.456212
21
-89.188517
0
LINE
8
Layer 1
10
51.456212
20
-89.188517
11
58.238224
21
-87.169066
0
LINE
8
Layer 1
10
58.238224
20
-87.169066
11
65.527802
21
-84.395561
0
LINE
8
Layer 1
10
65.527802
20
-84.395561
11
73.187913
21
-80.914874
0
LINE
8
Layer 1
10
73.187913
20
-80.914874
11
81.081527
21
-76.773876
0
LINE
8
Layer 1
10
81.081527
20
-76.773876
11
89.071611
21
-72.019441
0
LINE
8
Layer 1
10
89.071611
20
-72.019441
11
94.715568
21
-68.635674
0
LINE
8
Layer 1
10
94.715568
20
-68.635674
11
96.650320
21
-67.607024
0
LINE
8
Layer 1
10
96.650320
20
-67.607024
11
97.618993
21
-67.229340
0
LINE
8
Layer 1
10
97.618993
20
-67.229340
11
97.933598
21
-67.348706
0
LINE
8
Layer 1
10
97.933598
20
-67.348706
11
98.184339
21
-67.695155
0
LINE
8
Layer 1
10
98.184339
20
-67.695155
11
98.500546
21
-68.999405
0
LINE
8
Layer 1
10
98.500546
20
-68.999405
11
98.580258
21
-71.002292
0
LINE
8
Layer 1
10
98.580258
20
-71.002292
11
98.436118
21
-73.564018
0
LINE
8
Layer 1
10
98.436118
20
-73.564018
11
98.080769
21
-76.544788
0
LINE
8
Layer 1
10
98.080769
20
-76.544788
11
97.526855
21
-79.804804
0
LINE
8
Layer 1
10
97.526855
20
-79.804804
11
96.787017
21
-83.204269
0
LINE
8
Layer 1
10
96.787017
20
-83.204269
11
95.873900
21
-86.603387
0
LINE
8
Layer 1
10
95.873900
20
-86.603387
11
94.491221
21
-91.578747
0
LINE
8
Layer 1
10
94.491221
20
-91.578747
11
93.329442
21
-96.426822
0
LINE
8
Layer 1
10
93.329442
20
-96.426822
11
92.385932
21
-101.123128
0
LINE
8
Layer 1
10
92.385932
20
-101.123128
11
91.658063
21
-105.643182
0
LINE
8
Layer 1
10
91.658063
20
-105.643182
11
91.143205
21
-109.962499
0
LINE
8
Layer 1
10
91.143205
20
-109.962499
11
90.838728
21
-114.056596
0
LINE
8
Layer 1
10
90.838728
20
-114.056596
11
90.742001
21
-117.900988
0
LINE
8
Layer 1
10
90.742001
20
-117.900988
11
90.850396
21
-121.471191
0
LINE
8
Layer 1
10
90.850396
20
-121.471191
11
91.161283
21
-124.742722
0
LINE
8
Layer 1
10
91.161283
20
-124.742722
11
91.672031
21
-127.691097
0
LINE
8
Layer 1
10
91.672031
20
-127.691097
11
92.380011
21
-130.291830
0
LINE
8
Layer 1
10
92.380011
20
-130.291830
11
93.282593
21
-132.520440
0
LINE
8
Layer 1
10
93.282593
20
-132.520440
11
94.377148
21
-134.352440
0
LINE
8
Layer 1
10
94.377148
20
-134.352440
11
95.661045
21
-135.763348
0
LINE
8
Layer 1
10
95.661045
20
-135.763348
11
97.131655
21
-136.728679
0
LINE
8
Layer 1
10
97.131655
20
-136.728679
11
98.786349
21
-137.223950
0
LINE
8
Layer 1
10
98.786349
20
-137.223950
11
101.938722
21
-137.682173
0
LINE
8
Layer 1
10
101.938722
20
-137.682173
11
105.053989
21
-137.850265
0
LINE
8
Layer 1
10
105.053989
20
-137.850265
11
108.122024
21
-137.707979
0
LINE
8
Layer 1
10
108.122024
20
-137.707979
11
111.132696
21
-137.235070
0
LINE
8
Layer 1
10
111.132696
20
-137.235070
11
112.800383
21
-136.760069
0
LINE
8
Layer 1
10
112.800383
20
-136.760069
11
114.283035
21
-135.811219
0
LINE
8
Layer 1
10
114.283035
20
-135.811219
11
115.578000
21
-134.413216
0
LINE
8
Layer 1
10
115.578000
20
-134.413216
11
116.682624
21
-132.590758
0
LINE
8
Layer 1
10
116.682624
20
-132.590758
11
117.594256
21
-130.368541
0
LINE
8
Layer 1
10
117.594256
20
-130.368541
11
118.310243
21
-127.771261
0
LINE
8
Layer 1
10
118.310243
20
-127.771261
11
118.827932
21
-124.823617
0
LINE
8
Layer 1
10
118.827932
20
-124.823617
11
119.144671
21
-121.550305
0
LINE
8
Layer 1
10
119.144671
20
-121.550305
11
119.257808
21
-117.976022
0
LINE
8
Layer 1
10
119.257808
20
-117.976022
11
119.164690
21
-114.125464
0
LINE
8
Layer 1
10
119.164690
20
-114.125464
11
118.862664
21
-110.023329
0
LINE
8
Layer 1
10
118.862664
20
-110.023329
11
118.349078
21
-105.694314
0
LINE
8
Layer 1
10
118.349078
20
-105.694314
11
117.621280
21
-101.163115
0
LINE
8
Layer 1
10
117.621280
20
-101.163115
11
116.676617
21
-96.454430
0
LINE
8
Layer 1
10
116.676617
20
-96.454430
11
115.512437
21
-91.592955
0
LINE
8
Layer 1
10
115.512437
20
-91.592955
11
114.126086
21
-86.603387
0
LINE
8
Layer 1
10
114.126086
20
-86.603387
11
113.212977
21
-83.204269
0
LINE
8
Layer 1
10
113.212977
20
-83.204269
11
112.473144
21
-79.804804
0
LINE
8
Layer 1
10
112.473144
20
-79.804804
11
111.919231
21
-76.544788
0
LINE
8
Layer 1
10
111.919231
20
-76.544788
11
111.563882
21
-73.564018
0
LINE
8
Layer 1
10
111.563882
20
-73.564018
11
111.419743
21
-71.002292
0
LINE
8
Layer 1
10
111.419743
20
-71.002292
11
111.499456
21
-68.999405
0
LINE
8
Layer 1
10
111.499456
20
-68.999405
11
111.815668
21
-67.695155
0
LINE
8
Layer 1
10
111.815668
20
-67.695155
11
112.066412
21
-67.348706
0
LINE
8
Layer 1
10
112.066412
20
-67.348706
11
112.381022
21
-67.229340
0
LINE
8
Layer 1
10
112.381022
20
-67.229340
11
113.349694
21
-67.607024
0
LINE
8
Layer 1
10
113.349694
20
-67.607024
11
115.284443
21
-68.635674
0
LINE
8
Layer 1
10
115.284443
20
-68.635674
11
120.928376
21
-72.019441
0
LINE
8
Layer 1
10
120.928376
20
-72.019441
11
128.918458
21
-76.773876
0
LINE
8
Layer 1
10
128.918458
20
-76.773876
11
136.812071
21
-80.914874
0
LINE
8
Layer 1
10
136.812071
20
-80.914874
11
144.472184
21
-84.395561
0
LINE
8
Layer 1
10
144.472184
20
-84.395561
11
151.761764
21
-87.169066
0
LINE
8
Layer 1
10
151.761764
20
-87.169066
11
158.543779
21
-89.188517
0
LINE
8
Layer 1
10
158.543779
20
-89.188517
11
161.701627
21
-89.900824
0
LINE
8
Layer 1
10
161.701627
20
-89.900824
11
164.681197
21
-90.407041
0
LINE
8
Layer 1
10
164.681197
20
-90.407041
11
167.465360
21
-90.701307
0
LINE
8
Layer 1
10
167.465360
20
-90.701307
11
170.036987
21
-90.777765
0
LINE
8
Layer 1
10
170.036987
20
-90.777765
11
172.378948
21
-90.630555
0
LINE
8
Layer 1
10
172.378948
20
-90.630555
11
174.474116
21
-90.253819
0
LINE
8
Layer 1
10
174.474116
20
-90.253819
11
175.708139
21
-89.886389
0
LINE
8
Layer 1
10
175.708139
20
-89.886389
11
176.715151
21
-89.445281
0
LINE
8
Layer 1
10
176.715151
20
-89.445281
11
177.514409
21
-88.902806
0
LINE
8
Layer 1
10
177.514409
20
-88.902806
11
178.125168
21
-88.231277
0
LINE
8
Layer 1
10
178.125168
20
-88.231277
11
178.566683
21
-87.403004
0
LINE
8
Layer 1
10
178.566683
20
-87.403004
11
178.858211
21
-86.390300
0
LINE
8
Layer 1
10
178.858211
20
-86.390300
11
179.068326
21
-83.700844
0
LINE
8
Layer 1
10
179.068326
20
-83.700844
11
178.893768
21
-81.921417
0
LINE
8
Layer 1
10
178.893768
20
-81.921417
11
178.370048
21
-80.224507
0
LINE
8
Layer 1
10
178.370048
20
-80.224507
11
177.497095
21
-78.610137
0
LINE
8
Layer 1
10
177.497095
20
-78.610137
11
176.274841
21
-77.078335
0
LINE
8
Layer 1
10
176.274841
20
-77.078335
11
174.703217
21
-75.629123
0
LINE
8
Layer 1
10
174.703217
20
-75.629123
11
172.782152
21
-74.262527
0
LINE
8
Layer 1
10
172.782152
20
-74.262527
11
170.511579
21
-72.978573
0
LINE
8
Layer 1
10
170.511579
20
-72.978573
11
167.891427
21
-71.777284
0
LINE
8
Layer 1
10
167.891427
20
-71.777284
11
164.921627
21
-70.658685
0
LINE
8
Layer 1
10
164.921627
20
-70.658685
11
161.602110
21
-69.622802
0
LINE
8
Layer 1
10
161.602110
20
-69.622802
11
157.932806
21
-68.669659
0
LINE
8
Layer 1
10
157.932806
20
-68.669659
11
153.913647
21
-67.799282
0
LINE
8
Layer 1
10
153.913647
20
-67.799282
11
144.825483
21
-66.306921
0
LINE
8
Layer 1
10
144.825483
20
-66.306921
11
134.337064
21
-65.145919
0
LINE
8
Layer 1
10
134.337064
20
-65.145919
11
119.973995
21
-63.695836
0
LINE
8
Layer 1
10
119.973995
20
-63.695836
11
115.451858
21
-63.104453
0
LINE
8
Layer 1
10
115.451858
20
-63.104453
11
113.609704
21
-62.706362
0
LINE
8
Layer 1
10
113.609704
20
-62.706362
11
113.637535
21
-62.430928
0
LINE
8
Layer 1
10
113.637535
20
-62.430928
11
113.976557
21
-61.900871
0
LINE
8
Layer 1
10
113.976557
20
-61.900871
11
115.468836
21
-60.201678
0
LINE
8
Layer 1
10
115.468836
20
-60.201678
11
117.847861
21
-57.858379
0
LINE
8
Layer 1
10
117.847861
20
-57.858379
11
120.874951
21
-55.120567
0
LINE
8
Layer 1
10
120.874951
20
-55.120567
11
126.305852
21
-50.235154
0
LINE
8
Layer 1
10
126.305852
20
-50.235154
11
131.438177
21
-45.318355
0
LINE
8
Layer 1
10
131.438177
20
-45.318355
11
136.211063
21
-40.439548
0
LINE
8
Layer 1
10
136.211063
20
-40.439548
11
140.563644
21
-35.668107
0
LINE
8
Layer 1
10
140.563644
20
-35.668107
11
144.435059
21
-31.073410
0
LINE
8
Layer 1
10
144.435059
20
-31.073410
11
147.764443
21
-26.724831
0
LINE
8
Layer 1
10
147.764443
20
-26.724831
11
150.490931
21
-22.691748
0
LINE
8
Layer 1
10
150.490931
20
-22.691748
11
152.553662
21
-19.043536
0
LINE
8
Layer 1
10
152.553662
20
-19.043536
11
154.981752
21
-13.938364
0
LINE
8
Layer 1
10
154.981752
20
-13.938364
11
155.650152
21
-12.174230
0
LINE
8
Layer 1
10
155.650152
20
-12.174230
11
155.973694
21
-10.780415
0
LINE
8
Layer 1
10
155.973694
20
-10.780415
11
155.966557
21
-9.640433
0
LINE
8
Layer 1
10
155.966557
20
-9.640433
11
155.642921
21
-8.637799
0
LINE
8
Layer 1
10
155.642921
20
-8.637799
11
155.016963
21
-7.656025
0
LINE
8
Layer 1
10
155.016963
20
-7.656025
11
154.102864
21
-6.578627
0
LINE
8
Layer 1
10
154.102864
20
-6.578627
11
152.634804
21
-5.174140
0
LINE
8
Layer 1
10
152.634804
20
-5.174140
11
151.132309
21
-4.185887
0
LINE
8
Layer 1
10
151.132309
20
-4.185887
11
149.574786
21
-3.619396
0
LINE
8
Layer 1
10
149.574786
20
-3.619396
11
147.941642
21
-3.480194
0
LINE
8
Layer 1
10
147.941642
20
-3.480194
11
146.688634
21
-3.652128
0
LINE
8
Layer 1
10
146.688634
20
-3.652128
11
145.376507
21
-4.057774
0
LINE
8
Layer 1
10
145.376507
20
-4.057774
11
143.997275
21
-4.699124
0
LINE
8
Layer 1
10
143.997275
20
-4.699124
11
142.542954
21
-5.578170
0
LINE
8
Layer 1
10
142.542954
20
-5.578170
11
139.377100
21
-8.057321
0
LINE
8
Layer 1
10
139.377100
20
-8.057321
11
135.815062
21
-11.511166
0
LINE
8
Layer 1
10
135.815062
20
-11.511166
11
133.173013
21
-14.696431
0
LINE
8
Layer 1
10
133.173013
20
-14.696431
11
130.102990
21
-19.085216
0
LINE
8
Layer 1
10
130.102990
20
-19.085216
11
126.792668
21
-24.333300
0
LINE
8
Layer 1
10
126.792668
20
-24.333300
11
123.429722
21
-30.096459
0
LINE
8
Layer 1
10
123.429722
20
-30.096459
11
120.201828
21
-36.030469
0
LINE
8
Layer 1
10
120.201828
20
-36.030469
11
117.296664
21
-41.791109
0
LINE
8
Layer 1
10
117.296664
20
-41.791109
11
114.901903
21
-47.034155
0
LINE
8
Layer 1
10
114.901903
20
-47.034155
11
113.205223
21
-51.415384
0
LINE
8
Layer 1
10
113.205223
20
-51.415384
11
112.682903
21
-53.001769
0
LINE
8
Layer 1
10
112.682903
20
-53.001769
11
111.974153
21
-54.369777
0
LINE
8
Layer 1
10
111.974153
20
-54.369777
11
111.104384
21
-55.520414
0
LINE
8
Layer 1
10
111.104384
20
-55.520414
11
110.099009
21
-56.454690
0
LINE
8
Layer 1
10
110.099009
20
-56.454690
11
108.983439
21
-57.173614
0
LINE
8
Layer 1
10
108.983439
20
-57.173614
11
107.783086
21
-57.678194
0
LINE
8
Layer 1
10
107.783086
20
-57.678194
11
106.523363
21
-57.969438
0
LINE
8
Layer 1
10
106.523363
20
-57.969438
11
105.229680
21
-58.048354
0
LINE
8
Layer 1
10
105.229680
20
-58.048354
11
103.927450
21
-57.915952
0
LINE
8
Layer 1
10
103.927450
20
-57.915952
11
102.642084
21
-57.573240
0
LINE
8
Layer 1
10
102.642084
20
-57.573240
11
101.398994
21
-57.021226
0
LINE
8
Layer 1
10
101.398994
20
-57.021226
11
100.223593
21
-56.260918
0
LINE
8
Layer 1
10
100.223593
20
-56.260918
11
99.141291
21
-55.293326
0
LINE
8
Layer 1
10
99.141291
20
-55.293326
11
98.177502
21
-54.119458
0
LINE
8
Layer 1
10
98.177502
20
-54.119458
11
97.357636
21
-52.740321
0
LINE
8
Layer 1
10
97.357636
20
-52.740321
11
96.707105
21
-51.156925
0
LINE
8
Layer 1
10
96.707105
20
-51.156925
11
94.975701
21
-46.748542
0
LINE
8
Layer 1
10
94.975701
20
-46.748542
11
92.568579
21
-41.512408
0
LINE
8
Layer 1
10
92.568579
20
-41.512408
11
89.668759
21
-35.784206
0
LINE
8
Layer 1
10
89.668759
20
-35.784206
11
86.459262
21
-29.899623
0
LINE
8
Layer 1
10
86.459262
20
-29.899623
11
83.123111
21
-24.194342
0
LINE
8
Layer 1
10
83.123111
20
-24.194342
11
79.843325
21
-19.004049
0
LINE
8
Layer 1
10
79.843325
20
-19.004049
11
76.802926
21
-14.664429
0
LINE
8
Layer 1
10
76.802926
20
-14.664429
11
74.184936
21
-11.511166
0
LINE
8
Layer 1
10
74.184936
20
-11.511166
11
70.622897
21
-8.057321
0
LINE
8
Layer 1
10
70.622897
20
-8.057321
11
67.457038
21
-5.578170
0
LINE
8
Layer 1
10
67.457038
20
-5.578170
11
66.002715
21
-4.699124
0
LINE
8
Layer 1
10
66.002715
20
-4.699124
11
64.623482
21
-4.057774
0
LINE
8
Layer 1
10
64.623482
20
-4.057774
11
63.311355
21
-3.652128
0
LINE
8
Layer 1
10
63.311355
20
-3.652128
11
62.058350
21
-3.480194
0
LINE
8
Layer 1
10
62.058350
20
-3.480194
11
62.058350
21
-3.480194
0
LINE
8
Layer 1
10
-20.299147
20
-54.711006
11
-19.831578
21
-54.803780
0
LINE
8
Layer 1
10
-19.831578
20
-54.803780
11
-19.526403
21
-55.047253
0
LINE
8
Layer 1
10
-19.526403
20
-55.047253
11
-19.372400
21
-55.462207
0
LINE
8
Layer 1
10
-19.372400
20
-55.462207
11
-19.358348
21
-56.069426
0
LINE
8
Layer 1
10
-19.358348
20
-56.069426
11
-19.705210
21
-57.943791
0
LINE
8
Layer 1
10
-19.705210
20
-57.943791
11
-20.477218
21
-60.836611
0
LINE
8
Layer 1
10
-20.477218
20
-60.836611
11
-21.105243
21
-64.015147
0
LINE
8
Layer 1
10
-21.105243
20
-64.015147
11
-21.439332
21
-67.688946
0
LINE
8
Layer 1
10
-21.439332
20
-67.688946
11
-21.457079
21
-71.404495
0
LINE
8
Layer 1
10
-21.457079
20
-71.404495
11
-21.136077
21
-74.708285
0
LINE
8
Layer 1
10
-21.136077
20
-74.708285
11
-20.743029
21
-77.793395
0
LINE
8
Layer 1
10
-20.743029
20
-77.793395
11
-20.744768
21
-80.029162
0
LINE
8
Layer 1
10
-20.744768
20
-80.029162
11
-20.892665
21
-80.820434
0
LINE
8
Layer 1
10
-20.892665
20
-80.820434
11
-21.138038
21
-81.389644
0
LINE
8
Layer 1
10
-21.138038
20
-81.389644
11
-21.480480
21
-81.733547
0
LINE
8
Layer 1
10
-21.480480
20
-81.733547
11
-21.919585
21
-81.848902
0
LINE
8
Layer 1
10
-21.919585
20
-81.848902
11
-22.319296
21
-81.770029
0
LINE
8
Layer 1
10
-22.319296
20
-81.770029
11
-22.692618
21
-81.543979
0
LINE
8
Layer 1
10
-22.692618
20
-81.543979
11
-23.326921
21
-80.713766
0
LINE
8
Layer 1
10
-23.326921
20
-80.713766
11
-23.756153
21
-79.485095
0
LINE
8
Layer 1
10
-23.756153
20
-79.485095
11
-23.913973
21
-77.984800
0
LINE
8
Layer 1
10
-23.913973
20
-77.984800
11
-24.227624
21
-75.925160
0
LINE
8
Layer 1
10
-24.227624
20
-75.925160
11
-25.082777
21
-73.172202
0
LINE
8
Layer 1
10
-25.082777
20
-73.172202
11
-26.350722
21
-70.083261
0
LINE
8
Layer 1
10
-26.350722
20
-70.083261
11
-27.902747
21
-67.015669
0
LINE
8
Layer 1
10
-27.902747
20
-67.015669
11
-29.293584
21
-64.369034
0
LINE
8
Layer 1
10
-29.293584
20
-64.369034
11
-30.182877
21
-62.195658
0
LINE
8
Layer 1
10
-30.182877
20
-62.195658
11
-30.545119
21
-60.428089
0
LINE
8
Layer 1
10
-30.545119
20
-60.428089
11
-30.520624
21
-59.675402
0
LINE
8
Layer 1
10
-30.520624
20
-59.675402
11
-30.354802
21
-58.998872
0
LINE
8
Layer 1
10
-30.354802
20
-58.998872
11
-30.044464
21
-58.390066
0
LINE
8
Layer 1
10
-30.044464
20
-58.390066
11
-29.586422
21
-57.840554
0
LINE
8
Layer 1
10
-29.586422
20
-57.840554
11
-28.214471
21
-56.885681
0
LINE
8
Layer 1
10
-28.214471
20
-56.885681
11
-26.213443
21
-56.066800
0
LINE
8
Layer 1
10
-26.213443
20
-56.066800
11
-23.557831
21
-55.316457
0
LINE
8
Layer 1
10
-23.557831
20
-55.316457
11
-21.605080
21
-54.860813
0
LINE
8
Layer 1
10
-21.605080
20
-54.860813
11
-20.299147
21
-54.711006
0
LINE
8
Layer 1
10
-20.299147
20
-54.711006
11
-20.299147
21
-54.711006
0
LINE
8
Layer 1
10
230.299139
20
-54.711006
11
231.605073
21
-54.860813
0
LINE
8
Layer 1
10
231.605073
20
-54.860813
11
233.557818
21
-55.316457
0
LINE
8
Layer 1
10
233.557818
20
-55.316457
11
236.213433
21
-56.066800
0
LINE
8
Layer 1
10
236.213433
20
-56.066800
11
238.214463
21
-56.885681
0
LINE
8
Layer 1
10
238.214463
20
-56.885681
11
239.586414
21
-57.840554
0
LINE
8
Layer 1
10
239.586414
20
-57.840554
11
240.044456
21
-58.390066
0
LINE
8
Layer 1
10
240.044456
20
-58.390066
11
240.354794
21
-58.998872
0
LINE
8
Layer 1
10
240.354794
20
-58.998872
11
240.520616
21
-59.675402
0
LINE
8
Layer 1
10
240.520616
20
-59.675402
11
240.545109
21
-60.428089
0
LINE
8
Layer 1
10
240.545109
20
-60.428089
11
240.182868
21
-62.195658
0
LINE
8
Layer 1
10
240.182868
20
-62.195658
11
239.293576
21
-64.369034
0
LINE
8
Layer 1
10
239.293576
20
-64.369034
11
237.902742
21
-67.015669
0
LINE
8
Layer 1
10
237.902742
20
-67.015669
11
236.350711
21
-70.083261
0
LINE
8
Layer 1
10
236.350711
20
-70.083261
11
235.082763
21
-73.172202
0
LINE
8
Layer 1
10
235.082763
20
-73.172202
11
234.227608
21
-75.925160
0
LINE
8
Layer 1
10
234.227608
20
-75.925160
11
233.913954
21
-77.984800
0
LINE
8
Layer 1
10
233.913954
20
-77.984800
11
233.756137
21
-79.485095
0
LINE
8
Layer 1
10
233.756137
20
-79.485095
11
233.326910
21
-80.713766
0
LINE
8
Layer 1
10
233.326910
20
-80.713766
11
232.692611
21
-81.543979
0
LINE
8
Layer 1
10
232.692611
20
-81.543979
11
232.319288
21
-81.770029
0
LINE
8
Layer 1
10
232.319288
20
-81.770029
11
231.919574
21
-81.848902
0
LINE
8
Layer 1
10
231.919574
20
-81.848902
11
231.480470
21
-81.733547
0
LINE
8
Layer 1
10
231.480470
20
-81.733547
11
231.138029
21
-81.389644
0
LINE
8
Layer 1
10
231.138029
20
-81.389644
11
230.892657
21
-80.820434
0
LINE
8
Layer 1
10
230.892657
20
-80.820434
11
230.744760
21
-80.029162
0
LINE
8
Layer 1
10
230.744760
20
-80.029162
11
230.743022
21
-77.793395
0
LINE
8
Layer 1
10
230.743022
20
-77.793395
11
231.136069
21
-74.708285
0
LINE
8
Layer 1
10
231.136069
20
-74.708285
11
231.457066
21
-71.404495
0
LINE
8
Layer 1
10
231.457066
20
-71.404495
11
231.439316
21
-67.688946
0
LINE
8
Layer 1
10
231.439316
20
-67.688946
11
231.105231
21
-64.015147
0
LINE
8
Layer 1
10
231.105231
20
-64.015147
11
230.477221
21
-60.836611
0
LINE
8
Layer 1
10
230.477221
20
-60.836611
11
229.705211
21
-57.943791
0
LINE
8
Layer 1
10
229.705211
20
-57.943791
11
229.358347
21
-56.069426
0
LINE
8
Layer 1
10
229.358347
20
-56.069426
11
229.372398
21
-55.462207
0
LINE
8
Layer 1
10
229.372398
20
-55.462207
11
229.526400
21
-55.047253
0
LINE
8
Layer 1
10
229.526400
20
-55.047253
11
229.831573
21
-54.803780
0
LINE
8
Layer 1
10
229.831573
20
-54.803780
11
230.299139
21
-54.711006
0
LINE
8
Layer 1
10
230.299139
20
-54.711006
11
230.299139
21
-54.711006
 0 
ENDSEC
 0 
EOF
