999
"DXF R12 Output" (www.mydxf.blogspot.com)
 0 
SECTION
 2 
HEADER
 9 
$ACADVER
 1 
AC1009
 9 
$EXTMIN
 10 
 0 
 20 
 0 
 9 
$EXTMAX
 10 
 8.5 
 20 
 11 
 0 
ENDSEC
 0 
SECTION
 2 
ENTITIES
0
LINE
8
Layer 1
10
9.816042
20
64.243263
11
9.570789
21
63.815785
0
LINE
8
Layer 1
10
9.570789
20
63.815785
11
9.154583
21
62.523471
0
LINE
8
Layer 1
10
9.154583
20
62.523471
11
8.718236
21
60.434833
0
LINE
8
Layer 1
10
8.718236
20
60.434833
11
8.601091
21
58.271522
0
LINE
8
Layer 1
10
8.601091
20
58.271522
11
8.798175
21
56.340209
0
LINE
8
Layer 1
10
8.798175
20
56.340209
11
9.304514
21
54.947568
0
LINE
8
Layer 1
10
9.304514
20
54.947568
11
10.980208
21
52.372290
0
LINE
8
Layer 1
10
10.980208
20
52.372290
11
12.294306
21
50.634860
0
LINE
8
Layer 1
10
12.294306
20
50.634860
11
12.585722
21
51.241802
0
LINE
8
Layer 1
10
12.585722
20
51.241802
11
12.853170
21
52.735485
0
LINE
8
Layer 1
10
12.853170
20
52.735485
11
13.024189
21
54.565713
0
LINE
8
Layer 1
10
13.024189
20
54.565713
11
13.026319
21
56.182290
0
LINE
8
Layer 1
10
13.026319
20
56.182290
11
12.643654
21
58.179628
0
LINE
8
Layer 1
10
12.643654
20
58.179628
11
11.624028
21
60.600832
0
LINE
8
Layer 1
10
11.624028
20
60.600832
11
10.071806
21
63.881665
0
LINE
8
Layer 1
10
10.071806
20
63.881665
11
9.816042
21
64.243263
0
LINE
8
Layer 1
10
9.816042
20
64.243263
11
9.816042
21
64.243263
0
LINE
8
Layer 1
10
66.331042
20
64.243263
11
66.119375
21
63.881665
0
LINE
8
Layer 1
10
66.119375
20
63.881665
11
64.567153
21
60.600832
0
LINE
8
Layer 1
10
64.567153
20
60.600832
11
63.547527
21
58.179628
0
LINE
8
Layer 1
10
63.547527
20
58.179628
11
63.164861
21
56.182290
0
LINE
8
Layer 1
10
63.164861
20
56.182290
11
63.166992
21
54.565713
0
LINE
8
Layer 1
10
63.166992
20
54.565713
11
63.338011
21
52.735485
0
LINE
8
Layer 1
10
63.338011
20
52.735485
11
63.605459
21
51.241802
0
LINE
8
Layer 1
10
63.605459
20
51.241802
11
63.896875
21
50.634860
0
LINE
8
Layer 1
10
63.896875
20
50.634860
11
65.210972
21
52.372290
0
LINE
8
Layer 1
10
65.210972
20
52.372290
11
66.886667
21
54.947568
0
LINE
8
Layer 1
10
66.886667
20
54.947568
11
67.394383
21
56.340209
0
LINE
8
Layer 1
10
67.394383
20
56.340209
11
67.594499
21
58.271522
0
LINE
8
Layer 1
10
67.594499
20
58.271522
11
67.480386
21
60.434833
0
LINE
8
Layer 1
10
67.480386
20
60.434833
11
67.045417
21
62.523471
0
LINE
8
Layer 1
10
67.045417
20
62.523471
11
66.592670
21
63.894997
0
LINE
8
Layer 1
10
66.592670
20
63.894997
11
66.331042
21
64.243263
0
LINE
8
Layer 1
10
66.331042
20
64.243263
11
66.331042
21
64.243263
0
LINE
8
Layer 1
10
15.707431
20
56.508610
11
15.471194
21
56.356221
0
LINE
8
Layer 1
10
15.471194
20
56.356221
11
15.233856
21
55.871499
0
LINE
8
Layer 1
10
15.233856
20
55.871499
11
14.649097
21
53.880415
0
LINE
8
Layer 1
10
14.649097
20
53.880415
11
14.138887
21
51.544884
0
LINE
8
Layer 1
10
14.138887
20
51.544884
11
14.010125
21
49.593854
0
LINE
8
Layer 1
10
14.010125
20
49.593854
11
14.273610
21
47.717945
0
LINE
8
Layer 1
10
14.273610
20
47.717945
11
14.940139
21
45.607777
0
LINE
8
Layer 1
10
14.940139
20
45.607777
11
15.883819
21
43.570485
0
LINE
8
Layer 1
10
15.883819
20
43.570485
11
16.906875
21
46.181041
0
LINE
8
Layer 1
10
16.906875
20
46.181041
11
17.543885
21
48.612321
0
LINE
8
Layer 1
10
17.543885
20
48.612321
11
17.758327
21
50.729294
0
LINE
8
Layer 1
10
17.758327
20
50.729294
11
17.551452
21
52.651325
0
LINE
8
Layer 1
10
17.551452
20
52.651325
11
16.924514
21
54.497777
0
LINE
8
Layer 1
10
16.924514
20
54.497777
11
16.202224
21
55.987787
0
LINE
8
Layer 1
10
16.202224
20
55.987787
11
15.707431
21
56.508610
0
LINE
8
Layer 1
10
15.707431
20
56.508610
11
15.707431
21
56.508610
0
LINE
8
Layer 1
10
60.483750
20
56.508610
11
59.988957
21
55.987787
0
LINE
8
Layer 1
10
59.988957
20
55.987787
11
59.266667
21
54.497777
0
LINE
8
Layer 1
10
59.266667
20
54.497777
11
58.639728
21
52.651325
0
LINE
8
Layer 1
10
58.639728
20
52.651325
11
58.432854
21
50.729294
0
LINE
8
Layer 1
10
58.432854
20
50.729294
11
58.647296
21
48.612321
0
LINE
8
Layer 1
10
58.647296
20
48.612321
11
59.284306
21
46.181041
0
LINE
8
Layer 1
10
59.284306
20
46.181041
11
60.307361
21
43.570485
0
LINE
8
Layer 1
10
60.307361
20
43.570485
11
61.251042
21
45.607777
0
LINE
8
Layer 1
10
61.251042
20
45.607777
11
61.917570
21
47.717945
0
LINE
8
Layer 1
10
61.917570
20
47.717945
11
62.181055
21
49.593854
0
LINE
8
Layer 1
10
62.181055
20
49.593854
11
62.052294
21
51.544884
0
LINE
8
Layer 1
10
62.052294
20
51.544884
11
61.542083
21
53.880415
0
LINE
8
Layer 1
10
61.542083
20
53.880415
11
60.957323
21
55.871499
0
LINE
8
Layer 1
10
60.957323
20
55.871499
11
60.719987
21
56.356221
0
LINE
8
Layer 1
10
60.719987
20
56.356221
11
60.483750
21
56.508610
0
LINE
8
Layer 1
10
60.483750
20
56.508610
11
60.483750
21
56.508610
0
LINE
8
Layer 1
10
6.244167
20
53.016110
11
6.438194
21
51.102290
0
LINE
8
Layer 1
10
6.438194
20
51.102290
11
6.975403
21
48.335639
0
LINE
8
Layer 1
10
6.975403
20
48.335639
11
7.433609
21
47.174520
0
LINE
8
Layer 1
10
7.433609
20
47.174520
11
8.037732
21
46.133515
0
LINE
8
Layer 1
10
8.037732
20
46.133515
11
8.802408
21
45.191606
0
LINE
8
Layer 1
10
8.802408
20
45.191606
11
9.742272
21
44.327776
0
LINE
8
Layer 1
10
9.742272
20
44.327776
11
12.206111
21
42.750277
0
LINE
8
Layer 1
10
12.206111
20
42.750277
11
14.402153
21
41.594930
0
LINE
8
Layer 1
10
14.402153
20
41.594930
11
13.643681
21
44.293680
0
LINE
8
Layer 1
10
13.643681
20
44.293680
11
12.960252
21
46.363858
0
LINE
8
Layer 1
10
12.960252
20
46.363858
11
12.234618
21
47.841010
0
LINE
8
Layer 1
10
12.234618
20
47.841010
11
11.335981
21
48.933559
0
LINE
8
Layer 1
10
11.335981
20
48.933559
11
10.133542
21
49.849929
0
LINE
8
Layer 1
10
10.133542
20
49.849929
11
7.487708
21
51.887221
0
LINE
8
Layer 1
10
7.487708
20
51.887221
11
6.244167
21
53.016110
0
LINE
8
Layer 1
10
6.244167
20
53.016110
11
6.244167
21
53.016110
0
LINE
8
Layer 1
10
69.955833
20
53.016110
11
68.712292
21
51.887221
0
LINE
8
Layer 1
10
68.712292
20
51.887221
11
66.057639
21
49.849929
0
LINE
8
Layer 1
10
66.057639
20
49.849929
11
64.855200
21
48.933559
0
LINE
8
Layer 1
10
64.855200
20
48.933559
11
63.956562
21
47.841010
0
LINE
8
Layer 1
10
63.956562
20
47.841010
11
63.230928
21
46.363858
0
LINE
8
Layer 1
10
63.230928
20
46.363858
11
62.547500
21
44.293680
0
LINE
8
Layer 1
10
62.547500
20
44.293680
11
61.797847
21
41.594930
0
LINE
8
Layer 1
10
61.797847
20
41.594930
11
63.985069
21
42.750277
0
LINE
8
Layer 1
10
63.985069
20
42.750277
11
66.450287
21
44.327776
0
LINE
8
Layer 1
10
66.450287
20
44.327776
11
67.391564
21
45.191606
0
LINE
8
Layer 1
10
67.391564
20
45.191606
11
68.157858
21
46.133515
0
LINE
8
Layer 1
10
68.157858
20
46.133515
11
68.763600
21
47.174520
0
LINE
8
Layer 1
10
68.763600
20
47.174520
11
69.223219
21
48.335639
0
LINE
8
Layer 1
10
69.223219
20
48.335639
11
69.761806
21
51.102290
0
LINE
8
Layer 1
10
69.761806
20
51.102290
11
69.955833
21
53.016110
0
LINE
8
Layer 1
10
69.955833
20
53.016110
11
69.955833
21
53.016110
0
LINE
8
Layer 1
10
19.014722
20
47.750902
11
18.801955
21
47.559756
0
LINE
8
Layer 1
10
18.801955
20
47.559756
11
18.586589
21
47.067842
0
LINE
8
Layer 1
10
18.586589
20
47.067842
11
18.044583
21
45.166805
0
LINE
8
Layer 1
10
18.044583
20
45.166805
11
17.496123
21
42.626700
0
LINE
8
Layer 1
10
17.496123
20
42.626700
11
17.393006
21
40.518582
0
LINE
8
Layer 1
10
17.393006
20
40.518582
11
17.758994
21
38.472387
0
LINE
8
Layer 1
10
17.758994
20
38.472387
11
18.617847
21
36.118055
0
LINE
8
Layer 1
10
18.617847
20
36.118055
11
19.685000
21
33.604513
0
LINE
8
Layer 1
10
19.685000
20
33.604513
11
20.055417
21
34.989166
0
LINE
8
Layer 1
10
20.055417
20
34.989166
11
20.915049
21
38.606729
0
LINE
8
Layer 1
10
20.915049
20
38.606729
11
21.246352
21
41.359277
0
LINE
8
Layer 1
10
21.246352
20
41.359277
11
21.057153
21
43.581422
0
LINE
8
Layer 1
10
21.057153
20
43.581422
11
20.355278
21
45.607777
0
LINE
8
Layer 1
10
20.355278
20
45.607777
11
19.537856
21
47.249382
0
LINE
8
Layer 1
10
19.537856
20
47.249382
11
19.251539
21
47.645556
0
LINE
8
Layer 1
10
19.251539
20
47.645556
11
19.014722
21
47.750902
0
LINE
8
Layer 1
10
19.014722
20
47.750902
11
19.014722
21
47.750902
0
LINE
8
Layer 1
10
57.114722
20
47.750902
11
56.614653
21
47.179284
0
LINE
8
Layer 1
10
56.614653
20
47.179284
11
55.844722
21
45.607777
0
LINE
8
Layer 1
10
55.844722
20
45.607777
11
55.141469
21
43.581422
0
LINE
8
Layer 1
10
55.141469
20
43.581422
11
54.949238
21
41.359277
0
LINE
8
Layer 1
10
54.949238
20
41.359277
11
55.277510
21
38.606729
0
LINE
8
Layer 1
10
55.277510
20
38.606729
11
56.135764
21
34.989166
0
LINE
8
Layer 1
10
56.135764
20
34.989166
11
56.506181
21
33.604513
0
LINE
8
Layer 1
10
56.506181
20
33.604513
11
57.573333
21
36.118055
0
LINE
8
Layer 1
10
57.573333
20
36.118055
11
58.432186
21
38.472387
0
LINE
8
Layer 1
10
58.432186
20
38.472387
11
58.798175
21
40.518582
0
LINE
8
Layer 1
10
58.798175
20
40.518582
11
58.695058
21
42.626700
0
LINE
8
Layer 1
10
58.695058
20
42.626700
11
58.146597
21
45.166805
0
LINE
8
Layer 1
10
58.146597
20
45.166805
11
57.573583
21
47.144972
0
LINE
8
Layer 1
10
57.573583
20
47.144972
11
57.344805
21
47.616996
0
LINE
8
Layer 1
10
57.344805
20
47.616996
11
57.114722
21
47.750902
0
LINE
8
Layer 1
10
57.114722
20
47.750902
11
57.114722
21
47.750902
0
LINE
8
Layer 1
10
9.075208
20
43.085416
11
9.278056
21
41.709583
0
LINE
8
Layer 1
10
9.278056
20
41.709583
11
9.785951
21
39.583505
0
LINE
8
Layer 1
10
9.785951
20
39.583505
11
10.610790
21
37.708306
0
LINE
8
Layer 1
10
10.610790
20
37.708306
11
11.704123
21
36.171281
0
LINE
8
Layer 1
10
11.704123
20
36.171281
11
13.017500
21
35.059722
0
LINE
8
Layer 1
10
13.017500
20
35.059722
11
16.024931
21
33.666249
0
LINE
8
Layer 1
10
16.024931
20
33.666249
11
18.132778
21
32.978333
0
LINE
8
Layer 1
10
18.132778
20
32.978333
11
17.815278
21
33.877916
0
LINE
8
Layer 1
10
17.815278
20
33.877916
11
16.942153
21
36.118055
0
LINE
8
Layer 1
10
16.942153
20
36.118055
11
16.302745
21
37.532644
0
LINE
8
Layer 1
10
16.302745
20
37.532644
11
15.369224
21
38.795428
0
LINE
8
Layer 1
10
15.369224
20
38.795428
11
14.166039
21
39.881487
0
LINE
8
Layer 1
10
14.166039
20
39.881487
11
12.717639
21
40.765902
0
LINE
8
Layer 1
10
12.717639
20
40.765902
11
10.027708
21
42.362222
0
LINE
8
Layer 1
10
10.027708
20
42.362222
11
9.075208
21
43.085416
0
LINE
8
Layer 1
10
9.075208
20
43.085416
11
9.075208
21
43.085416
0
LINE
8
Layer 1
10
67.124792
20
43.085416
11
66.163472
21
42.362222
0
LINE
8
Layer 1
10
66.163472
20
42.362222
11
63.473542
21
40.765902
0
LINE
8
Layer 1
10
63.473542
20
40.765902
11
62.025142
21
39.881487
0
LINE
8
Layer 1
10
62.025142
20
39.881487
11
60.821957
21
38.795428
0
LINE
8
Layer 1
10
60.821957
20
38.795428
11
59.888436
21
37.532644
0
LINE
8
Layer 1
10
59.888436
20
37.532644
11
59.249028
21
36.118055
0
LINE
8
Layer 1
10
59.249028
20
36.118055
11
58.375903
21
33.877916
0
LINE
8
Layer 1
10
58.375903
20
33.877916
11
58.067222
21
32.978333
0
LINE
8
Layer 1
10
58.067222
20
32.978333
11
60.175069
21
33.666249
0
LINE
8
Layer 1
10
60.175069
20
33.666249
11
63.173681
21
35.059722
0
LINE
8
Layer 1
10
63.173681
20
35.059722
11
64.487057
21
36.171281
0
LINE
8
Layer 1
10
64.487057
20
36.171281
11
65.580391
21
37.708306
0
LINE
8
Layer 1
10
65.580391
20
37.708306
11
66.405230
21
39.583505
0
LINE
8
Layer 1
10
66.405230
20
39.583505
11
66.913125
21
41.709583
0
LINE
8
Layer 1
10
66.913125
20
41.709583
11
67.124792
21
43.085416
0
LINE
8
Layer 1
10
67.124792
20
43.085416
11
67.124792
21
43.085416
0
LINE
8
Layer 1
10
22.895278
20
39.037291
11
22.676747
21
38.833312
0
LINE
8
Layer 1
10
22.676747
20
38.833312
11
22.492721
21
38.193768
0
LINE
8
Layer 1
10
22.492721
20
38.193768
11
22.092708
21
35.394860
0
LINE
8
Layer 1
10
22.092708
20
35.394860
11
21.910712
21
32.976422
0
LINE
8
Layer 1
10
21.910712
20
32.976422
11
22.033548
21
30.871650
0
LINE
8
Layer 1
10
22.033548
20
30.871650
11
22.481415
21
28.929455
0
LINE
8
Layer 1
10
22.481415
20
28.929455
11
23.274514
21
26.998749
0
LINE
8
Layer 1
10
23.274514
20
26.998749
11
23.958580
21
25.771231
0
LINE
8
Layer 1
10
23.958580
20
25.771231
11
24.350486
21
25.367152
0
LINE
8
Layer 1
10
24.350486
20
25.367152
11
24.605398
21
26.099824
0
LINE
8
Layer 1
10
24.605398
20
26.099824
11
24.908146
21
27.630258
0
LINE
8
Layer 1
10
24.908146
20
27.630258
11
25.408819
21
31.602499
0
LINE
8
Layer 1
10
25.408819
20
31.602499
11
25.442665
21
33.423362
0
LINE
8
Layer 1
10
25.442665
20
33.423362
11
25.203126
21
35.012333
0
LINE
8
Layer 1
10
25.203126
20
35.012333
11
24.654126
21
36.512550
0
LINE
8
Layer 1
10
24.654126
20
36.512550
11
23.759583
21
38.067152
0
LINE
8
Layer 1
10
23.759583
20
38.067152
11
23.250432
21
38.781559
0
LINE
8
Layer 1
10
23.250432
20
38.781559
11
22.895278
21
39.037291
0
LINE
8
Layer 1
10
22.895278
20
39.037291
11
22.895278
21
39.037291
0
LINE
8
Layer 1
10
53.295903
20
39.037291
11
52.940749
21
38.781559
0
LINE
8
Layer 1
10
52.940749
20
38.781559
11
52.431597
21
38.067152
0
LINE
8
Layer 1
10
52.431597
20
38.067152
11
51.537055
21
36.512550
0
LINE
8
Layer 1
10
51.537055
20
36.512550
11
50.988054
21
35.012333
0
LINE
8
Layer 1
10
50.988054
20
35.012333
11
50.748516
21
33.423362
0
LINE
8
Layer 1
10
50.748516
20
33.423362
11
50.782361
21
31.602499
0
LINE
8
Layer 1
10
50.782361
20
31.602499
11
51.287444
21
27.630258
0
LINE
8
Layer 1
10
51.287444
20
27.630258
11
51.593224
21
26.099824
0
LINE
8
Layer 1
10
51.593224
20
26.099824
11
51.849514
21
25.367152
0
LINE
8
Layer 1
10
51.849514
20
25.367152
11
52.241420
21
25.771231
0
LINE
8
Layer 1
10
52.241420
20
25.771231
11
52.925486
21
26.998749
0
LINE
8
Layer 1
10
52.925486
20
26.998749
11
53.717207
21
28.929455
0
LINE
8
Layer 1
10
53.717207
20
28.929455
11
54.162042
21
30.871650
0
LINE
8
Layer 1
10
54.162042
20
30.871650
11
54.281847
21
32.976422
0
LINE
8
Layer 1
10
54.281847
20
32.976422
11
54.098472
21
35.394860
0
LINE
8
Layer 1
10
54.098472
20
35.394860
11
53.698461
21
38.193768
0
LINE
8
Layer 1
10
53.698461
20
38.193768
11
53.514434
21
38.833312
0
LINE
8
Layer 1
10
53.514434
20
38.833312
11
53.295903
21
39.037291
0
LINE
8
Layer 1
10
53.295903
20
39.037291
11
53.295903
21
39.037291
0
LINE
8
Layer 1
10
12.532431
20
33.392847
11
12.700000
21
32.625555
0
LINE
8
Layer 1
10
12.700000
20
32.625555
11
13.203263
21
31.139044
0
LINE
8
Layer 1
10
13.203263
20
31.139044
11
14.027954
21
29.466184
0
LINE
8
Layer 1
10
14.027954
20
29.466184
11
14.978008
21
27.959694
0
LINE
8
Layer 1
10
14.978008
20
27.959694
11
15.857361
21
26.972291
0
LINE
8
Layer 1
10
15.857361
20
26.972291
11
17.728532
21
25.753209
0
LINE
8
Layer 1
10
17.728532
20
25.753209
11
20.231806
21
24.952638
0
LINE
8
Layer 1
10
20.231806
20
24.952638
11
22.400463
21
24.440943
0
LINE
8
Layer 1
10
22.400463
20
24.440943
11
22.845046
21
24.400010
0
LINE
8
Layer 1
10
22.845046
20
24.400010
11
22.974653
21
24.485208
0
LINE
8
Layer 1
10
22.974653
20
24.485208
11
20.417014
21
28.912569
0
LINE
8
Layer 1
10
20.417014
20
28.912569
11
19.720045
21
29.645228
0
LINE
8
Layer 1
10
19.720045
20
29.645228
11
18.711306
21
30.356044
0
LINE
8
Layer 1
10
18.711306
20
30.356044
11
17.452991
21
31.006581
0
LINE
8
Layer 1
10
17.452991
20
31.006581
11
16.007292
21
31.558402
0
LINE
8
Layer 1
10
16.007292
20
31.558402
11
14.671917
21
32.093394
0
LINE
8
Layer 1
10
14.671917
20
32.093394
11
13.529028
21
32.713749
0
LINE
8
Layer 1
10
13.529028
20
32.713749
11
12.532431
21
33.392847
0
LINE
8
Layer 1
10
12.532431
20
33.392847
11
12.532431
21
33.392847
0
LINE
8
Layer 1
10
63.667569
20
33.392847
11
62.662153
21
32.713749
0
LINE
8
Layer 1
10
62.662153
20
32.713749
11
61.519264
21
32.093394
0
LINE
8
Layer 1
10
61.519264
20
32.093394
11
60.183889
21
31.558402
0
LINE
8
Layer 1
10
60.183889
20
31.558402
11
58.738190
21
31.006581
0
LINE
8
Layer 1
10
58.738190
20
31.006581
11
57.479874
21
30.356044
0
LINE
8
Layer 1
10
57.479874
20
30.356044
11
56.471136
21
29.645228
0
LINE
8
Layer 1
10
56.471136
20
29.645228
11
55.774167
21
28.912569
0
LINE
8
Layer 1
10
55.774167
20
28.912569
11
53.216528
21
24.485208
0
LINE
8
Layer 1
10
53.216528
20
24.485208
11
53.346135
21
24.400010
0
LINE
8
Layer 1
10
53.346135
20
24.400010
11
53.790717
21
24.440943
0
LINE
8
Layer 1
10
53.790717
20
24.440943
11
55.959375
21
24.952638
0
LINE
8
Layer 1
10
55.959375
20
24.952638
11
58.462648
21
25.753209
0
LINE
8
Layer 1
10
58.462648
20
25.753209
11
60.333819
21
26.972291
0
LINE
8
Layer 1
10
60.333819
20
26.972291
11
61.214550
21
27.959694
0
LINE
8
Layer 1
10
61.214550
20
27.959694
11
62.167636
21
29.466184
0
LINE
8
Layer 1
10
62.167636
20
29.466184
11
62.995359
21
31.139044
0
LINE
8
Layer 1
10
62.995359
20
31.139044
11
63.500000
21
32.625555
0
LINE
8
Layer 1
10
63.500000
20
32.625555
11
63.667569
21
33.392847
0
LINE
8
Layer 1
10
63.667569
20
33.392847
11
63.667569
21
33.392847
0
LINE
8
Layer 1
10
27.172708
20
30.967499
11
27.039766
21
30.811695
0
LINE
8
Layer 1
10
27.039766
20
30.811695
11
27.005139
21
30.358958
0
LINE
8
Layer 1
10
27.005139
20
30.358958
11
26.784653
21
27.183958
0
LINE
8
Layer 1
10
26.784653
20
27.183958
11
26.731443
21
25.177453
0
LINE
8
Layer 1
10
26.731443
20
25.177453
11
26.984205
21
23.359868
0
LINE
8
Layer 1
10
26.984205
20
23.359868
11
27.584777
21
21.551532
0
LINE
8
Layer 1
10
27.584777
20
21.551532
11
28.575000
21
19.572777
0
LINE
8
Layer 1
10
28.575000
20
19.572777
11
29.606875
21
17.738333
0
LINE
8
Layer 1
10
29.606875
20
17.738333
11
29.809722
21
19.431666
0
LINE
8
Layer 1
10
29.809722
20
19.431666
11
30.236589
21
24.489994
0
LINE
8
Layer 1
10
30.236589
20
24.489994
11
30.223779
21
26.195323
0
LINE
8
Layer 1
10
30.223779
20
26.195323
11
30.056667
21
27.272152
0
LINE
8
Layer 1
10
30.056667
20
27.272152
11
29.597101
21
28.288343
0
LINE
8
Layer 1
10
29.597101
20
28.288343
11
28.923615
21
29.364089
0
LINE
8
Layer 1
10
28.923615
20
29.364089
11
28.188270
21
30.284631
0
LINE
8
Layer 1
10
28.188270
20
30.284631
11
27.543125
21
30.835208
0
LINE
8
Layer 1
10
27.543125
20
30.835208
11
27.172708
21
30.967499
0
LINE
8
Layer 1
10
27.172708
20
30.967499
11
27.172708
21
30.967499
0
LINE
8
Layer 1
10
49.018472
20
30.967499
11
48.648056
21
30.835208
0
LINE
8
Layer 1
10
48.648056
20
30.835208
11
48.002911
21
30.284631
0
LINE
8
Layer 1
10
48.002911
20
30.284631
11
47.267566
21
29.364089
0
LINE
8
Layer 1
10
47.267566
20
29.364089
11
46.594080
21
28.288343
0
LINE
8
Layer 1
10
46.594080
20
28.288343
11
46.134514
21
27.272152
0
LINE
8
Layer 1
10
46.134514
20
27.272152
11
45.967402
21
26.195323
0
LINE
8
Layer 1
10
45.967402
20
26.195323
11
45.954592
21
24.489994
0
LINE
8
Layer 1
10
45.954592
20
24.489994
11
46.381458
21
19.431666
0
LINE
8
Layer 1
10
46.381458
20
19.431666
11
46.584306
21
17.738333
0
LINE
8
Layer 1
10
46.584306
20
17.738333
11
47.616181
21
19.572777
0
LINE
8
Layer 1
10
47.616181
20
19.572777
11
48.606403
21
21.551532
0
LINE
8
Layer 1
10
48.606403
20
21.551532
11
49.206975
21
23.359868
0
LINE
8
Layer 1
10
49.206975
20
23.359868
11
49.459737
21
25.177453
0
LINE
8
Layer 1
10
49.459737
20
25.177453
11
49.406528
21
27.183958
0
LINE
8
Layer 1
10
49.406528
20
27.183958
11
49.186042
21
30.358958
0
LINE
8
Layer 1
10
49.186042
20
30.358958
11
49.151414
21
30.811695
0
LINE
8
Layer 1
10
49.151414
20
30.811695
11
49.018472
21
30.967499
0
LINE
8
Layer 1
10
49.018472
20
30.967499
11
49.018472
21
30.967499
0
LINE
8
Layer 1
10
17.312569
20
23.832569
11
17.762361
21
22.765416
0
LINE
8
Layer 1
10
17.762361
20
22.765416
11
18.758288
21
20.884302
0
LINE
8
Layer 1
10
18.758288
20
20.884302
11
20.060154
21
19.225586
0
LINE
8
Layer 1
10
20.060154
20
19.225586
11
21.562498
21
17.901421
0
LINE
8
Layer 1
10
21.562498
20
17.901421
11
23.159861
21
17.023958
0
LINE
8
Layer 1
10
23.159861
20
17.023958
11
26.220208
21
16.485972
0
LINE
8
Layer 1
10
26.220208
20
16.485972
11
28.848403
21
16.230208
0
LINE
8
Layer 1
10
28.848403
20
16.230208
11
28.896587
21
16.331308
0
LINE
8
Layer 1
10
28.896587
20
16.331308
11
28.754621
21
16.635468
0
LINE
8
Layer 1
10
28.754621
20
16.635468
11
28.010556
21
17.667777
0
LINE
8
Layer 1
10
28.010556
20
17.667777
11
26.142364
21
19.871465
0
LINE
8
Layer 1
10
26.142364
20
19.871465
11
24.716351
21
21.155366
0
LINE
8
Layer 1
10
24.716351
20
21.155366
11
23.191191
21
21.888303
0
LINE
8
Layer 1
10
23.191191
20
21.888303
11
21.025556
21
22.439097
0
LINE
8
Layer 1
10
21.025556
20
22.439097
11
19.152037
21
22.936518
0
LINE
8
Layer 1
10
19.152037
20
22.936518
11
17.982847
21
23.400416
0
LINE
8
Layer 1
10
17.982847
20
23.400416
11
17.312569
21
23.832569
0
LINE
8
Layer 1
10
17.312569
20
23.832569
11
17.312569
21
23.832569
0
LINE
8
Layer 1
10
58.878611
20
23.832569
11
58.208333
21
23.400416
0
LINE
8
Layer 1
10
58.208333
20
23.400416
11
57.039144
21
22.936518
0
LINE
8
Layer 1
10
57.039144
20
22.936518
11
55.165625
21
22.439097
0
LINE
8
Layer 1
10
55.165625
20
22.439097
11
52.999990
21
21.888303
0
LINE
8
Layer 1
10
52.999990
20
21.888303
11
51.474829
21
21.155366
0
LINE
8
Layer 1
10
51.474829
20
21.155366
11
50.048816
21
19.871465
0
LINE
8
Layer 1
10
50.048816
20
19.871465
11
48.180625
21
17.667777
0
LINE
8
Layer 1
10
48.180625
20
17.667777
11
47.436559
21
16.635468
0
LINE
8
Layer 1
10
47.436559
20
16.635468
11
47.294594
21
16.331308
0
LINE
8
Layer 1
10
47.294594
20
16.331308
11
47.342778
21
16.230208
0
LINE
8
Layer 1
10
47.342778
20
16.230208
11
49.970972
21
16.485972
0
LINE
8
Layer 1
10
49.970972
20
16.485972
11
53.031319
21
17.023958
0
LINE
8
Layer 1
10
53.031319
20
17.023958
11
54.630060
21
17.901421
0
LINE
8
Layer 1
10
54.630060
20
17.901421
11
56.135436
21
19.225586
0
LINE
8
Layer 1
10
56.135436
20
19.225586
11
57.440334
21
20.884302
0
LINE
8
Layer 1
10
57.440334
20
20.884302
11
58.437639
21
22.765416
0
LINE
8
Layer 1
10
58.437639
20
22.765416
11
58.878611
21
23.832569
0
LINE
8
Layer 1
10
58.878611
20
23.832569
11
58.878611
21
23.832569
0
LINE
8
Layer 1
10
31.053264
20
16.468333
11
30.853251
21
16.400889
0
LINE
8
Layer 1
10
30.853251
20
16.400889
11
30.777052
21
16.209379
0
LINE
8
Layer 1
10
30.777052
20
16.209379
11
30.965445
21
15.519086
0
LINE
8
Layer 1
10
30.965445
20
15.519086
11
31.557140
21
14.527306
0
LINE
8
Layer 1
10
31.557140
20
14.527306
11
32.490833
21
13.363888
0
LINE
8
Layer 1
10
32.490833
20
13.363888
11
33.692787
21
12.227093
0
LINE
8
Layer 1
10
33.692787
20
12.227093
11
34.169877
21
12.011548
0
LINE
8
Layer 1
10
34.169877
20
12.011548
11
34.686875
21
11.952777
0
LINE
8
Layer 1
10
34.686875
20
11.952777
11
35.612917
21
11.952777
0
LINE
8
Layer 1
10
35.612917
20
11.952777
11
34.589861
21
13.019930
0
LINE
8
Layer 1
10
34.589861
20
13.019930
11
32.526111
21
15.277708
0
LINE
8
Layer 1
10
32.526111
20
15.277708
11
31.664208
21
16.119790
0
LINE
8
Layer 1
10
31.664208
20
16.119790
11
31.053264
21
16.468333
0
LINE
8
Layer 1
10
31.053264
20
16.468333
11
31.053264
21
16.468333
0
LINE
8
Layer 1
10
45.137917
20
16.468333
11
44.526972
21
16.119790
0
LINE
8
Layer 1
10
44.526972
20
16.119790
11
43.665069
21
15.277708
0
LINE
8
Layer 1
10
43.665069
20
15.277708
11
41.610139
21
13.019930
0
LINE
8
Layer 1
10
41.610139
20
13.019930
11
40.578264
21
11.952777
0
LINE
8
Layer 1
10
40.578264
20
11.952777
11
41.513125
21
11.952777
0
LINE
8
Layer 1
10
41.513125
20
11.952777
11
42.030123
21
12.011548
0
LINE
8
Layer 1
10
42.030123
20
12.011548
11
42.507213
21
12.227093
0
LINE
8
Layer 1
10
42.507213
20
12.227093
11
43.709167
21
13.363888
0
LINE
8
Layer 1
10
43.709167
20
13.363888
11
44.641482
21
14.527306
0
LINE
8
Layer 1
10
44.641482
20
14.527306
11
45.230145
21
15.519086
0
LINE
8
Layer 1
10
45.230145
20
15.519086
11
45.415507
21
16.209379
0
LINE
8
Layer 1
10
45.415507
20
16.209379
11
45.338309
21
16.400889
0
LINE
8
Layer 1
10
45.338309
20
16.400889
11
45.137917
21
16.468333
0
LINE
8
Layer 1
10
45.137917
20
16.468333
11
45.137917
21
16.468333
 0 
ENDSEC
 0 
EOF
