999
"DXF R12 Output" (www.mydxf.blogspot.com)
 0 
SECTION
 2 
HEADER
 9 
$ACADVER
 1 
AC1009
 9 
$EXTMIN
 10 
 0 
 20 
 0 
 9 
$EXTMAX
 10 
 8.5 
 20 
 11 
 0 
ENDSEC
 0 
SECTION
 2 
ENTITIES
0
LINE
8
Layer 1
10
-159.168298
20
281.880538
11
-162.403375
21
281.633022
0
LINE
8
Layer 1
10
-162.403375
20
281.633022
11
-165.725478
21
280.921381
0
LINE
8
Layer 1
10
-165.725478
20
280.921381
11
-169.194710
21
279.759404
0
LINE
8
Layer 1
10
-169.194710
20
279.759404
11
-172.871175
21
278.160878
0
LINE
8
Layer 1
10
-172.871175
20
278.160878
11
-175.666492
21
276.716849
0
LINE
8
Layer 1
10
-175.666492
20
276.716849
11
-177.851520
21
275.357794
0
LINE
8
Layer 1
10
-177.851520
20
275.357794
11
-179.407181
21
274.116867
0
LINE
8
Layer 1
10
-179.407181
20
274.116867
11
-180.314395
21
273.027220
0
LINE
8
Layer 1
10
-180.314395
20
273.027220
11
-180.518872
21
272.549487
0
LINE
8
Layer 1
10
-180.518872
20
272.549487
11
-180.554082
21
272.122006
0
LINE
8
Layer 1
10
-180.554082
20
272.122006
11
-180.417641
21
271.748922
0
LINE
8
Layer 1
10
-180.417641
20
271.748922
11
-180.107163
21
271.434378
0
LINE
8
Layer 1
10
-180.107163
20
271.434378
11
-178.954559
21
270.997489
0
LINE
8
Layer 1
10
-178.954559
20
270.997489
11
-177.077189
21
270.844492
0
LINE
8
Layer 1
10
-177.077189
20
270.844492
11
-176.175831
21
270.682517
0
LINE
8
Layer 1
10
-176.175831
20
270.682517
11
-174.988015
21
270.218289
0
LINE
8
Layer 1
10
-174.988015
20
270.218289
11
-171.956500
21
268.513251
0
LINE
8
Layer 1
10
-171.956500
20
268.513251
11
-168.389627
21
265.989742
0
LINE
8
Layer 1
10
-168.389627
20
265.989742
11
-164.694379
21
262.908120
0
LINE
8
Layer 1
10
-164.694379
20
262.908120
11
-160.663297
21
259.484086
0
LINE
8
Layer 1
10
-160.663297
20
259.484086
11
-156.695179
21
256.570224
0
LINE
8
Layer 1
10
-156.695179
20
256.570224
11
-152.733937
21
254.142349
0
LINE
8
Layer 1
10
-152.733937
20
254.142349
11
-148.723480
21
252.176278
0
LINE
8
Layer 1
10
-148.723480
20
252.176278
11
-144.607719
21
250.647826
0
LINE
8
Layer 1
10
-144.607719
20
250.647826
11
-140.330564
21
249.532809
0
LINE
8
Layer 1
10
-140.330564
20
249.532809
11
-135.835926
21
248.807045
0
LINE
8
Layer 1
10
-135.835926
20
248.807045
11
-131.067714
21
248.446348
0
LINE
8
Layer 1
10
-131.067714
20
248.446348
11
-120.929502
21
248.061566
0
LINE
8
Layer 1
10
-120.929502
20
248.061566
11
-128.181822
21
240.371039
0
LINE
8
Layer 1
10
-128.181822
20
240.371039
11
-131.340760
21
236.862461
0
LINE
8
Layer 1
10
-131.340760
20
236.862461
11
-132.830128
21
234.767471
0
LINE
8
Layer 1
10
-132.830128
20
234.767471
11
-132.966291
21
234.212494
0
LINE
8
Layer 1
10
-132.966291
20
234.212494
11
-132.706142
21
233.965821
0
LINE
8
Layer 1
10
-132.706142
20
233.965821
11
-132.056707
21
234.012423
0
LINE
8
Layer 1
10
-132.056707
20
234.012423
11
-131.025014
21
234.337269
0
LINE
8
Layer 1
10
-131.025014
20
234.337269
11
-112.271714
21
241.487990
0
LINE
8
Layer 1
10
-112.271714
20
241.487990
11
-105.136593
21
243.895462
0
LINE
8
Layer 1
10
-105.136593
20
243.895462
11
-97.707097
21
245.809703
0
LINE
8
Layer 1
10
-97.707097
20
245.809703
11
-90.204149
21
247.212329
0
LINE
8
Layer 1
10
-90.204149
20
247.212329
11
-82.848672
21
248.084955
0
LINE
8
Layer 1
10
-82.848672
20
248.084955
11
-75.861586
21
248.409198
0
LINE
8
Layer 1
10
-75.861586
20
248.409198
11
-72.575229
21
248.359931
0
LINE
8
Layer 1
10
-72.575229
20
248.359931
11
-69.463816
21
248.166673
0
LINE
8
Layer 1
10
-69.463816
20
248.166673
11
-66.554962
21
247.827129
0
LINE
8
Layer 1
10
-66.554962
20
247.827129
11
-63.876283
21
247.338998
0
LINE
8
Layer 1
10
-63.876283
20
247.338998
11
-61.455394
21
246.699983
0
LINE
8
Layer 1
10
-61.455394
20
246.699983
11
-59.319911
21
245.907787
0
LINE
8
Layer 1
10
-59.319911
20
245.907787
11
-51.597323
21
242.524761
0
LINE
8
Layer 1
10
-51.597323
20
242.524761
11
-58.838919
21
242.343095
0
LINE
8
Layer 1
10
-58.838919
20
242.343095
11
-62.172984
21
242.044386
0
LINE
8
Layer 1
10
-62.172984
20
242.044386
11
-65.829917
21
241.341373
0
LINE
8
Layer 1
10
-65.829917
20
241.341373
11
-69.661665
21
240.290874
0
LINE
8
Layer 1
10
-69.661665
20
240.290874
11
-73.520176
21
238.949708
0
LINE
8
Layer 1
10
-73.520176
20
238.949708
11
-77.257396
21
237.374690
0
LINE
8
Layer 1
10
-77.257396
20
237.374690
11
-80.725274
21
235.622640
0
LINE
8
Layer 1
10
-80.725274
20
235.622640
11
-83.775755
21
233.750374
0
LINE
8
Layer 1
10
-83.775755
20
233.750374
11
-86.260788
21
231.814710
0
LINE
8
Layer 1
10
-86.260788
20
231.814710
11
-88.674106
21
230.131896
0
LINE
8
Layer 1
10
-88.674106
20
230.131896
11
-92.334933
21
228.183522
0
LINE
8
Layer 1
10
-92.334933
20
228.183522
11
-96.746483
21
226.210950
0
LINE
8
Layer 1
10
-96.746483
20
226.210950
11
-101.411972
21
224.455540
0
LINE
8
Layer 1
10
-101.411972
20
224.455540
11
-112.629798
21
220.655728
0
LINE
8
Layer 1
10
-112.629798
20
220.655728
11
-106.382216
21
216.289383
0
LINE
8
Layer 1
10
-106.382216
20
216.289383
11
-103.944333
21
214.701103
0
LINE
8
Layer 1
10
-103.944333
20
214.701103
11
-101.510523
21
213.353210
0
LINE
8
Layer 1
10
-101.510523
20
213.353210
11
-99.072960
21
212.246406
0
LINE
8
Layer 1
10
-99.072960
20
212.246406
11
-96.623822
21
211.381390
0
LINE
8
Layer 1
10
-96.623822
20
211.381390
11
-94.155283
21
210.758865
0
LINE
8
Layer 1
10
-94.155283
20
210.758865
11
-91.659519
21
210.379532
0
LINE
8
Layer 1
10
-91.659519
20
210.379532
11
-89.128705
21
210.244091
0
LINE
8
Layer 1
10
-89.128705
20
210.244091
11
-86.555018
21
210.353245
0
LINE
8
Layer 1
10
-86.555018
20
210.353245
11
-83.930633
21
210.707693
0
LINE
8
Layer 1
10
-83.930633
20
210.707693
11
-81.247725
21
211.308137
0
LINE
8
Layer 1
10
-81.247725
20
211.308137
11
-78.498471
21
212.155278
0
LINE
8
Layer 1
10
-78.498471
20
212.155278
11
-75.675045
21
213.249817
0
LINE
8
Layer 1
10
-75.675045
20
213.249817
11
-72.769623
21
214.592455
0
LINE
8
Layer 1
10
-72.769623
20
214.592455
11
-69.774381
21
216.183894
0
LINE
8
Layer 1
10
-69.774381
20
216.183894
11
-66.681495
21
218.024835
0
LINE
8
Layer 1
10
-66.681495
20
218.024835
11
-63.483140
21
220.115978
0
LINE
8
Layer 1
10
-63.483140
20
220.115978
11
-59.392641
21
222.763768
0
LINE
8
Layer 1
10
-59.392641
20
222.763768
11
-55.467347
21
225.011374
0
LINE
8
Layer 1
10
-55.467347
20
225.011374
11
-51.688476
21
226.856473
0
LINE
8
Layer 1
10
-51.688476
20
226.856473
11
-48.037242
21
228.296742
0
LINE
8
Layer 1
10
-48.037242
20
228.296742
11
-44.494862
21
229.329858
0
LINE
8
Layer 1
10
-44.494862
20
229.329858
11
-41.042552
21
229.953498
0
LINE
8
Layer 1
10
-41.042552
20
229.953498
11
-37.661528
21
230.165339
0
LINE
8
Layer 1
10
-37.661528
20
230.165339
11
-34.333006
21
229.963057
0
LINE
8
Layer 1
10
-34.333006
20
229.963057
11
-31.038202
21
229.344330
0
LINE
8
Layer 1
10
-31.038202
20
229.344330
11
-27.758331
21
228.306834
0
LINE
8
Layer 1
10
-27.758331
20
228.306834
11
-24.474611
21
226.848246
0
LINE
8
Layer 1
10
-24.474611
20
226.848246
11
-21.168256
21
224.966243
0
LINE
8
Layer 1
10
-21.168256
20
224.966243
11
-17.820483
21
222.658502
0
LINE
8
Layer 1
10
-17.820483
20
222.658502
11
-14.412507
21
219.922700
0
LINE
8
Layer 1
10
-14.412507
20
219.922700
11
-10.925546
21
216.756514
0
LINE
8
Layer 1
10
-10.925546
20
216.756514
11
-7.340814
21
213.157620
0
LINE
8
Layer 1
10
-7.340814
20
213.157620
11
-4.560485
21
210.113481
0
LINE
8
Layer 1
10
-4.560485
20
210.113481
11
-1.884073
21
206.921044
0
LINE
8
Layer 1
10
-1.884073
20
206.921044
11
0.686624
21
203.584033
0
LINE
8
Layer 1
10
0.686624
20
203.584033
11
3.149807
21
200.106175
0
LINE
8
Layer 1
10
3.149807
20
200.106175
11
5.503677
21
196.491197
0
LINE
8
Layer 1
10
5.503677
20
196.491197
11
7.746435
21
192.742826
0
LINE
8
Layer 1
10
7.746435
20
192.742826
11
9.876281
21
188.864786
0
LINE
8
Layer 1
10
9.876281
20
188.864786
11
11.891417
21
184.860805
0
LINE
8
Layer 1
10
11.891417
20
184.860805
11
13.790043
21
180.734609
0
LINE
8
Layer 1
10
13.790043
20
180.734609
11
15.570362
21
176.489923
0
LINE
8
Layer 1
10
15.570362
20
176.489923
11
17.230573
21
172.130476
0
LINE
8
Layer 1
10
17.230573
20
172.130476
11
18.768878
21
167.659992
0
LINE
8
Layer 1
10
18.768878
20
167.659992
11
21.472573
21
158.400821
0
LINE
8
Layer 1
10
21.472573
20
158.400821
11
23.667054
21
148.742221
0
LINE
8
Layer 1
10
23.667054
20
148.742221
11
25.034521
21
141.217930
0
LINE
8
Layer 1
10
25.034521
20
141.217930
11
25.977989
21
134.879783
0
LINE
8
Layer 1
10
25.977989
20
134.879783
11
26.412651
21
130.394401
0
LINE
8
Layer 1
10
26.412651
20
130.394401
11
26.412680
21
129.054814
0
LINE
8
Layer 1
10
26.412680
20
129.054814
11
26.253706
21
128.428401
0
LINE
8
Layer 1
10
26.253706
20
128.428401
11
25.865762
21
128.280197
0
LINE
8
Layer 1
10
25.865762
20
128.280197
11
25.209708
21
128.311203
0
LINE
8
Layer 1
10
25.209708
20
128.311203
11
23.235046
21
128.859669
0
LINE
8
Layer 1
10
23.235046
20
128.859669
11
20.613282
21
129.971439
0
LINE
8
Layer 1
10
20.613282
20
129.971439
11
17.627978
21
131.544157
0
LINE
8
Layer 1
10
17.627978
20
131.544157
11
14.682833
21
133.121864
0
LINE
8
Layer 1
10
14.682833
20
133.121864
11
11.747003
21
134.461714
0
LINE
8
Layer 1
10
11.747003
20
134.461714
11
8.828313
21
135.564275
0
LINE
8
Layer 1
10
8.828313
20
135.564275
11
5.934592
21
136.430112
0
LINE
8
Layer 1
10
5.934592
20
136.430112
11
3.073664
21
137.059792
0
LINE
8
Layer 1
10
3.073664
20
137.059792
11
0.253356
21
137.453882
0
LINE
8
Layer 1
10
0.253356
20
137.453882
11
-2.518505
21
137.612948
0
LINE
8
Layer 1
10
-2.518505
20
137.612948
11
-5.234092
21
137.537558
0
LINE
8
Layer 1
10
-5.234092
20
137.537558
11
-7.885580
21
137.228277
0
LINE
8
Layer 1
10
-7.885580
20
137.228277
11
-10.465142
21
136.685672
0
LINE
8
Layer 1
10
-10.465142
20
136.685672
11
-12.964952
21
135.910309
0
LINE
8
Layer 1
10
-12.964952
20
135.910309
11
-15.377182
21
134.902756
0
LINE
8
Layer 1
10
-15.377182
20
134.902756
11
-17.694008
21
133.663578
0
LINE
8
Layer 1
10
-17.694008
20
133.663578
11
-19.907601
21
132.193343
0
LINE
8
Layer 1
10
-19.907601
20
132.193343
11
-22.010137
21
130.492617
0
LINE
8
Layer 1
10
-22.010137
20
130.492617
11
-23.993788
21
128.561966
0
LINE
8
Layer 1
10
-23.993788
20
128.561966
11
-29.028209
21
123.201612
0
LINE
8
Layer 1
10
-29.028209
20
123.201612
11
-20.920811
21
124.516291
0
LINE
8
Layer 1
10
-20.920811
20
124.516291
11
-19.180952
21
124.723139
0
LINE
8
Layer 1
10
-19.180952
20
124.723139
11
-17.491163
21
124.769099
0
LINE
8
Layer 1
10
-17.491163
20
124.769099
11
-15.848461
21
124.651987
0
LINE
8
Layer 1
10
-15.848461
20
124.651987
11
-14.249866
21
124.369621
0
LINE
8
Layer 1
10
-14.249866
20
124.369621
11
-12.692394
21
123.919817
0
LINE
8
Layer 1
10
-12.692394
20
123.919817
11
-11.173066
21
123.300394
0
LINE
8
Layer 1
10
-11.173066
20
123.300394
11
-9.688899
21
122.509168
0
LINE
8
Layer 1
10
-9.688899
20
122.509168
11
-8.236912
21
121.543955
0
LINE
8
Layer 1
10
-8.236912
20
121.543955
11
-6.814123
21
120.402574
0
LINE
8
Layer 1
10
-6.814123
20
120.402574
11
-5.417550
21
119.082842
0
LINE
8
Layer 1
10
-5.417550
20
119.082842
11
-2.691128
21
115.899590
0
LINE
8
Layer 1
10
-2.691128
20
115.899590
11
-0.033793
21
111.976737
0
LINE
8
Layer 1
10
-0.033793
20
111.976737
11
2.578309
21
107.296821
0
LINE
8
Layer 1
10
2.578309
20
107.296821
11
4.454947
21
104.081040
0
LINE
8
Layer 1
10
4.454947
20
104.081040
11
6.530704
21
101.240485
0
LINE
8
Layer 1
10
6.530704
20
101.240485
11
8.552889
21
99.083271
0
LINE
8
Layer 1
10
8.552889
20
99.083271
11
9.464925
21
98.357202
0
LINE
8
Layer 1
10
9.464925
20
98.357202
11
10.268808
21
97.917512
0
LINE
8
Layer 1
10
10.268808
20
97.917512
11
12.433380
21
97.250499
0
LINE
8
Layer 1
10
12.433380
20
97.250499
11
14.756762
21
96.816332
0
LINE
8
Layer 1
10
14.756762
20
96.816332
11
17.124606
21
96.608763
0
LINE
8
Layer 1
10
17.124606
20
96.608763
11
19.422559
21
96.621545
0
LINE
8
Layer 1
10
19.422559
20
96.621545
11
21.536272
21
96.848430
0
LINE
8
Layer 1
10
21.536272
20
96.848430
11
23.351396
21
97.283172
0
LINE
8
Layer 1
10
23.351396
20
97.283172
11
24.753578
21
97.919522
0
LINE
8
Layer 1
10
24.753578
20
97.919522
11
25.628470
21
98.751233
0
LINE
8
Layer 1
10
25.628470
20
98.751233
11
26.640295
21
100.105719
0
LINE
8
Layer 1
10
26.640295
20
100.105719
11
27.593026
21
100.807521
0
LINE
8
Layer 1
10
27.593026
20
100.807521
11
28.045799
21
100.915366
0
LINE
8
Layer 1
10
28.045799
20
100.915366
11
28.482081
21
100.862079
0
LINE
8
Layer 1
10
28.482081
20
100.862079
11
29.302880
21
100.274830
0
LINE
8
Layer 1
10
29.302880
20
100.274830
11
30.050840
21
99.051214
0
LINE
8
Layer 1
10
30.050840
20
99.051214
11
30.721381
21
97.196667
0
LINE
8
Layer 1
10
30.721381
20
97.196667
11
31.309919
21
94.716628
0
LINE
8
Layer 1
10
31.309919
20
94.716628
11
31.811874
21
91.616537
0
LINE
8
Layer 1
10
31.811874
20
91.616537
11
32.219608
21
89.436583
0
LINE
8
Layer 1
10
32.219608
20
89.436583
11
32.901680
21
86.815133
0
LINE
8
Layer 1
10
32.901680
20
86.815133
11
34.942767
21
80.645239
0
LINE
8
Layer 1
10
34.942767
20
80.645239
11
37.642988
21
73.901841
0
LINE
8
Layer 1
10
37.642988
20
73.901841
11
40.710200
21
67.379922
0
LINE
8
Layer 1
10
40.710200
20
67.379922
11
48.357914
21
52.479887
0
LINE
8
Layer 1
10
48.357914
20
52.479887
11
39.197743
21
59.881814
0
LINE
8
Layer 1
10
39.197743
20
59.881814
11
31.259363
21
65.969526
0
LINE
8
Layer 1
10
31.259363
20
65.969526
11
23.490047
21
71.290140
0
LINE
8
Layer 1
10
23.490047
20
71.290140
11
15.998045
21
75.793477
0
LINE
8
Layer 1
10
15.998045
20
75.793477
11
8.891606
21
79.429359
0
LINE
8
Layer 1
10
8.891606
20
79.429359
11
5.516801
21
80.906324
0
LINE
8
Layer 1
10
5.516801
20
80.906324
11
2.278980
21
82.147609
0
LINE
8
Layer 1
10
2.278980
20
82.147609
11
-0.808325
21
83.146941
0
LINE
8
Layer 1
10
-0.808325
20
83.146941
11
-3.731583
21
83.898048
0
LINE
8
Layer 1
10
-3.731583
20
83.898048
11
-6.477263
21
84.394658
0
LINE
8
Layer 1
10
-6.477263
20
84.394658
11
-9.031833
21
84.630499
0
LINE
8
Layer 1
10
-9.031833
20
84.630499
11
-11.381764
21
84.599298
0
LINE
8
Layer 1
10
-11.381764
20
84.599298
11
-13.513522
21
84.294784
0
LINE
8
Layer 1
10
-13.513522
20
84.294784
11
-16.626288
21
83.422639
0
LINE
8
Layer 1
10
-16.626288
20
83.422639
11
-20.002907
21
82.105162
0
LINE
8
Layer 1
10
-20.002907
20
82.105162
11
-23.454425
21
80.368185
0
LINE
8
Layer 1
10
-23.454425
20
80.368185
11
-26.791894
21
78.237545
0
LINE
8
Layer 1
10
-26.791894
20
78.237545
11
-29.826363
21
75.739076
0
LINE
8
Layer 1
10
-29.826363
20
75.739076
11
-31.170924
21
74.359979
0
LINE
8
Layer 1
10
-31.170924
20
74.359979
11
-32.368879
21
72.898612
0
LINE
8
Layer 1
10
-32.368879
20
72.898612
11
-33.396608
21
71.358206
0
LINE
8
Layer 1
10
-33.396608
20
71.358206
11
-34.230493
21
69.741989
0
LINE
8
Layer 1
10
-34.230493
20
69.741989
11
-34.846914
21
68.053190
0
LINE
8
Layer 1
10
-34.846914
20
68.053190
11
-35.222253
21
66.295040
0
LINE
8
Layer 1
10
-35.222253
20
66.295040
11
-35.515132
21
62.455007
0
LINE
8
Layer 1
10
-35.515132
20
62.455007
11
-35.331048
21
58.852863
0
LINE
8
Layer 1
10
-35.331048
20
58.852863
11
-34.706695
21
55.532777
0
LINE
8
Layer 1
10
-34.706695
20
55.532777
11
-33.678766
21
52.538920
0
LINE
8
Layer 1
10
-33.678766
20
52.538920
11
-32.283955
21
49.915465
0
LINE
8
Layer 1
10
-32.283955
20
49.915465
11
-30.558956
21
47.706581
0
LINE
8
Layer 1
10
-30.558956
20
47.706581
11
-28.540463
21
45.956439
0
LINE
8
Layer 1
10
-28.540463
20
45.956439
11
-26.265169
21
44.709211
0
LINE
8
Layer 1
10
-26.265169
20
44.709211
11
-23.510634
21
43.892961
0
LINE
8
Layer 1
10
-23.510634
20
43.892961
11
-20.719634
21
43.638587
0
LINE
8
Layer 1
10
-20.719634
20
43.638587
11
-17.978187
21
43.905441
0
LINE
8
Layer 1
10
-17.978187
20
43.905441
11
-15.372312
21
44.652876
0
LINE
8
Layer 1
10
-15.372312
20
44.652876
11
-12.988026
21
45.840245
0
LINE
8
Layer 1
10
-12.988026
20
45.840245
11
-10.911349
21
47.426902
0
LINE
8
Layer 1
10
-10.911349
20
47.426902
11
-9.228298
21
49.372198
0
LINE
8
Layer 1
10
-9.228298
20
49.372198
11
-8.561264
21
50.466633
0
LINE
8
Layer 1
10
-8.561264
20
50.466633
11
-8.024893
21
51.635486
0
LINE
8
Layer 1
10
-8.024893
20
51.635486
11
-7.548371
21
53.060995
0
LINE
8
Layer 1
10
-7.548371
20
53.060995
11
-7.278971
21
54.377508
0
LINE
8
Layer 1
10
-7.278971
20
54.377508
11
-7.223865
21
55.610047
0
LINE
8
Layer 1
10
-7.223865
20
55.610047
11
-7.390228
21
56.783635
0
LINE
8
Layer 1
10
-7.390228
20
56.783635
11
-7.785231
21
57.923294
0
LINE
8
Layer 1
10
-7.785231
20
57.923294
11
-8.416049
21
59.054047
0
LINE
8
Layer 1
10
-8.416049
20
59.054047
11
-9.289854
21
60.200917
0
LINE
8
Layer 1
10
-9.289854
20
60.200917
11
-10.413819
21
61.388925
0
LINE
8
Layer 1
10
-10.413819
20
61.388925
11
-11.497900
21
62.314573
0
LINE
8
Layer 1
10
-11.497900
20
62.314573
11
-12.638552
21
63.058176
0
LINE
8
Layer 1
10
-12.638552
20
63.058176
11
-13.808847
21
63.623568
0
LINE
8
Layer 1
10
-13.808847
20
63.623568
11
-14.981857
21
64.014579
0
LINE
8
Layer 1
10
-14.981857
20
64.014579
11
-16.130654
21
64.235041
0
LINE
8
Layer 1
10
-16.130654
20
64.235041
11
-17.228310
21
64.288786
0
LINE
8
Layer 1
10
-17.228310
20
64.288786
11
-18.247895
21
64.179645
0
LINE
8
Layer 1
10
-18.247895
20
64.179645
11
-19.162482
21
63.911450
0
LINE
8
Layer 1
10
-19.162482
20
63.911450
11
-20.861706
21
63.109472
0
LINE
8
Layer 1
10
-20.861706
20
63.109472
11
-21.221627
21
62.799314
0
LINE
8
Layer 1
10
-21.221627
20
62.799314
11
-21.244802
21
62.532486
0
LINE
8
Layer 1
10
-21.244802
20
62.532486
11
-20.923516
21
62.296068
0
LINE
8
Layer 1
10
-20.923516
20
62.296068
11
-20.250055
21
62.077144
0
LINE
8
Layer 1
10
-20.250055
20
62.077144
11
-17.815746
21
61.640100
0
LINE
8
Layer 1
10
-17.815746
20
61.640100
11
-15.679332
21
61.119375
0
LINE
8
Layer 1
10
-15.679332
20
61.119375
11
-13.931087
21
60.269604
0
LINE
8
Layer 1
10
-13.931087
20
60.269604
11
-12.596237
21
59.144842
0
LINE
8
Layer 1
10
-12.596237
20
59.144842
11
-11.700008
21
57.799145
0
LINE
8
Layer 1
10
-11.700008
20
57.799145
11
-11.267627
21
56.286567
0
LINE
8
Layer 1
10
-11.267627
20
56.286567
11
-11.324320
21
54.661164
0
LINE
8
Layer 1
10
-11.324320
20
54.661164
11
-11.895313
21
52.976992
0
LINE
8
Layer 1
10
-11.895313
20
52.976992
11
-13.005833
21
51.288105
0
LINE
8
Layer 1
10
-13.005833
20
51.288105
11
-14.616792
21
49.724957
0
LINE
8
Layer 1
10
-14.616792
20
49.724957
11
-16.379939
21
48.700408
0
LINE
8
Layer 1
10
-16.379939
20
48.700408
11
-18.257786
21
48.208833
0
LINE
8
Layer 1
10
-18.257786
20
48.208833
11
-20.212846
21
48.244610
0
LINE
8
Layer 1
10
-20.212846
20
48.244610
11
-22.207632
21
48.802115
0
LINE
8
Layer 1
10
-22.207632
20
48.802115
11
-24.204657
21
49.875723
0
LINE
8
Layer 1
10
-24.204657
20
49.875723
11
-26.166433
21
51.459812
0
LINE
8
Layer 1
10
-26.166433
20
51.459812
11
-28.055474
21
53.548758
0
LINE
8
Layer 1
10
-28.055474
20
53.548758
11
-29.212537
21
55.779373
0
LINE
8
Layer 1
10
-29.212537
20
55.779373
11
-30.027744
21
58.095642
0
LINE
8
Layer 1
10
-30.027744
20
58.095642
11
-30.426851
21
60.490621
0
LINE
8
Layer 1
10
-30.426851
20
60.490621
11
-30.335611
21
62.957361
0
LINE
8
Layer 1
10
-30.335611
20
62.957361
11
-29.679779
21
65.488915
0
LINE
8
Layer 1
10
-29.679779
20
65.488915
11
-28.385110
21
68.078338
0
LINE
8
Layer 1
10
-28.385110
20
68.078338
11
-26.377359
21
70.718681
0
LINE
8
Layer 1
10
-26.377359
20
70.718681
11
-23.582280
21
73.402998
0
LINE
8
Layer 1
10
-23.582280
20
73.402998
11
-20.910521
21
75.415244
0
LINE
8
Layer 1
10
-20.910521
20
75.415244
11
-18.159916
21
77.008069
0
LINE
8
Layer 1
10
-18.159916
20
77.008069
11
-15.311683
21
78.176303
0
LINE
8
Layer 1
10
-15.311683
20
78.176303
11
-12.347045
21
78.914774
0
LINE
8
Layer 1
10
-12.347045
20
78.914774
11
-9.247222
21
79.218314
0
LINE
8
Layer 1
10
-9.247222
20
79.218314
11
-5.993435
21
79.081751
0
LINE
8
Layer 1
10
-5.993435
20
79.081751
11
-2.566904
21
78.499915
0
LINE
8
Layer 1
10
-2.566904
20
78.499915
11
1.051148
21
77.467636
0
LINE
8
Layer 1
10
1.051148
20
77.467636
11
4.295542
21
76.230301
0
LINE
8
Layer 1
10
4.295542
20
76.230301
11
7.703862
21
74.659714
0
LINE
8
Layer 1
10
7.703862
20
74.659714
11
11.287691
21
72.752689
0
LINE
8
Layer 1
10
11.287691
20
72.752689
11
15.058606
21
70.506036
0
LINE
8
Layer 1
10
15.058606
20
70.506036
11
19.028189
21
67.916568
0
LINE
8
Layer 1
10
19.028189
20
67.916568
11
23.208021
21
64.981096
0
LINE
8
Layer 1
10
23.208021
20
64.981096
11
32.244747
21
58.059386
0
LINE
8
Layer 1
10
32.244747
20
58.059386
11
70.706753
21
30.172647
0
LINE
8
Layer 1
10
70.706753
20
30.172647
11
74.805023
21
27.276640
0
LINE
8
Layer 1
10
74.805023
20
27.276640
11
78.949005
21
24.569293
0
LINE
8
Layer 1
10
78.949005
20
24.569293
11
83.141672
21
22.101182
0
LINE
8
Layer 1
10
83.141672
20
22.101182
11
87.385995
21
19.922883
0
LINE
8
Layer 1
10
87.385995
20
19.922883
11
91.684947
21
18.084974
0
LINE
8
Layer 1
10
91.684947
20
18.084974
11
96.041499
21
16.638030
0
LINE
8
Layer 1
10
96.041499
20
16.638030
11
100.458624
21
15.632627
0
LINE
8
Layer 1
10
100.458624
20
15.632627
11
104.939293
21
15.119343
0
LINE
8
Layer 1
10
104.939293
20
15.119343
11
109.310883
21
15.628011
0
LINE
8
Layer 1
10
109.310883
20
15.628011
11
113.583223
21
16.463760
0
LINE
8
Layer 1
10
113.583223
20
16.463760
11
117.761630
21
17.601985
0
LINE
8
Layer 1
10
117.761630
20
17.601985
11
121.851421
21
19.018086
0
LINE
8
Layer 1
10
121.851421
20
19.018086
11
125.857911
21
20.687459
0
LINE
8
Layer 1
10
125.857911
20
20.687459
11
129.786418
21
22.585501
0
LINE
8
Layer 1
10
129.786418
20
22.585501
11
133.642258
21
24.687611
0
LINE
8
Layer 1
10
133.642258
20
24.687611
11
137.430747
21
26.969185
0
LINE
8
Layer 1
10
137.430747
20
26.969185
11
142.753000
21
30.502599
0
LINE
8
Layer 1
10
142.753000
20
30.502599
11
147.963488
21
34.281641
0
LINE
8
Layer 1
10
147.963488
20
34.281641
11
153.077851
21
38.233908
0
LINE
8
Layer 1
10
153.077851
20
38.233908
11
158.111730
21
42.286992
0
LINE
8
Layer 1
10
158.111730
20
42.286992
11
168.000608
21
50.405989
0
LINE
8
Layer 1
10
168.000608
20
50.405989
11
172.886888
21
54.327091
0
LINE
8
Layer 1
10
172.886888
20
54.327091
11
177.755251
21
58.059386
0
LINE
8
Layer 1
10
177.755251
20
58.059386
11
182.784374
21
61.997687
0
LINE
8
Layer 1
10
182.784374
20
61.997687
11
187.538685
21
65.519612
0
LINE
8
Layer 1
10
187.538685
20
65.519612
11
192.033073
21
68.629260
0
LINE
8
Layer 1
10
192.033073
20
68.629260
11
196.282429
21
71.330732
0
LINE
8
Layer 1
10
196.282429
20
71.330732
11
200.301644
21
73.628127
0
LINE
8
Layer 1
10
200.301644
20
73.628127
11
204.105607
21
75.525546
0
LINE
8
Layer 1
10
204.105607
20
75.525546
11
207.709209
21
77.027089
0
LINE
8
Layer 1
10
207.709209
20
77.027089
11
211.127341
21
78.136854
0
LINE
8
Layer 1
10
211.127341
20
78.136854
11
214.374892
21
78.858942
0
LINE
8
Layer 1
10
214.374892
20
78.858942
11
217.466752
21
79.197454
0
LINE
8
Layer 1
10
217.466752
20
79.197454
11
220.417813
21
79.156488
0
LINE
8
Layer 1
10
220.417813
20
79.156488
11
223.242964
21
78.740145
0
LINE
8
Layer 1
10
223.242964
20
78.740145
11
225.957096
21
77.952525
0
LINE
8
Layer 1
10
225.957096
20
77.952525
11
228.575098
21
76.797727
0
LINE
8
Layer 1
10
228.575098
20
76.797727
11
231.111862
21
75.279852
0
LINE
8
Layer 1
10
231.111862
20
75.279852
11
233.582278
21
73.402998
0
LINE
8
Layer 1
10
233.582278
20
73.402998
11
236.377330
21
70.718681
0
LINE
8
Layer 1
10
236.377330
20
70.718681
11
238.385065
21
68.078338
0
LINE
8
Layer 1
10
238.385065
20
68.078338
11
239.679725
21
65.488915
0
LINE
8
Layer 1
10
239.679725
20
65.488915
11
240.335556
21
62.957361
0
LINE
8
Layer 1
10
240.335556
20
62.957361
11
240.426801
21
60.490621
0
LINE
8
Layer 1
10
240.426801
20
60.490621
11
240.027706
21
58.095642
0
LINE
8
Layer 1
10
240.027706
20
58.095642
11
239.212515
21
55.779373
0
LINE
8
Layer 1
10
239.212515
20
55.779373
11
238.055472
21
53.548758
0
LINE
8
Layer 1
10
238.055472
20
53.548758
11
236.166431
21
51.459812
0
LINE
8
Layer 1
10
236.166431
20
51.459812
11
234.204655
21
49.875723
0
LINE
8
Layer 1
10
234.204655
20
49.875723
11
232.207630
21
48.802115
0
LINE
8
Layer 1
10
232.207630
20
48.802115
11
230.212844
21
48.244610
0
LINE
8
Layer 1
10
230.212844
20
48.244610
11
228.257784
21
48.208833
0
LINE
8
Layer 1
10
228.257784
20
48.208833
11
226.379937
21
48.700408
0
LINE
8
Layer 1
10
226.379937
20
48.700408
11
224.616790
21
49.724957
0
LINE
8
Layer 1
10
224.616790
20
49.724957
11
223.005831
21
51.288105
0
LINE
8
Layer 1
10
223.005831
20
51.288105
11
221.895311
21
52.976992
0
LINE
8
Layer 1
10
221.895311
20
52.976992
11
221.324318
21
54.661164
0
LINE
8
Layer 1
10
221.324318
20
54.661164
11
221.267625
21
56.286567
0
LINE
8
Layer 1
10
221.267625
20
56.286567
11
221.700006
21
57.799145
0
LINE
8
Layer 1
10
221.700006
20
57.799145
11
222.596235
21
59.144842
0
LINE
8
Layer 1
10
222.596235
20
59.144842
11
223.931085
21
60.269604
0
LINE
8
Layer 1
10
223.931085
20
60.269604
11
225.679330
21
61.119375
0
LINE
8
Layer 1
10
225.679330
20
61.119375
11
227.815744
21
61.640100
0
LINE
8
Layer 1
10
227.815744
20
61.640100
11
230.250053
21
62.077144
0
LINE
8
Layer 1
10
230.250053
20
62.077144
11
230.923514
21
62.296068
0
LINE
8
Layer 1
10
230.923514
20
62.296068
11
231.244800
21
62.532486
0
LINE
8
Layer 1
10
231.244800
20
62.532486
11
231.221625
21
62.799314
0
LINE
8
Layer 1
10
231.221625
20
62.799314
11
230.861704
21
63.109472
0
LINE
8
Layer 1
10
230.861704
20
63.109472
11
229.162480
21
63.911450
0
LINE
8
Layer 1
10
229.162480
20
63.911450
11
228.247877
21
64.179645
0
LINE
8
Layer 1
10
228.247877
20
64.179645
11
227.228284
21
64.288786
0
LINE
8
Layer 1
10
227.228284
20
64.288786
11
226.130628
21
64.235041
0
LINE
8
Layer 1
10
226.130628
20
64.235041
11
224.981834
21
64.014579
0
LINE
8
Layer 1
10
224.981834
20
64.014579
11
223.808830
21
63.623568
0
LINE
8
Layer 1
10
223.808830
20
63.623568
11
222.638542
21
63.058176
0
LINE
8
Layer 1
10
222.638542
20
63.058176
11
221.497895
21
62.314573
0
LINE
8
Layer 1
10
221.497895
20
62.314573
11
220.413817
21
61.388925
0
LINE
8
Layer 1
10
220.413817
20
61.388925
11
219.289854
21
60.200917
0
LINE
8
Layer 1
10
219.289854
20
60.200917
11
218.416055
21
59.054047
0
LINE
8
Layer 1
10
218.416055
20
59.054047
11
217.785244
21
57.923294
0
LINE
8
Layer 1
10
217.785244
20
57.923294
11
217.390247
21
56.783635
0
LINE
8
Layer 1
10
217.390247
20
56.783635
11
217.223888
21
55.610047
0
LINE
8
Layer 1
10
217.223888
20
55.610047
11
217.278993
21
54.377508
0
LINE
8
Layer 1
10
217.278993
20
54.377508
11
217.548385
21
53.060995
0
LINE
8
Layer 1
10
217.548385
20
53.060995
11
218.024891
21
51.635486
0
LINE
8
Layer 1
10
218.024891
20
51.635486
11
218.561248
21
50.466633
0
LINE
8
Layer 1
10
218.561248
20
50.466633
11
219.228273
21
49.372198
0
LINE
8
Layer 1
10
219.228273
20
49.372198
11
220.911315
21
47.426902
0
LINE
8
Layer 1
10
220.911315
20
47.426902
11
222.987993
21
45.840245
0
LINE
8
Layer 1
10
222.987993
20
45.840245
11
225.372285
21
44.652876
0
LINE
8
Layer 1
10
225.372285
20
44.652876
11
227.978168
21
43.905441
0
LINE
8
Layer 1
10
227.978168
20
43.905441
11
230.719620
21
43.638587
0
LINE
8
Layer 1
10
230.719620
20
43.638587
11
233.510618
21
43.892961
0
LINE
8
Layer 1
10
233.510618
20
43.892961
11
236.265139
21
44.709211
0
LINE
8
Layer 1
10
236.265139
20
44.709211
11
238.540433
21
45.956439
0
LINE
8
Layer 1
10
238.540433
20
45.956439
11
240.558926
21
47.706581
0
LINE
8
Layer 1
10
240.558926
20
47.706581
11
242.283926
21
49.915465
0
LINE
8
Layer 1
10
242.283926
20
49.915465
11
243.678739
21
52.538920
0
LINE
8
Layer 1
10
243.678739
20
52.538920
11
244.706671
21
55.532777
0
LINE
8
Layer 1
10
244.706671
20
55.532777
11
245.331030
21
58.852863
0
LINE
8
Layer 1
10
245.331030
20
58.852863
11
245.515121
21
62.455007
0
LINE
8
Layer 1
10
245.515121
20
62.455007
11
245.222251
21
66.295040
0
LINE
8
Layer 1
10
245.222251
20
66.295040
11
244.846898
21
68.053190
0
LINE
8
Layer 1
10
244.846898
20
68.053190
11
244.230466
21
69.741989
0
LINE
8
Layer 1
10
244.230466
20
69.741989
11
243.396575
21
71.358206
0
LINE
8
Layer 1
10
243.396575
20
71.358206
11
242.368841
21
72.898612
0
LINE
8
Layer 1
10
242.368841
20
72.898612
11
241.170884
21
74.359979
0
LINE
8
Layer 1
10
241.170884
20
74.359979
11
239.826323
21
75.739076
0
LINE
8
Layer 1
10
239.826323
20
75.739076
11
236.791861
21
78.237545
0
LINE
8
Layer 1
10
236.791861
20
78.237545
11
233.454401
21
80.368185
0
LINE
8
Layer 1
10
233.454401
20
80.368185
11
230.002893
21
82.105162
0
LINE
8
Layer 1
10
230.002893
20
82.105162
11
226.626283
21
83.422639
0
LINE
8
Layer 1
10
226.626283
20
83.422639
11
223.513520
21
84.294784
0
LINE
8
Layer 1
10
223.513520
20
84.294784
11
221.381761
21
84.599298
0
LINE
8
Layer 1
10
221.381761
20
84.599298
11
219.031830
21
84.630499
0
LINE
8
Layer 1
10
219.031830
20
84.630499
11
216.477258
21
84.394658
0
LINE
8
Layer 1
10
216.477258
20
84.394658
11
213.731577
21
83.898048
0
LINE
8
Layer 1
10
213.731577
20
83.898048
11
210.808317
21
83.146941
0
LINE
8
Layer 1
10
210.808317
20
83.146941
11
207.721010
21
82.147609
0
LINE
8
Layer 1
10
207.721010
20
82.147609
11
204.483188
21
80.906324
0
LINE
8
Layer 1
10
204.483188
20
80.906324
11
201.108381
21
79.429359
0
LINE
8
Layer 1
10
201.108381
20
79.429359
11
194.001941
21
75.793477
0
LINE
8
Layer 1
10
194.001941
20
75.793477
11
186.509939
21
71.290140
0
LINE
8
Layer 1
10
186.509939
20
71.290140
11
178.740627
21
65.969526
0
LINE
8
Layer 1
10
178.740627
20
65.969526
11
170.802255
21
59.881814
0
LINE
8
Layer 1
10
170.802255
20
59.881814
11
161.641999
21
52.479887
0
LINE
8
Layer 1
10
161.641999
20
52.479887
11
169.289770
21
67.379922
0
LINE
8
Layer 1
10
169.289770
20
67.379922
11
172.356986
21
73.901841
0
LINE
8
Layer 1
10
172.356986
20
73.901841
11
175.057217
21
80.645239
0
LINE
8
Layer 1
10
175.057217
20
80.645239
11
177.098313
21
86.815133
0
LINE
8
Layer 1
10
177.098313
20
86.815133
11
177.780388
21
89.436583
0
LINE
8
Layer 1
10
177.780388
20
89.436583
11
178.188123
21
91.616537
0
LINE
8
Layer 1
10
178.188123
20
91.616537
11
178.690069
21
94.716628
0
LINE
8
Layer 1
10
178.690069
20
94.716628
11
179.278601
21
97.196667
0
LINE
8
Layer 1
10
179.278601
20
97.196667
11
179.949138
21
99.051214
0
LINE
8
Layer 1
10
179.949138
20
99.051214
11
180.697096
21
100.274830
0
LINE
8
Layer 1
10
180.697096
20
100.274830
11
181.517897
21
100.862079
0
LINE
8
Layer 1
10
181.517897
20
100.862079
11
181.954180
21
100.915366
0
LINE
8
Layer 1
10
181.954180
20
100.915366
11
182.406956
21
100.807521
0
LINE
8
Layer 1
10
182.406956
20
100.807521
11
183.359694
21
100.105719
0
LINE
8
Layer 1
10
183.359694
20
100.105719
11
184.371528
21
98.751233
0
LINE
8
Layer 1
10
184.371528
20
98.751233
11
185.246411
21
97.919522
0
LINE
8
Layer 1
10
185.246411
20
97.919522
11
186.648590
21
97.283172
0
LINE
8
Layer 1
10
186.648590
20
97.283172
11
188.463712
21
96.848430
0
LINE
8
Layer 1
10
188.463712
20
96.848430
11
190.577425
21
96.621545
0
LINE
8
Layer 1
10
190.577425
20
96.621545
11
192.875378
21
96.608763
0
LINE
8
Layer 1
10
192.875378
20
96.608763
11
195.243220
21
96.816332
0
LINE
8
Layer 1
10
195.243220
20
96.816332
11
197.566598
21
97.250499
0
LINE
8
Layer 1
10
197.566598
20
97.250499
11
199.731162
21
97.917512
0
LINE
8
Layer 1
10
199.731162
20
97.917512
11
200.535046
21
98.357202
0
LINE
8
Layer 1
10
200.535046
20
98.357202
11
201.447085
21
99.083271
0
LINE
8
Layer 1
10
201.447085
20
99.083271
11
203.469280
21
101.240485
0
LINE
8
Layer 1
10
203.469280
20
101.240485
11
205.545047
21
104.081040
0
LINE
8
Layer 1
10
205.545047
20
104.081040
11
207.421689
21
107.296821
0
LINE
8
Layer 1
10
207.421689
20
107.296821
11
210.033764
21
111.976737
0
LINE
8
Layer 1
10
210.033764
20
111.976737
11
212.691082
21
115.899590
0
LINE
8
Layer 1
10
212.691082
20
115.899590
11
215.417495
21
119.082842
0
LINE
8
Layer 1
10
215.417495
20
119.082842
11
216.814065
21
120.402574
0
LINE
8
Layer 1
10
216.814065
20
120.402574
11
218.236854
21
121.543955
0
LINE
8
Layer 1
10
218.236854
20
121.543955
11
219.688841
21
122.509168
0
LINE
8
Layer 1
10
219.688841
20
122.509168
11
221.173010
21
123.300394
0
LINE
8
Layer 1
10
221.173010
20
123.300394
11
222.692341
21
123.919817
0
LINE
8
Layer 1
10
222.692341
20
123.919817
11
224.249816
21
124.369621
0
LINE
8
Layer 1
10
224.249816
20
124.369621
11
225.848416
21
124.651987
0
LINE
8
Layer 1
10
225.848416
20
124.651987
11
227.491122
21
124.769099
0
LINE
8
Layer 1
10
227.491122
20
124.769099
11
229.180917
21
124.723139
0
LINE
8
Layer 1
10
229.180917
20
124.723139
11
230.920781
21
124.516291
0
LINE
8
Layer 1
10
230.920781
20
124.516291
11
239.028122
21
123.201612
0
LINE
8
Layer 1
10
239.028122
20
123.201612
11
233.993786
21
128.561966
0
LINE
8
Layer 1
10
233.993786
20
128.561966
11
232.010126
21
130.492617
0
LINE
8
Layer 1
10
232.010126
20
130.492617
11
229.907583
21
132.193343
0
LINE
8
Layer 1
10
229.907583
20
132.193343
11
227.693985
21
133.663578
0
LINE
8
Layer 1
10
227.693985
20
133.663578
11
225.377156
21
134.902756
0
LINE
8
Layer 1
10
225.377156
20
134.902756
11
222.964924
21
135.910309
0
LINE
8
Layer 1
10
222.964924
20
135.910309
11
220.465114
21
136.685672
0
LINE
8
Layer 1
10
220.465114
20
136.685672
11
217.885552
21
137.228277
0
LINE
8
Layer 1
10
217.885552
20
137.228277
11
215.234066
21
137.537558
0
LINE
8
Layer 1
10
215.234066
20
137.537558
11
212.518479
21
137.612948
0
LINE
8
Layer 1
10
212.518479
20
137.612948
11
209.746620
21
137.453882
0
LINE
8
Layer 1
10
209.746620
20
137.453882
11
206.926314
21
137.059792
0
LINE
8
Layer 1
10
206.926314
20
137.059792
11
204.065387
21
136.430112
0
LINE
8
Layer 1
10
204.065387
20
136.430112
11
201.171665
21
135.564275
0
LINE
8
Layer 1
10
201.171665
20
135.564275
11
198.252974
21
134.461714
0
LINE
8
Layer 1
10
198.252974
20
134.461714
11
195.317141
21
133.121864
0
LINE
8
Layer 1
10
195.317141
20
133.121864
11
192.371991
21
131.544157
0
LINE
8
Layer 1
10
192.371991
20
131.544157
11
189.386687
21
129.971439
0
LINE
8
Layer 1
10
189.386687
20
129.971439
11
186.764924
21
128.859669
0
LINE
8
Layer 1
10
186.764924
20
128.859669
11
184.790262
21
128.311203
0
LINE
8
Layer 1
10
184.790262
20
128.311203
11
184.134207
21
128.280197
0
LINE
8
Layer 1
10
184.134207
20
128.280197
11
183.746264
21
128.428401
0
LINE
8
Layer 1
10
183.746264
20
128.428401
11
183.587290
21
129.054814
0
LINE
8
Layer 1
10
183.587290
20
129.054814
11
183.587318
21
130.394401
0
LINE
8
Layer 1
10
183.587318
20
130.394401
11
184.021981
21
134.879783
0
LINE
8
Layer 1
10
184.021981
20
134.879783
11
184.965448
21
141.217930
0
LINE
8
Layer 1
10
184.965448
20
141.217930
11
186.332916
21
148.742221
0
LINE
8
Layer 1
10
186.332916
20
148.742221
11
188.527404
21
158.400821
0
LINE
8
Layer 1
10
188.527404
20
158.400821
11
191.231100
21
167.659992
0
LINE
8
Layer 1
10
191.231100
20
167.659992
11
192.769405
21
172.130476
0
LINE
8
Layer 1
10
192.769405
20
172.130476
11
194.429614
21
176.489923
0
LINE
8
Layer 1
10
194.429614
20
176.489923
11
196.209931
21
180.734609
0
LINE
8
Layer 1
10
196.209931
20
180.734609
11
198.108557
21
184.860805
0
LINE
8
Layer 1
10
198.108557
20
184.860805
11
200.123691
21
188.864786
0
LINE
8
Layer 1
10
200.123691
20
188.864786
11
202.253537
21
192.742826
0
LINE
8
Layer 1
10
202.253537
20
192.742826
11
204.496295
21
196.491197
0
LINE
8
Layer 1
10
204.496295
20
196.491197
11
206.850166
21
200.106175
0
LINE
8
Layer 1
10
206.850166
20
200.106175
11
209.313352
21
203.584033
0
LINE
8
Layer 1
10
209.313352
20
203.584033
11
211.884055
21
206.921044
0
LINE
8
Layer 1
10
211.884055
20
206.921044
11
214.560474
21
210.113481
0
LINE
8
Layer 1
10
214.560474
20
210.113481
11
217.340812
21
213.157620
0
LINE
8
Layer 1
10
217.340812
20
213.157620
11
220.925534
21
216.756514
0
LINE
8
Layer 1
10
220.925534
20
216.756514
11
224.412488
21
219.922700
0
LINE
8
Layer 1
10
224.412488
20
219.922700
11
227.820457
21
222.658502
0
LINE
8
Layer 1
10
227.820457
20
222.658502
11
231.168226
21
224.966243
0
LINE
8
Layer 1
10
231.168226
20
224.966243
11
234.474578
21
226.848246
0
LINE
8
Layer 1
10
234.474578
20
226.848246
11
237.758297
21
228.306834
0
LINE
8
Layer 1
10
237.758297
20
228.306834
11
241.038167
21
229.344330
0
LINE
8
Layer 1
10
241.038167
20
229.344330
11
244.332972
21
229.963057
0
LINE
8
Layer 1
10
244.332972
20
229.963057
11
247.661496
21
230.165339
0
LINE
8
Layer 1
10
247.661496
20
230.165339
11
251.042523
21
229.953498
0
LINE
8
Layer 1
10
251.042523
20
229.953498
11
254.494836
21
229.329858
0
LINE
8
Layer 1
10
254.494836
20
229.329858
11
258.037220
21
228.296742
0
LINE
8
Layer 1
10
258.037220
20
228.296742
11
261.688458
21
226.856473
0
LINE
8
Layer 1
10
261.688458
20
226.856473
11
265.467335
21
225.011374
0
LINE
8
Layer 1
10
265.467335
20
225.011374
11
269.392633
21
222.763768
0
LINE
8
Layer 1
10
269.392633
20
222.763768
11
273.483138
21
220.115978
0
LINE
8
Layer 1
10
273.483138
20
220.115978
11
276.681491
21
218.024835
0
LINE
8
Layer 1
10
276.681491
20
218.024835
11
279.774374
21
216.183894
0
LINE
8
Layer 1
10
279.774374
20
216.183894
11
282.769613
21
214.592455
0
LINE
8
Layer 1
10
282.769613
20
214.592455
11
285.675032
21
213.249817
0
LINE
8
Layer 1
10
285.675032
20
213.249817
11
288.498455
21
212.155278
0
LINE
8
Layer 1
10
288.498455
20
212.155278
11
291.247707
21
211.308137
0
LINE
8
Layer 1
10
291.247707
20
211.308137
11
293.930612
21
210.707693
0
LINE
8
Layer 1
10
293.930612
20
210.707693
11
296.554996
21
210.353245
0
LINE
8
Layer 1
10
296.554996
20
210.353245
11
299.128681
21
210.244091
0
LINE
8
Layer 1
10
299.128681
20
210.244091
11
301.659493
21
210.379532
0
LINE
8
Layer 1
10
301.659493
20
210.379532
11
304.155257
21
210.758865
0
LINE
8
Layer 1
10
304.155257
20
210.758865
11
306.623796
21
211.381390
0
LINE
8
Layer 1
10
306.623796
20
211.381390
11
309.072936
21
212.246406
0
LINE
8
Layer 1
10
309.072936
20
212.246406
11
311.510501
21
213.353210
0
LINE
8
Layer 1
10
311.510501
20
213.353210
11
313.944315
21
214.701103
0
LINE
8
Layer 1
10
313.944315
20
214.701103
11
316.382202
21
216.289383
0
LINE
8
Layer 1
10
316.382202
20
216.289383
11
322.629699
21
220.655728
0
LINE
8
Layer 1
10
322.629699
20
220.655728
11
311.411959
21
224.455540
0
LINE
8
Layer 1
10
311.411959
20
224.455540
11
306.746432
21
226.210950
0
LINE
8
Layer 1
10
306.746432
20
226.210950
11
302.334877
21
228.183522
0
LINE
8
Layer 1
10
302.334877
20
228.183522
11
298.674045
21
230.131896
0
LINE
8
Layer 1
10
298.674045
20
230.131896
11
296.260689
21
231.814710
0
LINE
8
Layer 1
10
296.260689
20
231.814710
11
293.775685
21
233.750374
0
LINE
8
Layer 1
10
293.775685
20
233.750374
11
290.725226
21
235.622640
0
LINE
8
Layer 1
10
290.725226
20
235.622640
11
287.257366
21
237.374690
0
LINE
8
Layer 1
10
287.257366
20
237.374690
11
283.520157
21
238.949708
0
LINE
8
Layer 1
10
283.520157
20
238.949708
11
279.661655
21
240.290874
0
LINE
8
Layer 1
10
279.661655
20
240.290874
11
275.829911
21
241.341373
0
LINE
8
Layer 1
10
275.829911
20
241.341373
11
272.172981
21
242.044386
0
LINE
8
Layer 1
10
272.172981
20
242.044386
11
268.838917
21
242.343095
0
LINE
8
Layer 1
10
268.838917
20
242.343095
11
261.597321
21
242.524761
0
LINE
8
Layer 1
10
261.597321
20
242.524761
11
269.319908
21
245.907787
0
LINE
8
Layer 1
10
269.319908
20
245.907787
11
271.455377
21
246.699983
0
LINE
8
Layer 1
10
271.455377
20
246.699983
11
273.876254
21
247.338998
0
LINE
8
Layer 1
10
273.876254
20
247.338998
11
276.554922
21
247.827129
0
LINE
8
Layer 1
10
276.554922
20
247.827129
11
279.463767
21
248.166673
0
LINE
8
Layer 1
10
279.463767
20
248.166673
11
282.575174
21
248.359931
0
LINE
8
Layer 1
10
282.575174
20
248.359931
11
285.861525
21
248.409198
0
LINE
8
Layer 1
10
285.861525
20
248.409198
11
292.848604
21
248.084955
0
LINE
8
Layer 1
10
292.848604
20
248.084955
11
300.204078
21
247.212329
0
LINE
8
Layer 1
10
300.204078
20
247.212329
11
307.707026
21
245.809703
0
LINE
8
Layer 1
10
307.707026
20
245.809703
11
315.136522
21
243.895462
0
LINE
8
Layer 1
10
315.136522
20
243.895462
11
322.271644
21
241.487990
0
LINE
8
Layer 1
10
322.271644
20
241.487990
11
341.024944
21
234.337269
0
LINE
8
Layer 1
10
341.024944
20
234.337269
11
342.056656
21
234.012423
0
LINE
8
Layer 1
10
342.056656
20
234.012423
11
342.706103
21
233.965821
0
LINE
8
Layer 1
10
342.706103
20
233.965821
11
342.966259
21
234.212494
0
LINE
8
Layer 1
10
342.966259
20
234.212494
11
342.830097
21
234.767471
0
LINE
8
Layer 1
10
342.830097
20
234.767471
11
341.340709
21
236.862461
0
LINE
8
Layer 1
10
341.340709
20
236.862461
11
338.181724
21
240.371039
0
LINE
8
Layer 1
10
338.181724
20
240.371039
11
330.929488
21
248.061566
0
LINE
8
Layer 1
10
330.929488
20
248.061566
11
341.067700
21
248.446348
0
LINE
8
Layer 1
10
341.067700
20
248.446348
11
345.835912
21
248.807045
0
LINE
8
Layer 1
10
345.835912
20
248.807045
11
350.330550
21
249.532809
0
LINE
8
Layer 1
10
350.330550
20
249.532809
11
354.607702
21
250.647826
0
LINE
8
Layer 1
10
354.607702
20
250.647826
11
358.723459
21
252.176278
0
LINE
8
Layer 1
10
358.723459
20
252.176278
11
362.733909
21
254.142349
0
LINE
8
Layer 1
10
362.733909
20
254.142349
11
366.695142
21
256.570224
0
LINE
8
Layer 1
10
366.695142
20
256.570224
11
370.663245
21
259.484086
0
LINE
8
Layer 1
10
370.663245
20
259.484086
11
374.694309
21
262.908120
0
LINE
8
Layer 1
10
374.694309
20
262.908120
11
378.389566
21
265.989742
0
LINE
8
Layer 1
10
378.389566
20
265.989742
11
381.956458
21
268.513251
0
LINE
8
Layer 1
10
381.956458
20
268.513251
11
384.987992
21
270.218289
0
LINE
8
Layer 1
10
384.987992
20
270.218289
11
386.175815
21
270.682517
0
LINE
8
Layer 1
10
386.175815
20
270.682517
11
387.077176
21
270.844492
0
LINE
8
Layer 1
10
387.077176
20
270.844492
11
388.954545
21
270.997489
0
LINE
8
Layer 1
10
388.954545
20
270.997489
11
390.107149
21
271.434378
0
LINE
8
Layer 1
10
390.107149
20
271.434378
11
390.417627
21
271.748922
0
LINE
8
Layer 1
10
390.417627
20
271.748922
11
390.554068
21
272.122006
0
LINE
8
Layer 1
10
390.554068
20
272.122006
11
390.518858
21
272.549487
0
LINE
8
Layer 1
10
390.518858
20
272.549487
11
390.314381
21
273.027220
0
LINE
8
Layer 1
10
390.314381
20
273.027220
11
389.407167
21
274.116867
0
LINE
8
Layer 1
10
389.407167
20
274.116867
11
387.851507
21
275.357794
0
LINE
8
Layer 1
10
387.851507
20
275.357794
11
385.666478
21
276.716849
0
LINE
8
Layer 1
10
385.666478
20
276.716849
11
382.871162
21
278.160878
0
LINE
8
Layer 1
10
382.871162
20
278.160878
11
379.194688
21
279.759404
0
LINE
8
Layer 1
10
379.194688
20
279.759404
11
375.725440
21
280.921381
0
LINE
8
Layer 1
10
375.725440
20
280.921381
11
372.403325
21
281.633022
0
LINE
8
Layer 1
10
372.403325
20
281.633022
11
369.168257
21
281.880538
0
LINE
8
Layer 1
10
369.168257
20
281.880538
11
366.309449
21
281.698633
0
LINE
8
Layer 1
10
366.309449
20
281.698633
11
363.429723
21
281.126927
0
LINE
8
Layer 1
10
363.429723
20
281.126927
11
360.486703
21
280.155545
0
LINE
8
Layer 1
10
360.486703
20
280.155545
11
357.438015
21
278.774616
0
LINE
8
Layer 1
10
357.438015
20
278.774616
11
354.241281
21
276.974264
0
LINE
8
Layer 1
10
354.241281
20
276.974264
11
350.854126
21
274.744619
0
LINE
8
Layer 1
10
350.854126
20
274.744619
11
347.234176
21
272.075805
0
LINE
8
Layer 1
10
347.234176
20
272.075805
11
343.339053
21
268.957950
0
LINE
8
Layer 1
10
343.339053
20
268.957950
11
338.260464
21
265.053907
0
LINE
8
Layer 1
10
338.260464
20
265.053907
11
333.171254
21
261.754384
0
LINE
8
Layer 1
10
333.171254
20
261.754384
11
327.995440
21
259.032734
0
LINE
8
Layer 1
10
327.995440
20
259.032734
11
322.657043
21
256.862313
0
LINE
8
Layer 1
10
322.657043
20
256.862313
11
317.080080
21
255.216477
0
LINE
8
Layer 1
10
317.080080
20
255.216477
11
311.188571
21
254.068580
0
LINE
8
Layer 1
10
311.188571
20
254.068580
11
304.906532
21
253.391977
0
LINE
8
Layer 1
10
304.906532
20
253.391977
11
298.157985
21
253.160023
0
LINE
8
Layer 1
10
298.157985
20
253.160023
11
291.747460
21
253.005024
0
LINE
8
Layer 1
10
291.747460
20
253.005024
11
285.480391
21
252.575757
0
LINE
8
Layer 1
10
285.480391
20
252.575757
11
279.359241
21
251.874445
0
LINE
8
Layer 1
10
279.359241
20
251.874445
11
273.386475
21
250.903314
0
LINE
8
Layer 1
10
273.386475
20
250.903314
11
267.564559
21
249.664588
0
LINE
8
Layer 1
10
267.564559
20
249.664588
11
261.895956
21
248.160490
0
LINE
8
Layer 1
10
261.895956
20
248.160490
11
256.383131
21
246.393244
0
LINE
8
Layer 1
10
256.383131
20
246.393244
11
251.028550
21
244.365076
0
LINE
8
Layer 1
10
251.028550
20
244.365076
11
246.228605
21
242.263300
0
LINE
8
Layer 1
10
246.228605
20
242.263300
11
241.567533
21
239.942855
0
LINE
8
Layer 1
10
241.567533
20
239.942855
11
237.047271
21
237.405489
0
LINE
8
Layer 1
10
237.047271
20
237.405489
11
232.669758
21
234.652952
0
LINE
8
Layer 1
10
232.669758
20
234.652952
11
228.436931
21
231.686992
0
LINE
8
Layer 1
10
228.436931
20
231.686992
11
224.350728
21
228.509360
0
LINE
8
Layer 1
10
224.350728
20
228.509360
11
220.413086
21
225.121804
0
LINE
8
Layer 1
10
220.413086
20
225.121804
11
216.625943
21
221.526073
0
LINE
8
Layer 1
10
216.625943
20
221.526073
11
212.978977
21
217.710386
0
LINE
8
Layer 1
10
212.978977
20
217.710386
11
209.487467
21
213.688606
0
LINE
8
Layer 1
10
209.487467
20
213.688606
11
206.153374
21
209.462498
0
LINE
8
Layer 1
10
206.153374
20
209.462498
11
202.978657
21
205.033828
0
LINE
8
Layer 1
10
202.978657
20
205.033828
11
199.965275
21
200.404362
0
LINE
8
Layer 1
10
199.965275
20
200.404362
11
197.115187
21
195.575865
0
LINE
8
Layer 1
10
197.115187
20
195.575865
11
194.430353
21
190.550104
0
LINE
8
Layer 1
10
194.430353
20
190.550104
11
191.912731
21
185.328844
0
LINE
8
Layer 1
10
191.912731
20
185.328844
11
189.982102
21
180.921064
0
LINE
8
Layer 1
10
189.982102
20
180.921064
11
188.165369
21
176.385040
0
LINE
8
Layer 1
10
188.165369
20
176.385040
11
186.463600
21
171.721734
0
LINE
8
Layer 1
10
186.463600
20
171.721734
11
184.877862
21
166.932109
0
LINE
8
Layer 1
10
184.877862
20
166.932109
11
182.058753
21
156.977755
0
LINE
8
Layer 1
10
182.058753
20
156.977755
11
179.716582
21
146.529680
0
LINE
8
Layer 1
10
179.716582
20
146.529680
11
176.007618
21
127.658812
0
LINE
8
Layer 1
10
176.007618
20
127.658812
11
170.134150
21
133.943729
0
LINE
8
Layer 1
10
170.134150
20
133.943729
11
168.240399
21
135.800758
0
LINE
8
Layer 1
10
168.240399
20
135.800758
11
166.219595
21
137.461078
0
LINE
8
Layer 1
10
166.219595
20
137.461078
11
164.084186
21
138.923022
0
LINE
8
Layer 1
10
164.084186
20
138.923022
11
161.846620
21
140.184922
0
LINE
8
Layer 1
10
161.846620
20
140.184922
11
159.519345
21
141.245109
0
LINE
8
Layer 1
10
159.519345
20
141.245109
11
157.114810
21
142.101916
0
LINE
8
Layer 1
10
157.114810
20
142.101916
11
154.645462
21
142.753674
0
LINE
8
Layer 1
10
154.645462
20
142.753674
11
152.123751
21
143.198715
0
LINE
8
Layer 1
10
152.123751
20
143.198715
11
149.562124
21
143.435371
0
LINE
8
Layer 1
10
149.562124
20
143.435371
11
146.973030
21
143.461973
0
LINE
8
Layer 1
10
146.973030
20
143.461973
11
144.368916
21
143.276854
0
LINE
8
Layer 1
10
144.368916
20
143.276854
11
141.762231
21
142.878345
0
LINE
8
Layer 1
10
141.762231
20
142.878345
11
139.165424
21
142.264779
0
LINE
8
Layer 1
10
139.165424
20
142.264779
11
136.590942
21
141.434487
0
LINE
8
Layer 1
10
136.590942
20
141.434487
11
134.051233
21
140.385800
0
LINE
8
Layer 1
10
134.051233
20
140.385800
11
131.558747
21
139.117052
0
LINE
8
Layer 1
10
131.558747
20
139.117052
11
130.675675
21
138.554112
0
LINE
8
Layer 1
10
130.675675
20
138.554112
11
130.149278
21
138.030868
0
LINE
8
Layer 1
10
130.149278
20
138.030868
11
129.998948
21
137.524578
0
LINE
8
Layer 1
10
129.998948
20
137.524578
11
130.244075
21
137.012500
0
LINE
8
Layer 1
10
130.244075
20
137.012500
11
130.904048
21
136.471893
0
LINE
8
Layer 1
10
130.904048
20
136.471893
11
131.998258
21
135.880014
0
LINE
8
Layer 1
10
131.998258
20
135.880014
11
135.566952
21
134.451475
0
LINE
8
Layer 1
10
135.566952
20
134.451475
11
137.424410
21
133.690924
0
LINE
8
Layer 1
10
137.424410
20
133.690924
11
139.094582
21
132.816230
0
LINE
8
Layer 1
10
139.094582
20
132.816230
11
140.587564
21
131.817610
0
LINE
8
Layer 1
10
140.587564
20
131.817610
11
141.913452
21
130.685282
0
LINE
8
Layer 1
10
141.913452
20
130.685282
11
143.082341
21
129.409462
0
LINE
8
Layer 1
10
143.082341
20
129.409462
11
144.104328
21
127.980367
0
LINE
8
Layer 1
10
144.104328
20
127.980367
11
144.989508
21
126.388213
0
LINE
8
Layer 1
10
144.989508
20
126.388213
11
145.747977
21
124.623219
0
LINE
8
Layer 1
10
145.747977
20
124.623219
11
150.707525
21
111.353201
0
LINE
8
Layer 1
10
150.707525
20
111.353201
11
151.916718
21
108.672188
0
LINE
8
Layer 1
10
151.916718
20
108.672188
11
153.390428
21
106.419881
0
LINE
8
Layer 1
10
153.390428
20
106.419881
11
155.115016
21
104.603837
0
LINE
8
Layer 1
10
155.115016
20
104.603837
11
157.076843
21
103.231608
0
LINE
8
Layer 1
10
157.076843
20
103.231608
11
159.262269
21
102.310749
0
LINE
8
Layer 1
10
159.262269
20
102.310749
11
161.657655
21
101.848816
0
LINE
8
Layer 1
10
161.657655
20
101.848816
11
164.249362
21
101.853362
0
LINE
8
Layer 1
10
164.249362
20
101.853362
11
167.023751
21
102.331942
0
LINE
8
Layer 1
10
167.023751
20
102.331942
11
172.929279
21
103.812324
0
LINE
8
Layer 1
10
172.929279
20
103.812324
11
171.470247
21
93.187775
0
LINE
8
Layer 1
10
171.470247
20
93.187775
11
170.923028
21
89.798619
0
LINE
8
Layer 1
10
170.923028
20
89.798619
11
170.211232
21
86.398781
0
LINE
8
Layer 1
10
170.211232
20
86.398781
11
169.339932
21
83.001070
0
LINE
8
Layer 1
10
169.339932
20
83.001070
11
168.314201
21
79.618297
0
LINE
8
Layer 1
10
168.314201
20
79.618297
11
165.819747
21
72.948801
0
LINE
8
Layer 1
10
165.819747
20
72.948801
11
162.768461
21
66.492774
0
LINE
8
Layer 1
10
162.768461
20
66.492774
11
161.046691
21
63.376836
0
LINE
8
Layer 1
10
161.046691
20
63.376836
11
159.200935
21
60.352695
0
LINE
8
Layer 1
10
159.200935
20
60.352695
11
157.236268
21
57.433161
0
LINE
8
Layer 1
10
157.236268
20
57.433161
11
155.157763
21
54.631043
0
LINE
8
Layer 1
10
155.157763
20
54.631043
11
152.970495
21
51.959152
0
LINE
8
Layer 1
10
152.970495
20
51.959152
11
150.679537
21
49.430298
0
LINE
8
Layer 1
10
150.679537
20
49.430298
11
148.289964
21
47.057290
0
LINE
8
Layer 1
10
148.289964
20
47.057290
11
145.806849
21
44.852938
0
LINE
8
Layer 1
10
145.806849
20
44.852938
11
137.047526
21
37.565785
0
LINE
8
Layer 1
10
137.047526
20
37.565785
11
132.269669
21
33.876958
0
LINE
8
Layer 1
10
132.269669
20
33.876958
11
127.259596
21
30.411100
0
LINE
8
Layer 1
10
127.259596
20
30.411100
11
122.042241
21
27.358064
0
LINE
8
Layer 1
10
122.042241
20
27.358064
11
119.363626
21
26.045683
0
LINE
8
Layer 1
10
119.363626
20
26.045683
11
116.642541
21
24.907702
0
LINE
8
Layer 1
10
116.642541
20
24.907702
11
113.882103
21
23.967853
0
LINE
8
Layer 1
10
113.882103
20
23.967853
11
111.085430
21
23.249867
0
LINE
8
Layer 1
10
111.085430
20
23.249867
11
108.255638
21
22.777477
0
LINE
8
Layer 1
10
108.255638
20
22.777477
11
105.395844
21
22.574412
0
LINE
8
Layer 1
10
105.395844
20
22.574412
11
102.598056
21
23.120122
0
LINE
8
Layer 1
10
102.598056
20
23.120122
11
99.821461
21
23.886925
0
LINE
8
Layer 1
10
99.821461
20
23.886925
11
97.068296
21
24.854212
0
LINE
8
Layer 1
10
97.068296
20
24.854212
11
94.340802
21
26.001376
0
LINE
8
Layer 1
10
94.340802
20
26.001376
11
88.971785
21
28.752903
0
LINE
8
Layer 1
10
88.971785
20
28.752903
11
83.732325
21
31.976643
0
LINE
8
Layer 1
10
83.732325
20
31.976643
11
78.640338
21
35.507735
0
LINE
8
Layer 1
10
78.640338
20
35.507735
11
73.713741
21
39.181314
0
LINE
8
Layer 1
10
73.713741
20
39.181314
11
64.428381
21
46.296488
0
LINE
8
Layer 1
10
64.428381
20
46.296488
11
61.942629
21
48.484627
0
LINE
8
Layer 1
10
61.942629
20
48.484627
11
59.545592
21
50.811818
0
LINE
8
Layer 1
10
59.545592
20
50.811818
11
57.243034
21
53.269482
0
LINE
8
Layer 1
10
57.243034
20
53.269482
11
55.040719
21
55.849036
0
LINE
8
Layer 1
10
55.040719
20
55.849036
11
52.944409
21
58.541900
0
LINE
8
Layer 1
10
52.944409
20
58.541900
11
50.959869
21
61.339494
0
LINE
8
Layer 1
10
50.959869
20
61.339494
11
49.092861
21
64.233237
0
LINE
8
Layer 1
10
49.092861
20
64.233237
11
47.349150
21
67.214547
0
LINE
8
Layer 1
10
47.349150
20
67.214547
11
45.734497
21
70.274844
0
LINE
8
Layer 1
10
45.734497
20
70.274844
11
44.254668
21
73.405548
0
LINE
8
Layer 1
10
44.254668
20
73.405548
11
42.915425
21
76.598077
0
LINE
8
Layer 1
10
42.915425
20
76.598077
11
41.722532
21
79.843851
0
LINE
8
Layer 1
10
41.722532
20
79.843851
11
40.681751
21
83.134288
0
LINE
8
Layer 1
10
40.681751
20
83.134288
11
39.798847
21
86.460808
0
LINE
8
Layer 1
10
39.798847
20
86.460808
11
39.079583
21
89.814831
0
LINE
8
Layer 1
10
39.079583
20
89.814831
11
38.529723
21
93.187775
0
LINE
8
Layer 1
10
38.529723
20
93.187775
11
37.070719
21
103.812324
0
LINE
8
Layer 1
10
37.070719
20
103.812324
11
42.976219
21
102.331942
0
LINE
8
Layer 1
10
42.976219
20
102.331942
11
45.750608
21
101.853362
0
LINE
8
Layer 1
10
45.750608
20
101.853362
11
48.342319
21
101.848816
0
LINE
8
Layer 1
10
48.342319
20
101.848816
11
50.737710
21
102.310749
0
LINE
8
Layer 1
10
50.737710
20
102.310749
11
52.923141
21
103.231608
0
LINE
8
Layer 1
10
52.923141
20
103.231608
11
54.884973
21
104.603837
0
LINE
8
Layer 1
10
54.884973
20
104.603837
11
56.609565
21
106.419881
0
LINE
8
Layer 1
10
56.609565
20
106.419881
11
58.083279
21
108.672188
0
LINE
8
Layer 1
10
58.083279
20
108.672188
11
59.292473
21
111.353201
0
LINE
8
Layer 1
10
59.292473
20
111.353201
11
64.252021
21
124.623219
0
LINE
8
Layer 1
10
64.252021
20
124.623219
11
65.010480
21
126.388213
0
LINE
8
Layer 1
10
65.010480
20
126.388213
11
65.895652
21
127.980367
0
LINE
8
Layer 1
10
65.895652
20
127.980367
11
66.917632
21
129.409462
0
LINE
8
Layer 1
10
66.917632
20
129.409462
11
68.086514
21
130.685282
0
LINE
8
Layer 1
10
68.086514
20
130.685282
11
69.412393
21
131.817610
0
LINE
8
Layer 1
10
69.412393
20
131.817610
11
70.905364
21
132.816230
0
LINE
8
Layer 1
10
70.905364
20
132.816230
11
72.575522
21
133.690924
0
LINE
8
Layer 1
10
72.575522
20
133.690924
11
74.432962
21
134.451475
0
LINE
8
Layer 1
10
74.432962
20
134.451475
11
78.001680
21
135.880014
0
LINE
8
Layer 1
10
78.001680
20
135.880014
11
79.095895
21
136.471893
0
LINE
8
Layer 1
10
79.095895
20
136.471893
11
79.755870
21
137.012500
0
LINE
8
Layer 1
10
79.755870
20
137.012500
11
80.001000
21
137.524578
0
LINE
8
Layer 1
10
80.001000
20
137.524578
11
79.850678
21
138.030868
0
LINE
8
Layer 1
10
79.850678
20
138.030868
11
79.324297
21
138.554112
0
LINE
8
Layer 1
10
79.324297
20
138.554112
11
78.441251
21
139.117052
0
LINE
8
Layer 1
10
78.441251
20
139.117052
11
75.948760
21
140.385800
0
LINE
8
Layer 1
10
75.948760
20
140.385800
11
73.409048
21
141.434487
0
LINE
8
Layer 1
10
73.409048
20
141.434487
11
70.834563
21
142.264779
0
LINE
8
Layer 1
10
70.834563
20
142.264779
11
68.237754
21
142.878345
0
LINE
8
Layer 1
10
68.237754
20
142.878345
11
65.631068
21
143.276854
0
LINE
8
Layer 1
10
65.631068
20
143.276854
11
63.026954
21
143.461973
0
LINE
8
Layer 1
10
63.026954
20
143.461973
11
60.437860
21
143.435371
0
LINE
8
Layer 1
10
60.437860
20
143.435371
11
57.876233
21
143.198715
0
LINE
8
Layer 1
10
57.876233
20
143.198715
11
55.354521
21
142.753674
0
LINE
8
Layer 1
10
55.354521
20
142.753674
11
52.885174
21
142.101916
0
LINE
8
Layer 1
10
52.885174
20
142.101916
11
50.480638
21
141.245109
0
LINE
8
Layer 1
10
50.480638
20
141.245109
11
48.153362
21
140.184922
0
LINE
8
Layer 1
10
48.153362
20
140.184922
11
45.915794
21
138.923022
0
LINE
8
Layer 1
10
45.915794
20
138.923022
11
43.780383
21
137.461078
0
LINE
8
Layer 1
10
43.780383
20
137.461078
11
41.759575
21
135.800758
0
LINE
8
Layer 1
10
41.759575
20
135.800758
11
39.865819
21
133.943729
0
LINE
8
Layer 1
10
39.865819
20
133.943729
11
33.992352
21
127.658812
0
LINE
8
Layer 1
10
33.992352
20
127.658812
11
30.283387
21
146.529680
0
LINE
8
Layer 1
10
30.283387
20
146.529680
11
27.928665
21
157.027319
0
LINE
8
Layer 1
10
27.928665
20
157.027319
11
25.092396
21
167.026380
0
LINE
8
Layer 1
10
25.092396
20
167.026380
11
23.496392
21
171.836501
0
LINE
8
Layer 1
10
23.496392
20
171.836501
11
21.783254
21
176.519046
0
LINE
8
Layer 1
10
21.783254
20
176.519046
11
19.954065
21
181.073038
0
LINE
8
Layer 1
10
19.954065
20
181.073038
11
18.009910
21
185.497500
0
LINE
8
Layer 1
10
18.009910
20
185.497500
11
15.124338
21
191.419439
0
LINE
8
Layer 1
10
15.124338
20
191.419439
11
12.022456
21
197.087595
0
LINE
8
Layer 1
10
12.022456
20
197.087595
11
8.707157
21
202.499360
0
LINE
8
Layer 1
10
8.707157
20
202.499360
11
5.181333
21
207.652127
0
LINE
8
Layer 1
10
5.181333
20
207.652127
11
1.447875
21
212.543291
0
LINE
8
Layer 1
10
1.447875
20
212.543291
11
-2.490323
21
217.170244
0
LINE
8
Layer 1
10
-2.490323
20
217.170244
11
-6.630370
21
221.530379
0
LINE
8
Layer 1
10
-6.630370
20
221.530379
11
-10.969374
21
225.621089
0
LINE
8
Layer 1
10
-10.969374
20
225.621089
11
-14.657648
21
228.759474
0
LINE
8
Layer 1
10
-14.657648
20
228.759474
11
-18.475055
21
231.715094
0
LINE
8
Layer 1
10
-18.475055
20
231.715094
11
-22.420021
21
234.486531
0
LINE
8
Layer 1
10
-22.420021
20
234.486531
11
-26.490971
21
237.072362
0
LINE
8
Layer 1
10
-26.490971
20
237.072362
11
-30.686333
21
239.471167
0
LINE
8
Layer 1
10
-30.686333
20
239.471167
11
-35.004533
21
241.681525
0
LINE
8
Layer 1
10
-35.004533
20
241.681525
11
-39.443995
21
243.702016
0
LINE
8
Layer 1
10
-39.443995
20
243.702016
11
-44.003146
21
245.531218
0
LINE
8
Layer 1
10
-44.003146
20
245.531218
11
-49.060909
21
247.290674
0
LINE
8
Layer 1
10
-49.060909
20
247.290674
11
-54.254527
21
248.823465
0
LINE
8
Layer 1
10
-54.254527
20
248.823465
11
-59.582015
21
250.127802
0
LINE
8
Layer 1
10
-59.582015
20
250.127802
11
-65.041388
21
251.201895
0
LINE
8
Layer 1
10
-65.041388
20
251.201895
11
-70.630660
21
252.043953
0
LINE
8
Layer 1
10
-70.630660
20
252.043953
11
-76.347848
21
252.652187
0
LINE
8
Layer 1
10
-76.347848
20
252.652187
11
-82.190965
21
253.024807
0
LINE
8
Layer 1
10
-82.190965
20
253.024807
11
-88.158026
21
253.160023
0
LINE
8
Layer 1
10
-88.158026
20
253.160023
11
-94.906565
21
253.391977
0
LINE
8
Layer 1
10
-94.906565
20
253.391977
11
-101.188596
21
254.068580
0
LINE
8
Layer 1
10
-101.188596
20
254.068580
11
-107.080101
21
255.216477
0
LINE
8
Layer 1
10
-107.080101
20
255.216477
11
-112.657060
21
256.862313
0
LINE
8
Layer 1
10
-112.657060
20
256.862313
11
-117.995456
21
259.032734
0
LINE
8
Layer 1
10
-117.995456
20
259.032734
11
-123.171268
21
261.754384
0
LINE
8
Layer 1
10
-123.171268
20
261.754384
11
-128.260478
21
265.053907
0
LINE
8
Layer 1
10
-128.260478
20
265.053907
11
-133.339067
21
268.957950
0
LINE
8
Layer 1
10
-133.339067
20
268.957950
11
-137.234189
21
272.075805
0
LINE
8
Layer 1
10
-137.234189
20
272.075805
11
-140.854140
21
274.744619
0
LINE
8
Layer 1
10
-140.854140
20
274.744619
11
-144.241296
21
276.974264
0
LINE
8
Layer 1
10
-144.241296
20
276.974264
11
-147.438032
21
278.774616
0
LINE
8
Layer 1
10
-147.438032
20
278.774616
11
-150.486724
21
280.155545
0
LINE
8
Layer 1
10
-150.486724
20
280.155545
11
-153.429748
21
281.126927
0
LINE
8
Layer 1
10
-153.429748
20
281.126927
11
-156.309481
21
281.698633
0
LINE
8
Layer 1
10
-156.309481
20
281.698633
11
-159.168298
21
281.880538
0
LINE
8
Layer 1
10
-159.168298
20
281.880538
11
-159.168298
21
281.880538
 0 
ENDSEC
 0 
EOF
