999
"DXF R12 Output" (www.mydxf.blogspot.com)
 0 
SECTION
 2 
HEADER
 9 
$ACADVER
 1 
AC1009
 9 
$EXTMIN
 10 
 0 
 20 
 0 
 9 
$EXTMAX
 10 
 8.5 
 20 
 11 
 0 
ENDSEC
 0 
SECTION
 2 
ENTITIES
0
LINE
8
Layer 1
10
57.488638
20
-34.841997
11
57.204049
21
-33.003219
0
LINE
8
Layer 1
10
57.204049
20
-33.003219
11
56.388406
21
-30.652152
0
LINE
8
Layer 1
10
56.388406
20
-30.652152
11
55.098900
21
-27.885709
0
LINE
8
Layer 1
10
55.098900
20
-27.885709
11
53.392722
21
-24.800799
0
LINE
8
Layer 1
10
53.392722
20
-24.800799
11
51.327061
21
-21.494331
0
LINE
8
Layer 1
10
51.327061
20
-21.494331
11
48.959107
21
-18.063217
0
LINE
8
Layer 1
10
48.959107
20
-18.063217
11
46.346051
21
-14.604367
0
LINE
8
Layer 1
10
46.346051
20
-14.604367
11
43.545083
21
-11.214691
0
LINE
8
Layer 1
10
43.545083
20
-11.214691
11
40.712817
21
-7.822026
0
LINE
8
Layer 1
10
40.712817
20
-7.822026
11
38.010038
21
-4.354627
0
LINE
8
Layer 1
10
38.010038
20
-4.354627
11
33.246871
21
2.414342
0
LINE
8
Layer 1
10
33.246871
20
2.414342
11
31.313448
21
5.520896
0
LINE
8
Layer 1
10
31.313448
20
5.520896
11
29.763441
21
8.312154
0
LINE
8
Layer 1
10
29.763441
20
8.312154
11
28.660335
21
10.690607
0
LINE
8
Layer 1
10
28.660335
20
10.690607
11
28.067610
21
12.558749
0
LINE
8
Layer 1
10
28.067610
20
12.558749
11
25.618826
21
25.651814
0
LINE
8
Layer 1
10
25.618826
20
25.651814
11
24.225277
21
35.157267
0
LINE
8
Layer 1
10
24.225277
20
35.157267
11
23.928560
21
38.525955
0
LINE
8
Layer 1
10
23.928560
20
38.525955
11
23.900863
21
40.951318
0
LINE
8
Layer 1
10
23.900863
20
40.951318
11
24.143924
21
42.417883
0
LINE
8
Layer 1
10
24.143924
20
42.417883
11
24.367532
21
42.786781
0
LINE
8
Layer 1
10
24.367532
20
42.786781
11
24.659481
21
42.910177
0
LINE
8
Layer 1
10
24.659481
20
42.910177
11
26.045431
21
42.651872
0
LINE
8
Layer 1
10
26.045431
20
42.651872
11
27.865495
21
41.911104
0
LINE
8
Layer 1
10
27.865495
20
41.911104
11
30.058344
21
40.739097
0
LINE
8
Layer 1
10
30.058344
20
40.739097
11
32.562646
21
39.187072
0
LINE
8
Layer 1
10
32.562646
20
39.187072
11
38.260285
21
35.147864
0
LINE
8
Layer 1
10
38.260285
20
35.147864
11
44.467764
21
30.203262
0
LINE
8
Layer 1
10
44.467764
20
30.203262
11
50.694436
21
24.763046
0
LINE
8
Layer 1
10
50.694436
20
24.763046
11
56.449654
21
19.237000
0
LINE
8
Layer 1
10
56.449654
20
19.237000
11
61.242768
21
14.034906
0
LINE
8
Layer 1
10
61.242768
20
14.034906
11
63.125209
21
11.683397
0
LINE
8
Layer 1
10
63.125209
20
11.683397
11
64.583132
21
9.566544
0
LINE
8
Layer 1
10
64.583132
20
9.566544
11
66.119382
21
6.806916
0
LINE
8
Layer 1
10
66.119382
20
6.806916
11
67.432537
21
3.882409
0
LINE
8
Layer 1
10
67.432537
20
3.882409
11
68.523671
21
0.824306
0
LINE
8
Layer 1
10
68.523671
20
0.824306
11
69.393854
21
-2.336113
0
LINE
8
Layer 1
10
69.393854
20
-2.336113
11
70.044159
21
-5.567565
0
LINE
8
Layer 1
10
70.044159
20
-5.567565
11
70.475659
21
-8.838769
0
LINE
8
Layer 1
10
70.475659
20
-8.838769
11
70.689424
21
-12.118444
0
LINE
8
Layer 1
10
70.689424
20
-12.118444
11
70.686528
21
-15.375307
0
LINE
8
Layer 1
10
70.686528
20
-15.375307
11
70.468042
21
-18.578076
0
LINE
8
Layer 1
10
70.468042
20
-18.578076
11
70.035038
21
-21.695472
0
LINE
8
Layer 1
10
70.035038
20
-21.695472
11
69.388588
21
-24.696210
0
LINE
8
Layer 1
10
69.388588
20
-24.696210
11
68.529765
21
-27.549011
0
LINE
8
Layer 1
10
68.529765
20
-27.549011
11
67.459640
21
-30.222592
0
LINE
8
Layer 1
10
67.459640
20
-30.222592
11
66.179286
21
-32.685672
0
LINE
8
Layer 1
10
66.179286
20
-32.685672
11
64.689775
21
-34.906969
0
LINE
8
Layer 1
10
64.689775
20
-34.906969
11
62.992178
21
-36.855201
0
LINE
8
Layer 1
10
62.992178
20
-36.855201
11
60.018224
21
-39.617114
0
LINE
8
Layer 1
10
60.018224
20
-39.617114
11
59.048713
21
-40.224914
0
LINE
8
Layer 1
10
59.048713
20
-40.224914
11
58.361274
21
-40.294266
0
LINE
8
Layer 1
10
58.361274
20
-40.294266
11
57.908726
21
-39.807909
0
LINE
8
Layer 1
10
57.908726
20
-39.807909
11
57.643891
21
-38.748585
0
LINE
8
Layer 1
10
57.643891
20
-38.748585
11
57.488638
21
-34.841997
0
LINE
8
Layer 1
10
57.488638
20
-34.841997
11
57.488638
21
-34.841997
0
LINE
8
Layer 1
10
154.254832
20
-32.900901
11
153.500060
21
-31.873422
0
LINE
8
Layer 1
10
153.500060
20
-31.873422
11
152.003149
21
-30.664975
0
LINE
8
Layer 1
10
152.003149
20
-30.664975
11
149.853550
21
-29.319875
0
LINE
8
Layer 1
10
149.853550
20
-29.319875
11
147.140713
21
-27.882443
0
LINE
8
Layer 1
10
147.140713
20
-27.882443
11
143.954086
21
-26.396995
0
LINE
8
Layer 1
10
143.954086
20
-26.396995
11
140.383121
21
-24.907850
0
LINE
8
Layer 1
10
140.383121
20
-24.907850
11
136.517266
21
-23.459326
0
LINE
8
Layer 1
10
136.517266
20
-23.459326
11
132.445972
21
-22.095741
0
LINE
8
Layer 1
10
132.445972
20
-22.095741
11
128.196230
21
-20.623579
0
LINE
8
Layer 1
10
128.196230
20
-20.623579
11
123.920938
21
-18.895141
0
LINE
8
Layer 1
10
123.920938
20
-18.895141
11
119.729787
21
-16.970314
0
LINE
8
Layer 1
10
119.729787
20
-16.970314
11
115.732467
21
-14.908987
0
LINE
8
Layer 1
10
115.732467
20
-14.908987
11
112.038668
21
-12.771051
0
LINE
8
Layer 1
10
112.038668
20
-12.771051
11
108.758082
21
-10.616393
0
LINE
8
Layer 1
10
108.758082
20
-10.616393
11
106.000398
21
-8.504904
0
LINE
8
Layer 1
10
106.000398
20
-8.504904
11
103.875307
21
-6.496472
0
LINE
8
Layer 1
10
103.875307
20
-6.496472
11
89.794568
21
8.877414
0
LINE
8
Layer 1
10
89.794568
20
8.877414
11
88.119255
21
10.792118
0
LINE
8
Layer 1
10
88.119255
20
10.792118
11
87.136830
21
12.259628
0
LINE
8
Layer 1
10
87.136830
20
12.259628
11
86.945099
21
12.844169
0
LINE
8
Layer 1
10
86.945099
20
12.844169
11
86.974171
21
13.339092
0
LINE
8
Layer 1
10
86.974171
20
13.339092
11
87.239903
21
13.751790
0
LINE
8
Layer 1
10
87.239903
20
13.751790
11
87.758158
21
14.089657
0
LINE
8
Layer 1
10
87.758158
20
14.089657
11
89.615671
21
14.570470
0
LINE
8
Layer 1
10
89.615671
20
14.570470
11
92.673590
21
14.840679
0
LINE
8
Layer 1
10
92.673590
20
14.840679
11
102.898163
21
14.985869
0
LINE
8
Layer 1
10
102.898163
20
14.985869
11
109.124981
21
14.769463
0
LINE
8
Layer 1
10
109.124981
20
14.769463
11
115.134605
21
14.132685
0
LINE
8
Layer 1
10
115.134605
20
14.132685
11
120.901572
21
13.094194
0
LINE
8
Layer 1
10
120.901572
20
13.094194
11
126.400420
21
11.672647
0
LINE
8
Layer 1
10
126.400420
20
11.672647
11
131.605686
21
9.886704
0
LINE
8
Layer 1
10
131.605686
20
9.886704
11
136.491907
21
7.755022
0
LINE
8
Layer 1
10
136.491907
20
7.755022
11
141.033620
21
5.296260
0
LINE
8
Layer 1
10
141.033620
20
5.296260
11
145.205363
21
2.529077
0
LINE
8
Layer 1
10
145.205363
20
2.529077
11
148.981673
21
-0.527870
0
LINE
8
Layer 1
10
148.981673
20
-0.527870
11
152.337088
21
-3.855921
0
LINE
8
Layer 1
10
152.337088
20
-3.855921
11
155.246144
21
-7.436418
0
LINE
8
Layer 1
10
155.246144
20
-7.436418
11
157.683379
21
-11.250703
0
LINE
8
Layer 1
10
157.683379
20
-11.250703
11
159.623331
21
-15.280118
0
LINE
8
Layer 1
10
159.623331
20
-15.280118
11
161.040535
21
-19.506003
0
LINE
8
Layer 1
10
161.040535
20
-19.506003
11
161.909531
21
-23.909700
0
LINE
8
Layer 1
10
161.909531
20
-23.909700
11
162.204854
21
-28.472552
0
LINE
8
Layer 1
10
162.204854
20
-28.472552
11
161.984109
21
-31.653664
0
LINE
8
Layer 1
10
161.984109
20
-31.653664
11
161.377031
21
-34.176215
0
LINE
8
Layer 1
10
161.377031
20
-34.176215
11
160.466357
21
-35.994120
0
LINE
8
Layer 1
10
160.466357
20
-35.994120
11
159.923027
21
-36.624427
0
LINE
8
Layer 1
10
159.923027
20
-36.624427
11
159.334824
21
-37.061290
0
LINE
8
Layer 1
10
159.334824
20
-37.061290
11
158.712090
21
-37.298949
0
LINE
8
Layer 1
10
158.712090
20
-37.298949
11
158.065168
21
-37.331641
0
LINE
8
Layer 1
10
158.065168
20
-37.331641
11
157.404399
21
-37.153606
0
LINE
8
Layer 1
10
157.404399
20
-37.153606
11
156.740126
21
-36.759084
0
LINE
8
Layer 1
10
156.740126
20
-36.759084
11
156.082691
21
-36.142313
0
LINE
8
Layer 1
10
156.082691
20
-36.142313
11
155.442435
21
-35.297533
0
LINE
8
Layer 1
10
155.442435
20
-35.297533
11
154.254832
21
-32.900901
0
LINE
8
Layer 1
10
154.254832
20
-32.900901
11
154.254832
21
-32.900901
0
LINE
8
Layer 1
10
78.431887
20
-5.957371
11
78.540966
21
-4.321184
0
LINE
8
Layer 1
10
78.540966
20
-4.321184
11
78.868205
21
-2.903154
0
LINE
8
Layer 1
10
78.868205
20
-2.903154
11
79.413603
21
-1.703281
0
LINE
8
Layer 1
10
79.413603
20
-1.703281
11
80.177159
21
-0.721567
0
LINE
8
Layer 1
10
80.177159
20
-0.721567
11
81.158874
21
0.041990
0
LINE
8
Layer 1
10
81.158874
20
0.041990
11
82.358747
21
0.587387
0
LINE
8
Layer 1
10
82.358747
20
0.587387
11
83.776778
21
0.914626
0
LINE
8
Layer 1
10
83.776778
20
0.914626
11
85.412967
21
1.023706
0
LINE
8
Layer 1
10
85.412967
20
1.023706
11
87.049153
21
0.914626
0
LINE
8
Layer 1
10
87.049153
20
0.914626
11
88.467183
21
0.587387
0
LINE
8
Layer 1
10
88.467183
20
0.587387
11
89.667056
21
0.041990
0
LINE
8
Layer 1
10
89.667056
20
0.041990
11
90.648771
21
-0.721567
0
LINE
8
Layer 1
10
90.648771
20
-0.721567
11
91.412328
21
-1.703281
0
LINE
8
Layer 1
10
91.412328
20
-1.703281
11
91.957727
21
-2.903154
0
LINE
8
Layer 1
10
91.957727
20
-2.903154
11
92.284967
21
-4.321184
0
LINE
8
Layer 1
10
92.284967
20
-4.321184
11
92.394047
21
-5.957371
0
LINE
8
Layer 1
10
92.394047
20
-5.957371
11
92.284967
21
-7.593558
0
LINE
8
Layer 1
10
92.284967
20
-7.593558
11
91.957727
21
-9.011588
0
LINE
8
Layer 1
10
91.957727
20
-9.011588
11
91.412328
21
-10.211461
0
LINE
8
Layer 1
10
91.412328
20
-10.211461
11
90.648771
21
-11.193175
0
LINE
8
Layer 1
10
90.648771
20
-11.193175
11
89.667056
21
-11.956732
0
LINE
8
Layer 1
10
89.667056
20
-11.956732
11
88.467183
21
-12.502130
0
LINE
8
Layer 1
10
88.467183
20
-12.502130
11
87.049153
21
-12.829369
0
LINE
8
Layer 1
10
87.049153
20
-12.829369
11
85.412967
21
-12.938448
0
LINE
8
Layer 1
10
85.412967
20
-12.938448
11
83.776778
21
-12.829369
0
LINE
8
Layer 1
10
83.776778
20
-12.829369
11
82.358747
21
-12.502130
0
LINE
8
Layer 1
10
82.358747
20
-12.502130
11
81.158874
21
-11.956732
0
LINE
8
Layer 1
10
81.158874
20
-11.956732
11
80.177159
21
-11.193175
0
LINE
8
Layer 1
10
80.177159
20
-11.193175
11
79.413603
21
-10.211461
0
LINE
8
Layer 1
10
79.413603
20
-10.211461
11
78.868205
21
-9.011588
0
LINE
8
Layer 1
10
78.868205
20
-9.011588
11
78.540966
21
-7.593558
0
LINE
8
Layer 1
10
78.540966
20
-7.593558
11
78.431887
21
-5.957371
0
LINE
8
Layer 1
10
78.431887
20
-5.957371
11
78.431887
21
-5.957371
0
LINE
8
Layer 1
10
159.863959
20
-0.428073
11
159.494661
21
0.798570
0
LINE
8
Layer 1
10
159.494661
20
0.798570
11
159.315352
21
2.023454
0
LINE
8
Layer 1
10
159.315352
20
2.023454
11
159.311975
21
3.230419
0
LINE
8
Layer 1
10
159.311975
20
3.230419
11
159.470472
21
4.403306
0
LINE
8
Layer 1
10
159.470472
20
4.403306
11
159.776786
21
5.525956
0
LINE
8
Layer 1
10
159.776786
20
5.525956
11
160.216860
21
6.582211
0
LINE
8
Layer 1
10
160.216860
20
6.582211
11
161.442059
21
8.430896
0
LINE
8
Layer 1
10
161.442059
20
8.430896
11
162.199069
21
9.191009
0
LINE
8
Layer 1
10
162.199069
20
9.191009
11
163.033611
21
9.820091
0
LINE
8
Layer 1
10
163.033611
20
9.820091
11
163.931626
21
10.301981
0
LINE
8
Layer 1
10
163.931626
20
10.301981
11
164.879057
21
10.620522
0
LINE
8
Layer 1
10
164.879057
20
10.620522
11
165.861848
21
10.759554
0
LINE
8
Layer 1
10
165.861848
20
10.759554
11
166.865941
21
10.702917
0
LINE
8
Layer 1
10
166.865941
20
10.702917
11
167.877278
21
10.434454
0
LINE
8
Layer 1
10
167.877278
20
10.434454
11
168.881803
21
9.938005
0
LINE
8
Layer 1
10
168.881803
20
9.938005
11
169.845644
21
9.245666
0
LINE
8
Layer 1
10
169.845644
20
9.245666
11
170.660012
21
8.462874
0
LINE
8
Layer 1
10
170.660012
20
8.462874
11
171.326589
21
7.604297
0
LINE
8
Layer 1
10
171.326589
20
7.604297
11
171.847058
21
6.684602
0
LINE
8
Layer 1
10
171.847058
20
6.684602
11
172.456398
21
4.720532
0
LINE
8
Layer 1
10
172.456398
20
4.720532
11
172.501491
21
2.688006
0
LINE
8
Layer 1
10
172.501491
20
2.688006
11
171.995795
21
0.704367
0
LINE
8
Layer 1
10
171.995795
20
0.704367
11
170.952767
21
-1.113043
0
LINE
8
Layer 1
10
170.952767
20
-1.113043
11
170.233960
21
-1.922741
0
LINE
8
Layer 1
10
170.233960
20
-1.922741
11
169.385866
21
-2.646879
0
LINE
8
Layer 1
10
169.385866
20
-2.646879
11
168.410169
21
-3.270788
0
LINE
8
Layer 1
10
168.410169
20
-3.270788
11
167.308550
21
-3.779801
0
LINE
8
Layer 1
10
167.308550
20
-3.779801
11
166.144922
21
-4.107115
0
LINE
8
Layer 1
10
166.144922
20
-4.107115
11
165.002249
21
-4.200660
0
LINE
8
Layer 1
10
165.002249
20
-4.200660
11
163.903346
21
-4.070710
0
LINE
8
Layer 1
10
163.903346
20
-4.070710
11
162.871030
21
-3.727537
0
LINE
8
Layer 1
10
162.871030
20
-3.727537
11
161.928117
21
-3.181414
0
LINE
8
Layer 1
10
161.928117
20
-3.181414
11
161.097423
21
-2.442614
0
LINE
8
Layer 1
10
161.097423
20
-2.442614
11
160.401765
21
-1.521409
0
LINE
8
Layer 1
10
160.401765
20
-1.521409
11
159.863959
21
-0.428073
0
LINE
8
Layer 1
10
159.863959
20
-0.428073
11
159.863959
21
-0.428073
0
LINE
8
Layer 1
10
184.893387
20
10.721144
11
181.921098
21
11.533539
0
LINE
8
Layer 1
10
181.921098
20
11.533539
11
178.988902
21
12.672288
0
LINE
8
Layer 1
10
178.988902
20
12.672288
11
176.434670
21
13.986341
0
LINE
8
Layer 1
10
176.434670
20
13.986341
11
174.596273
21
15.324648
0
LINE
8
Layer 1
10
174.596273
20
15.324648
11
172.812963
21
16.548414
0
LINE
8
Layer 1
10
172.812963
20
16.548414
11
170.408717
21
17.550570
0
LINE
8
Layer 1
10
170.408717
20
17.550570
11
167.698503
21
18.227702
0
LINE
8
Layer 1
10
167.698503
20
18.227702
11
164.997288
21
18.476393
0
LINE
8
Layer 1
10
164.997288
20
18.476393
11
162.088273
21
18.677648
0
LINE
8
Layer 1
10
162.088273
20
18.677648
11
161.009466
21
18.920679
0
LINE
8
Layer 1
10
161.009466
20
18.920679
11
160.169665
21
19.251056
0
LINE
8
Layer 1
10
160.169665
20
19.251056
11
159.560274
21
19.663089
0
LINE
8
Layer 1
10
159.560274
20
19.663089
11
159.172699
21
20.151085
0
LINE
8
Layer 1
10
159.172699
20
20.151085
11
158.998344
21
20.709352
0
LINE
8
Layer 1
10
158.998344
20
20.709352
11
159.028613
21
21.332200
0
LINE
8
Layer 1
10
159.028613
20
21.332200
11
159.254911
21
22.013936
0
LINE
8
Layer 1
10
159.254911
20
22.013936
11
159.668644
21
22.748869
0
LINE
8
Layer 1
10
159.668644
20
22.748869
11
161.024028
21
24.355558
0
LINE
8
Layer 1
10
161.024028
20
24.355558
11
163.026003
21
26.106733
0
LINE
8
Layer 1
10
163.026003
20
26.106733
11
165.605804
21
27.956862
0
LINE
8
Layer 1
10
165.605804
20
27.956862
11
168.694670
21
29.860410
0
LINE
8
Layer 1
10
168.694670
20
29.860410
11
172.223837
21
31.771845
0
LINE
8
Layer 1
10
172.223837
20
31.771845
11
176.124541
21
33.645632
0
LINE
8
Layer 1
10
176.124541
20
33.645632
11
180.328020
21
35.436239
0
LINE
8
Layer 1
10
180.328020
20
35.436239
11
184.765510
21
37.098132
0
LINE
8
Layer 1
10
184.765510
20
37.098132
11
189.368249
21
38.585777
0
LINE
8
Layer 1
10
189.368249
20
38.585777
11
194.067472
21
39.853642
0
LINE
8
Layer 1
10
194.067472
20
39.853642
11
198.794418
21
40.856192
0
LINE
8
Layer 1
10
198.794418
20
40.856192
11
201.605371
21
41.248986
0
LINE
8
Layer 1
10
201.605371
20
41.248986
11
204.531541
21
41.439603
0
LINE
8
Layer 1
10
204.531541
20
41.439603
11
207.542604
21
41.437314
0
LINE
8
Layer 1
10
207.542604
20
41.437314
11
210.608235
21
41.251390
0
LINE
8
Layer 1
10
210.608235
20
41.251390
11
213.698111
21
40.891101
0
LINE
8
Layer 1
10
213.698111
20
40.891101
11
216.781908
21
40.365718
0
LINE
8
Layer 1
10
216.781908
20
40.365718
11
219.829301
21
39.684510
0
LINE
8
Layer 1
10
219.829301
20
39.684510
11
222.809966
21
38.856750
0
LINE
8
Layer 1
10
222.809966
20
38.856750
11
225.693580
21
37.891707
0
LINE
8
Layer 1
10
225.693580
20
37.891707
11
228.449819
21
36.798651
0
LINE
8
Layer 1
10
228.449819
20
36.798651
11
231.048358
21
35.586855
0
LINE
8
Layer 1
10
231.048358
20
35.586855
11
233.458874
21
34.265587
0
LINE
8
Layer 1
10
233.458874
20
34.265587
11
235.651041
21
32.844118
0
LINE
8
Layer 1
10
235.651041
20
32.844118
11
237.594538
21
31.331720
0
LINE
8
Layer 1
10
237.594538
20
31.331720
11
239.259039
21
29.737662
0
LINE
8
Layer 1
10
239.259039
20
29.737662
11
240.614220
21
28.071215
0
LINE
8
Layer 1
10
240.614220
20
28.071215
11
243.299879
21
23.948263
0
LINE
8
Layer 1
10
243.299879
20
23.948263
11
244.253910
21
22.194113
0
LINE
8
Layer 1
10
244.253910
20
22.194113
11
244.938656
21
20.631429
0
LINE
8
Layer 1
10
244.938656
20
20.631429
11
245.346552
21
19.250150
0
LINE
8
Layer 1
10
245.346552
20
19.250150
11
245.470033
21
18.040213
0
LINE
8
Layer 1
10
245.470033
20
18.040213
11
245.301534
21
16.991556
0
LINE
8
Layer 1
10
245.301534
20
16.991556
11
244.833491
21
16.094116
0
LINE
8
Layer 1
10
244.833491
20
16.094116
11
244.058339
21
15.337830
0
LINE
8
Layer 1
10
244.058339
20
15.337830
11
242.968513
21
14.712636
0
LINE
8
Layer 1
10
242.968513
20
14.712636
11
241.556448
21
14.208472
0
LINE
8
Layer 1
10
241.556448
20
14.208472
11
239.814580
21
13.815275
0
LINE
8
Layer 1
10
239.814580
20
13.815275
11
235.311174
21
13.321532
0
LINE
8
Layer 1
10
235.311174
20
13.321532
11
229.397777
21
13.150908
0
LINE
8
Layer 1
10
229.397777
20
13.150908
11
222.133763
21
12.966487
0
LINE
8
Layer 1
10
222.133763
20
12.966487
11
214.612053
21
12.530650
0
LINE
8
Layer 1
10
214.612053
20
12.530650
11
207.720278
21
11.908542
0
LINE
8
Layer 1
10
207.720278
20
11.908542
11
202.346072
21
11.165305
0
LINE
8
Layer 1
10
202.346072
20
11.165305
11
197.729283
21
10.543705
0
LINE
8
Layer 1
10
197.729283
20
10.543705
11
192.899790
21
10.252757
0
LINE
8
Layer 1
10
192.899790
20
10.252757
11
188.430267
21
10.307043
0
LINE
8
Layer 1
10
188.430267
20
10.307043
11
184.893387
21
10.721144
0
LINE
8
Layer 1
10
184.893387
20
10.721144
11
184.893387
21
10.721144
0
LINE
8
Layer 1
10
-26.972282
20
17.123138
11
-26.353624
21
18.708853
0
LINE
8
Layer 1
10
-26.353624
20
18.708853
11
-25.949739
21
20.838624
0
LINE
8
Layer 1
10
-25.949739
20
20.838624
11
-25.758879
21
23.466603
0
LINE
8
Layer 1
10
-25.758879
20
23.466603
11
-25.779297
21
26.546943
0
LINE
8
Layer 1
10
-25.779297
20
26.546943
11
-26.009243
21
30.033799
0
LINE
8
Layer 1
10
-26.009243
20
30.033799
11
-26.446971
21
33.881323
0
LINE
8
Layer 1
10
-26.446971
20
33.881323
11
-27.090732
21
38.043669
0
LINE
8
Layer 1
10
-27.090732
20
38.043669
11
-27.938777
21
42.474990
0
LINE
8
Layer 1
10
-27.938777
20
42.474990
11
-29.048518
21
48.186579
0
LINE
8
Layer 1
10
-29.048518
20
48.186579
11
-29.810198
21
53.186765
0
LINE
8
Layer 1
10
-29.810198
20
53.186765
11
-30.216463
21
57.693950
0
LINE
8
Layer 1
10
-30.216463
20
57.693950
11
-30.259959
21
61.926537
0
LINE
8
Layer 1
10
-30.259959
20
61.926537
11
-29.933333
21
66.102926
0
LINE
8
Layer 1
10
-29.933333
20
66.102926
11
-29.229230
21
70.441519
0
LINE
8
Layer 1
10
-29.229230
20
70.441519
11
-28.140297
21
75.160718
0
LINE
8
Layer 1
10
-28.140297
20
75.160718
11
-26.659179
21
80.478925
0
LINE
8
Layer 1
10
-26.659179
20
80.478925
11
-24.333601
21
87.576665
0
LINE
8
Layer 1
10
-24.333601
20
87.576665
11
-21.990245
21
93.389100
0
LINE
8
Layer 1
10
-21.990245
20
93.389100
11
-20.897185
21
95.625887
0
LINE
8
Layer 1
10
-20.897185
20
95.625887
11
-19.902023
21
97.316419
0
LINE
8
Layer 1
10
-19.902023
20
97.316419
11
-19.038872
21
98.385721
0
LINE
8
Layer 1
10
-19.038872
20
98.385721
11
-18.341847
21
98.758817
0
LINE
8
Layer 1
10
-18.341847
20
98.758817
11
-17.447181
21
98.413698
0
LINE
8
Layer 1
10
-17.447181
20
98.413698
11
-16.381755
21
97.423126
0
LINE
8
Layer 1
10
-16.381755
20
97.423126
11
-15.173749
21
95.854279
0
LINE
8
Layer 1
10
-15.173749
20
95.854279
11
-13.851342
21
93.774335
0
LINE
8
Layer 1
10
-13.851342
20
93.774335
11
-10.976040
21
88.349867
0
LINE
8
Layer 1
10
-10.976040
20
88.349867
11
-7.981280
21
81.687146
0
LINE
8
Layer 1
10
-7.981280
20
81.687146
11
-5.092492
21
74.323594
0
LINE
8
Layer 1
10
-5.092492
20
74.323594
11
-2.535108
21
66.796634
0
LINE
8
Layer 1
10
-2.535108
20
66.796634
11
-0.534559
21
59.643689
0
LINE
8
Layer 1
10
-0.534559
20
59.643689
11
0.186455
21
56.375418
0
LINE
8
Layer 1
10
0.186455
20
56.375418
11
0.683724
21
53.402183
0
LINE
8
Layer 1
10
0.683724
20
53.402183
11
0.938755
21
50.632560
0
LINE
8
Layer 1
10
0.938755
20
50.632560
11
0.977516
21
47.803889
0
LINE
8
Layer 1
10
0.977516
20
47.803889
11
0.809952
21
44.939540
0
LINE
8
Layer 1
10
0.809952
20
44.939540
11
0.446006
21
42.062881
0
LINE
8
Layer 1
10
0.446006
20
42.062881
11
-0.104376
21
39.197283
0
LINE
8
Layer 1
10
-0.104376
20
39.197283
11
-0.831252
21
36.366115
0
LINE
8
Layer 1
10
-0.831252
20
36.366115
11
-1.724675
21
33.592746
0
LINE
8
Layer 1
10
-1.724675
20
33.592746
11
-2.774703
21
30.900546
0
LINE
8
Layer 1
10
-2.774703
20
30.900546
11
-3.971391
21
28.312883
0
LINE
8
Layer 1
10
-3.971391
20
28.312883
11
-5.304794
21
25.853128
0
LINE
8
Layer 1
10
-5.304794
20
25.853128
11
-6.764969
21
23.544649
0
LINE
8
Layer 1
10
-6.764969
20
23.544649
11
-8.341971
21
21.410816
0
LINE
8
Layer 1
10
-8.341971
20
21.410816
11
-10.025856
21
19.474998
0
LINE
8
Layer 1
10
-10.025856
20
19.474998
11
-11.806680
21
17.760566
0
LINE
8
Layer 1
10
-11.806680
20
17.760566
11
-13.674497
21
16.290887
0
LINE
8
Layer 1
10
-13.674497
20
16.290887
11
-15.619365
21
15.089331
0
LINE
8
Layer 1
10
-15.619365
20
15.089331
11
-19.175041
21
13.345373
0
LINE
8
Layer 1
10
-19.175041
20
13.345373
11
-22.197706
21
12.186194
0
LINE
8
Layer 1
10
-22.197706
20
12.186194
11
-24.648642
21
11.604861
0
LINE
8
Layer 1
10
-24.648642
20
11.604861
11
-26.489132
21
11.594437
0
LINE
8
Layer 1
10
-26.489132
20
11.594437
11
-27.168361
21
11.801149
0
LINE
8
Layer 1
10
-27.168361
20
11.801149
11
-27.680459
21
12.147987
0
LINE
8
Layer 1
10
-27.680459
20
12.147987
11
-28.020587
21
12.634086
0
LINE
8
Layer 1
10
-28.020587
20
12.634086
11
-28.183905
21
13.258578
0
LINE
8
Layer 1
10
-28.183905
20
13.258578
11
-28.165573
21
14.020596
0
LINE
8
Layer 1
10
-28.165573
20
14.020596
11
-27.960751
21
14.919273
0
LINE
8
Layer 1
10
-27.960751
20
14.919273
11
-26.972282
21
17.123138
0
LINE
8
Layer 1
10
-26.972282
20
17.123138
11
-26.972282
21
17.123138
0
LINE
8
Layer 1
10
62.470654
20
22.247362
11
60.334546
21
24.633593
0
LINE
8
Layer 1
10
60.334546
20
24.633593
11
58.878289
21
26.414724
0
LINE
8
Layer 1
10
58.878289
20
26.414724
11
58.166023
21
27.661495
0
LINE
8
Layer 1
10
58.166023
20
27.661495
11
58.108932
21
28.106601
0
LINE
8
Layer 1
10
58.108932
20
28.106601
11
58.261892
21
28.444644
0
LINE
8
Layer 1
10
58.261892
20
28.444644
11
58.632921
21
28.684467
0
LINE
8
Layer 1
10
58.632921
20
28.684467
11
59.230037
21
28.834911
0
LINE
8
Layer 1
10
59.230037
20
28.834911
11
61.134600
21
28.903035
0
LINE
8
Layer 1
10
61.134600
20
28.903035
11
68.009550
21
28.355808
0
LINE
8
Layer 1
10
68.009550
20
28.355808
11
70.896981
21
27.989384
0
LINE
8
Layer 1
10
70.896981
20
27.989384
11
73.424850
21
27.472925
0
LINE
8
Layer 1
10
73.424850
20
27.472925
11
75.597369
21
26.804125
0
LINE
8
Layer 1
10
75.597369
20
26.804125
11
77.418749
21
25.980678
0
LINE
8
Layer 1
10
77.418749
20
25.980678
11
78.893203
21
25.000280
0
LINE
8
Layer 1
10
78.893203
20
25.000280
11
80.024944
21
23.860623
0
LINE
8
Layer 1
10
80.024944
20
23.860623
11
80.818182
21
22.559403
0
LINE
8
Layer 1
10
80.818182
20
22.559403
11
81.277130
21
21.094315
0
LINE
8
Layer 1
10
81.277130
20
21.094315
11
81.426428
21
19.580356
0
LINE
8
Layer 1
10
81.426428
20
19.580356
11
81.276544
21
18.285380
0
LINE
8
Layer 1
10
81.276544
20
18.285380
11
80.853741
21
17.207779
0
LINE
8
Layer 1
10
80.853741
20
17.207779
11
80.184280
21
16.345941
0
LINE
8
Layer 1
10
80.184280
20
16.345941
11
79.294422
21
15.698256
0
LINE
8
Layer 1
10
79.294422
20
15.698256
11
78.210429
21
15.263115
0
LINE
8
Layer 1
10
78.210429
20
15.263115
11
76.958563
21
15.038907
0
LINE
8
Layer 1
10
76.958563
20
15.038907
11
75.565085
21
15.024022
0
LINE
8
Layer 1
10
75.565085
20
15.024022
11
74.056258
21
15.216850
0
LINE
8
Layer 1
10
74.056258
20
15.216850
11
72.458343
21
15.615781
0
LINE
8
Layer 1
10
72.458343
20
15.615781
11
70.797601
21
16.219205
0
LINE
8
Layer 1
10
70.797601
20
16.219205
11
69.100294
21
17.025512
0
LINE
8
Layer 1
10
69.100294
20
17.025512
11
67.392685
21
18.033091
0
LINE
8
Layer 1
10
67.392685
20
18.033091
11
65.701034
21
19.240332
0
LINE
8
Layer 1
10
65.701034
20
19.240332
11
64.051603
21
20.645626
0
LINE
8
Layer 1
10
64.051603
20
20.645626
11
62.470654
21
22.247362
0
LINE
8
Layer 1
10
62.470654
20
22.247362
11
62.470654
21
22.247362
0
LINE
8
Layer 1
10
128.105490
20
17.819323
11
127.091260
21
18.613316
0
LINE
8
Layer 1
10
127.091260
20
18.613316
11
126.494608
21
19.411935
0
LINE
8
Layer 1
10
126.494608
20
19.411935
11
126.325344
21
20.232947
0
LINE
8
Layer 1
10
126.325344
20
20.232947
11
126.593278
21
21.094121
0
LINE
8
Layer 1
10
126.593278
20
21.094121
11
127.308220
21
22.013224
0
LINE
8
Layer 1
10
127.308220
20
22.013224
11
128.479980
21
23.008023
0
LINE
8
Layer 1
10
128.479980
20
23.008023
11
130.118366
21
24.096288
0
LINE
8
Layer 1
10
130.118366
20
24.096288
11
132.233190
21
25.295785
0
LINE
8
Layer 1
10
132.233190
20
25.295785
11
134.036987
21
26.162959
0
LINE
8
Layer 1
10
134.036987
20
26.162959
11
135.860693
21
26.855812
0
LINE
8
Layer 1
10
135.860693
20
26.855812
11
137.681805
21
27.379417
0
LINE
8
Layer 1
10
137.681805
20
27.379417
11
139.477822
21
27.738846
0
LINE
8
Layer 1
10
139.477822
20
27.738846
11
141.226241
21
27.939171
0
LINE
8
Layer 1
10
141.226241
20
27.939171
11
142.904559
21
27.985464
0
LINE
8
Layer 1
10
142.904559
20
27.985464
11
144.490274
21
27.882796
0
LINE
8
Layer 1
10
144.490274
20
27.882796
11
145.960884
21
27.636240
0
LINE
8
Layer 1
10
145.960884
20
27.636240
11
147.293887
21
27.250868
0
LINE
8
Layer 1
10
147.293887
20
27.250868
11
148.466779
21
26.731751
0
LINE
8
Layer 1
10
148.466779
20
26.731751
11
149.457058
21
26.083962
0
LINE
8
Layer 1
10
149.457058
20
26.083962
11
150.242222
21
25.312573
0
LINE
8
Layer 1
10
150.242222
20
25.312573
11
150.799769
21
24.422655
0
LINE
8
Layer 1
10
150.799769
20
24.422655
11
151.107196
21
23.419281
0
LINE
8
Layer 1
10
151.107196
20
23.419281
11
151.142001
21
22.307523
0
LINE
8
Layer 1
10
151.142001
20
22.307523
11
150.881681
21
21.092452
0
LINE
8
Layer 1
10
150.881681
20
21.092452
11
150.411994
21
20.150914
0
LINE
8
Layer 1
10
150.411994
20
20.150914
11
149.666725
21
19.286311
0
LINE
8
Layer 1
10
149.666725
20
19.286311
11
148.677674
21
18.503213
0
LINE
8
Layer 1
10
148.677674
20
18.503213
11
147.476643
21
17.806190
0
LINE
8
Layer 1
10
147.476643
20
17.806190
11
144.565846
21
16.688650
0
LINE
8
Layer 1
10
144.565846
20
16.688650
11
141.188743
21
15.970253
0
LINE
8
Layer 1
10
141.188743
20
15.970253
11
137.599747
21
15.687561
0
LINE
8
Layer 1
10
137.599747
20
15.687561
11
134.053265
21
15.877134
0
LINE
8
Layer 1
10
134.053265
20
15.877134
11
132.375471
21
16.160446
0
LINE
8
Layer 1
10
132.375471
20
16.160446
11
130.803710
21
16.575534
0
LINE
8
Layer 1
10
130.803710
20
16.575534
11
129.369782
21
17.126970
0
LINE
8
Layer 1
10
129.369782
20
17.126970
11
128.105490
21
17.819323
0
LINE
8
Layer 1
10
128.105490
20
17.819323
11
128.105490
21
17.819323
0
LINE
8
Layer 1
10
4.328197
20
20.442268
11
3.674973
21
21.248533
0
LINE
8
Layer 1
10
3.674973
20
21.248533
11
3.235366
21
22.127706
0
LINE
8
Layer 1
10
3.235366
20
22.127706
11
2.997287
21
23.062551
0
LINE
8
Layer 1
10
2.997287
20
23.062551
11
2.948647
21
24.035830
0
LINE
8
Layer 1
10
2.948647
20
24.035830
11
3.077357
21
25.030306
0
LINE
8
Layer 1
10
3.077357
20
25.030306
11
3.371330
21
26.028740
0
LINE
8
Layer 1
10
3.371330
20
26.028740
11
4.406708
21
27.968535
0
LINE
8
Layer 1
10
4.406708
20
27.968535
11
5.958073
21
29.717314
0
LINE
8
Layer 1
10
5.958073
20
29.717314
11
7.928714
21
31.137177
0
LINE
8
Layer 1
10
7.928714
20
31.137177
11
9.041043
21
31.680670
0
LINE
8
Layer 1
10
9.041043
20
31.680670
11
10.221925
21
32.090221
0
LINE
8
Layer 1
10
10.221925
20
32.090221
11
11.459272
21
32.348593
0
LINE
8
Layer 1
10
11.459272
20
32.348593
11
12.740996
21
32.438547
0
LINE
8
Layer 1
10
12.740996
20
32.438547
11
14.350469
21
32.346082
0
LINE
8
Layer 1
10
14.350469
20
32.346082
11
15.699697
21
32.067341
0
LINE
8
Layer 1
10
15.699697
20
32.067341
11
16.790572
21
31.600309
0
LINE
8
Layer 1
10
16.790572
20
31.600309
11
17.624989
21
30.942967
0
LINE
8
Layer 1
10
17.624989
20
30.942967
11
18.204839
21
30.093300
0
LINE
8
Layer 1
10
18.204839
20
30.093300
11
18.532015
21
29.049290
0
LINE
8
Layer 1
10
18.532015
20
29.049290
11
18.608410
21
27.808922
0
LINE
8
Layer 1
10
18.608410
20
27.808922
11
18.435916
21
26.370177
0
LINE
8
Layer 1
10
18.435916
20
26.370177
11
18.125231
21
25.240855
0
LINE
8
Layer 1
10
18.125231
20
25.240855
11
17.651991
21
24.176399
0
LINE
8
Layer 1
10
17.651991
20
24.176399
11
17.034715
21
23.184590
0
LINE
8
Layer 1
10
17.034715
20
23.184590
11
16.291920
21
22.273208
0
LINE
8
Layer 1
10
16.291920
20
22.273208
11
14.503841
21
20.722851
0
LINE
8
Layer 1
10
14.503841
20
20.722851
11
12.435893
21
19.587576
0
LINE
8
Layer 1
10
12.435893
20
19.587576
11
10.236216
21
18.929632
0
LINE
8
Layer 1
10
10.236216
20
18.929632
11
8.052948
21
18.811268
0
LINE
8
Layer 1
10
8.052948
20
18.811268
11
7.013761
21
18.973880
0
LINE
8
Layer 1
10
7.013761
20
18.973880
11
6.034229
21
19.294730
0
LINE
8
Layer 1
10
6.034229
20
19.294730
11
5.132868
21
19.781600
0
LINE
8
Layer 1
10
5.132868
20
19.781600
11
4.328197
21
20.442268
0
LINE
8
Layer 1
10
4.328197
20
20.442268
11
4.328197
21
20.442268
0
LINE
8
Layer 1
10
88.903502
20
25.457470
11
89.001724
21
26.158643
0
LINE
8
Layer 1
10
89.001724
20
26.158643
11
89.283229
21
26.812775
0
LINE
8
Layer 1
10
89.283229
20
26.812775
11
89.728278
21
27.405551
0
LINE
8
Layer 1
10
89.728278
20
27.405551
11
90.317134
21
27.922653
0
LINE
8
Layer 1
10
90.317134
20
27.922653
11
91.847310
21
28.672570
0
LINE
8
Layer 1
10
91.847310
20
28.672570
11
93.715846
21
28.947995
0
LINE
8
Layer 1
10
93.715846
20
28.947995
11
94.772242
21
29.164560
0
LINE
8
Layer 1
10
94.772242
20
29.164560
11
95.931177
21
29.785243
0
LINE
8
Layer 1
10
95.931177
20
29.785243
11
97.154886
21
30.766523
0
LINE
8
Layer 1
10
97.154886
20
30.766523
11
98.405603
21
32.064878
0
LINE
8
Layer 1
10
98.405603
20
32.064878
11
99.645564
21
33.636789
0
LINE
8
Layer 1
10
99.645564
20
33.636789
11
100.837004
21
35.438734
0
LINE
8
Layer 1
10
100.837004
20
35.438734
11
101.942158
21
37.427194
0
LINE
8
Layer 1
10
101.942158
20
37.427194
11
102.923261
21
39.558647
0
LINE
8
Layer 1
10
102.923261
20
39.558647
11
104.036066
21
42.035584
0
LINE
8
Layer 1
10
104.036066
20
42.035584
11
105.258936
21
44.360899
0
LINE
8
Layer 1
10
105.258936
20
44.360899
11
106.590238
21
46.533462
0
LINE
8
Layer 1
10
106.590238
20
46.533462
11
108.028339
21
48.552146
0
LINE
8
Layer 1
10
108.028339
20
48.552146
11
109.571608
21
50.415821
0
LINE
8
Layer 1
10
109.571608
20
50.415821
11
111.218411
21
52.123359
0
LINE
8
Layer 1
10
111.218411
20
52.123359
11
112.967114
21
53.673632
0
LINE
8
Layer 1
10
112.967114
20
53.673632
11
114.816087
21
55.065509
0
LINE
8
Layer 1
10
114.816087
20
55.065509
11
116.763695
21
56.297864
0
LINE
8
Layer 1
10
116.763695
20
56.297864
11
118.808306
21
57.369566
0
LINE
8
Layer 1
10
118.808306
20
57.369566
11
120.948287
21
58.279488
0
LINE
8
Layer 1
10
120.948287
20
58.279488
11
123.182005
21
59.026501
0
LINE
8
Layer 1
10
123.182005
20
59.026501
11
125.507828
21
59.609475
0
LINE
8
Layer 1
10
125.507828
20
59.609475
11
127.924123
21
60.027283
0
LINE
8
Layer 1
10
127.924123
20
60.027283
11
130.429257
21
60.278796
0
LINE
8
Layer 1
10
130.429257
20
60.278796
11
133.021598
21
60.362884
0
LINE
8
Layer 1
10
133.021598
20
60.362884
11
144.171501
21
60.362884
0
LINE
8
Layer 1
10
144.171501
20
60.362884
11
136.341835
21
45.528070
0
LINE
8
Layer 1
10
136.341835
20
45.528070
11
134.596349
21
42.460072
0
LINE
8
Layer 1
10
134.596349
20
42.460072
11
132.634170
21
39.427776
0
LINE
8
Layer 1
10
132.634170
20
39.427776
11
130.522113
21
36.509716
0
LINE
8
Layer 1
10
130.522113
20
36.509716
11
128.326990
21
33.784423
0
LINE
8
Layer 1
10
128.326990
20
33.784423
11
126.115615
21
31.330428
0
LINE
8
Layer 1
10
126.115615
20
31.330428
11
123.954801
21
29.226263
0
LINE
8
Layer 1
10
123.954801
20
29.226263
11
121.911362
21
27.550460
0
LINE
8
Layer 1
10
121.911362
20
27.550460
11
120.052112
21
26.381550
0
LINE
8
Layer 1
10
120.052112
20
26.381550
11
118.024412
21
25.462348
0
LINE
8
Layer 1
10
118.024412
20
25.462348
11
115.790444
21
24.651564
0
LINE
8
Layer 1
10
115.790444
20
24.651564
11
110.889752
21
23.360776
0
LINE
8
Layer 1
10
110.889752
20
23.360776
11
105.722132
21
22.520225
0
LINE
8
Layer 1
10
105.722132
20
22.520225
11
100.659682
21
22.140953
0
LINE
8
Layer 1
10
100.659682
20
22.140953
11
96.074498
21
22.234001
0
LINE
8
Layer 1
10
96.074498
20
22.234001
11
94.077161
21
22.461095
0
LINE
8
Layer 1
10
94.077161
20
22.461095
11
92.338676
21
22.810410
0
LINE
8
Layer 1
10
92.338676
20
22.810410
11
90.905556
21
23.283324
0
LINE
8
Layer 1
10
90.905556
20
23.283324
11
89.824312
21
23.881219
0
LINE
8
Layer 1
10
89.824312
20
23.881219
11
89.141457
21
24.605474
0
LINE
8
Layer 1
10
89.141457
20
24.605474
11
88.903502
21
25.457470
0
LINE
8
Layer 1
10
88.903502
20
25.457470
11
88.903502
21
25.457470
0
LINE
8
Layer 1
10
151.733230
20
32.142891
11
152.008656
21
33.623249
0
LINE
8
Layer 1
10
152.008656
20
33.623249
11
152.758579
21
35.159611
0
LINE
8
Layer 1
10
152.758579
20
35.159611
11
153.868463
21
36.570480
0
LINE
8
Layer 1
10
153.868463
20
36.570480
11
155.223774
21
37.674362
0
LINE
8
Layer 1
10
155.223774
20
37.674362
11
155.924950
21
38.414488
0
LINE
8
Layer 1
10
155.924950
20
38.414488
11
156.579086
21
39.698001
0
LINE
8
Layer 1
10
156.579086
20
39.698001
11
157.171865
21
41.454403
0
LINE
8
Layer 1
10
157.171865
20
41.454403
11
157.688970
21
43.613196
0
LINE
8
Layer 1
10
157.688970
20
43.613196
11
158.438893
21
48.855970
0
LINE
8
Layer 1
10
158.438893
20
48.855970
11
158.714319
21
54.862345
0
LINE
8
Layer 1
10
158.714319
20
54.862345
11
158.817069
21
57.860132
0
LINE
8
Layer 1
10
158.817069
20
57.860132
11
159.118740
21
60.821870
0
LINE
8
Layer 1
10
159.118740
20
60.821870
11
159.609460
21
63.730675
0
LINE
8
Layer 1
10
159.609460
20
63.730675
11
160.279357
21
66.569663
0
LINE
8
Layer 1
10
160.279357
20
66.569663
11
161.118560
21
69.321949
0
LINE
8
Layer 1
10
161.118560
20
69.321949
11
162.117198
21
71.970651
0
LINE
8
Layer 1
10
162.117198
20
71.970651
11
163.265398
21
74.498883
0
LINE
8
Layer 1
10
163.265398
20
74.498883
11
164.553290
21
76.889763
0
LINE
8
Layer 1
10
164.553290
20
76.889763
11
165.971001
21
79.126407
0
LINE
8
Layer 1
10
165.971001
20
79.126407
11
167.508661
21
81.191930
0
LINE
8
Layer 1
10
167.508661
20
81.191930
11
169.156398
21
83.069448
0
LINE
8
Layer 1
10
169.156398
20
83.069448
11
170.904340
21
84.742078
0
LINE
8
Layer 1
10
170.904340
20
84.742078
11
172.742616
21
86.192936
0
LINE
8
Layer 1
10
172.742616
20
86.192936
11
174.661354
21
87.405138
0
LINE
8
Layer 1
10
174.661354
20
87.405138
11
176.650683
21
88.361799
0
LINE
8
Layer 1
10
176.650683
20
88.361799
11
178.700732
21
89.046037
0
LINE
8
Layer 1
10
178.700732
20
89.046037
11
179.561401
21
89.172174
0
LINE
8
Layer 1
10
179.561401
20
89.172174
11
180.362936
21
89.093026
0
LINE
8
Layer 1
10
180.362936
20
89.093026
11
181.105540
21
88.819711
0
LINE
8
Layer 1
10
181.105540
20
88.819711
11
181.789416
21
88.363349
0
LINE
8
Layer 1
10
181.789416
20
88.363349
11
182.414768
21
87.735059
0
LINE
8
Layer 1
10
182.414768
20
87.735059
11
182.981799
21
86.945960
0
LINE
8
Layer 1
10
182.981799
20
86.945960
11
183.941714
21
84.929810
0
LINE
8
Layer 1
10
183.941714
20
84.929810
11
184.670786
21
82.403852
0
LINE
8
Layer 1
10
184.670786
20
82.403852
11
185.170645
21
79.457039
0
LINE
8
Layer 1
10
185.170645
20
79.457039
11
185.442918
21
76.178324
0
LINE
8
Layer 1
10
185.442918
20
76.178324
11
185.489231
21
72.656658
0
LINE
8
Layer 1
10
185.489231
20
72.656658
11
185.311214
21
68.980994
0
LINE
8
Layer 1
10
185.311214
20
68.980994
11
184.910492
21
65.240285
0
LINE
8
Layer 1
10
184.910492
20
65.240285
11
184.288694
21
61.523484
0
LINE
8
Layer 1
10
184.288694
20
61.523484
11
183.447448
21
57.919542
0
LINE
8
Layer 1
10
183.447448
20
57.919542
11
182.388381
21
54.517413
0
LINE
8
Layer 1
10
182.388381
20
54.517413
11
181.113120
21
51.406049
0
LINE
8
Layer 1
10
181.113120
20
51.406049
11
179.623294
21
48.674402
0
LINE
8
Layer 1
10
179.623294
20
48.674402
11
177.920529
21
46.411426
0
LINE
8
Layer 1
10
177.920529
20
46.411426
11
174.380350
21
42.935964
0
LINE
8
Layer 1
10
174.380350
20
42.935964
11
170.280276
21
39.597303
0
LINE
8
Layer 1
10
170.280276
20
39.597303
11
165.938363
21
36.568743
0
LINE
8
Layer 1
10
165.938363
20
36.568743
11
161.672668
21
34.023581
0
LINE
8
Layer 1
10
161.672668
20
34.023581
11
157.801250
21
32.135117
0
LINE
8
Layer 1
10
157.801250
20
32.135117
11
156.112788
21
31.491302
0
LINE
8
Layer 1
10
156.112788
20
31.491302
11
154.642166
21
31.076648
0
LINE
8
Layer 1
10
154.642166
20
31.076648
11
153.429143
21
30.912818
0
LINE
8
Layer 1
10
153.429143
20
30.912818
11
152.513474
21
31.021474
0
LINE
8
Layer 1
10
152.513474
20
31.021474
11
151.934917
21
31.424277
0
LINE
8
Layer 1
10
151.934917
20
31.424277
11
151.733230
21
32.142891
0
LINE
8
Layer 1
10
151.733230
20
32.142891
11
151.733230
21
32.142891
0
LINE
8
Layer 1
10
41.175776
20
41.350617
11
36.844714
21
43.499852
0
LINE
8
Layer 1
10
36.844714
20
43.499852
11
32.992975
21
45.856805
0
LINE
8
Layer 1
10
32.992975
20
45.856805
11
29.821544
21
48.203612
0
LINE
8
Layer 1
10
29.821544
20
48.203612
11
27.531408
21
50.322409
0
LINE
8
Layer 1
10
27.531408
20
50.322409
11
26.779635
21
51.228221
0
LINE
8
Layer 1
10
26.779635
20
51.228221
11
26.323554
21
51.995331
0
LINE
8
Layer 1
10
26.323554
20
51.995331
11
26.188291
21
52.596506
0
LINE
8
Layer 1
10
26.188291
20
52.596506
11
26.398968
21
53.004514
0
LINE
8
Layer 1
10
26.398968
20
53.004514
11
26.980709
21
53.192121
0
LINE
8
Layer 1
10
26.980709
20
53.192121
11
27.958636
21
53.132095
0
LINE
8
Layer 1
10
27.958636
20
53.132095
11
29.357874
21
52.797201
0
LINE
8
Layer 1
10
29.357874
20
52.797201
11
31.203544
21
52.160208
0
LINE
8
Layer 1
10
31.203544
20
52.160208
11
32.779509
21
51.766915
0
LINE
8
Layer 1
10
32.779509
20
51.766915
11
34.635679
21
51.672076
0
LINE
8
Layer 1
10
34.635679
20
51.672076
11
36.732258
21
51.865551
0
LINE
8
Layer 1
10
36.732258
20
51.865551
11
39.029449
21
52.337204
0
LINE
8
Layer 1
10
39.029449
20
52.337204
11
41.487455
21
53.076895
0
LINE
8
Layer 1
10
41.487455
20
53.076895
11
44.066478
21
54.074487
0
LINE
8
Layer 1
10
44.066478
20
54.074487
11
46.726722
21
55.319841
0
LINE
8
Layer 1
10
46.726722
20
55.319841
11
49.428389
21
56.802820
0
LINE
8
Layer 1
10
49.428389
20
56.802820
11
54.340523
21
59.408128
0
LINE
8
Layer 1
10
54.340523
20
59.408128
11
59.186806
21
61.396019
0
LINE
8
Layer 1
10
59.186806
20
61.396019
11
63.945110
21
62.764394
0
LINE
8
Layer 1
10
63.945110
20
62.764394
11
68.593306
21
63.511154
0
LINE
8
Layer 1
10
68.593306
20
63.511154
11
70.869198
21
63.650772
0
LINE
8
Layer 1
10
70.869198
20
63.650772
11
73.109265
21
63.634200
0
LINE
8
Layer 1
10
73.109265
20
63.634200
11
75.310741
21
63.461174
0
LINE
8
Layer 1
10
75.310741
20
63.461174
11
77.470859
21
63.131432
0
LINE
8
Layer 1
10
77.470859
20
63.131432
11
79.586853
21
62.644713
0
LINE
8
Layer 1
10
79.586853
20
62.644713
11
81.655958
21
62.000752
0
LINE
8
Layer 1
10
81.655958
20
62.000752
11
83.675406
21
61.199289
0
LINE
8
Layer 1
10
83.675406
20
61.199289
11
85.642433
21
60.240061
0
LINE
8
Layer 1
10
85.642433
20
60.240061
11
88.242413
21
58.603389
0
LINE
8
Layer 1
10
88.242413
20
58.603389
11
90.211392
21
56.871555
0
LINE
8
Layer 1
10
90.211392
20
56.871555
11
91.530174
21
55.141150
0
LINE
8
Layer 1
10
91.530174
20
55.141150
11
92.179561
21
53.508765
0
LINE
8
Layer 1
10
92.179561
20
53.508765
11
92.247232
21
52.759514
0
LINE
8
Layer 1
10
92.247232
20
52.759514
11
92.140357
21
52.070991
0
LINE
8
Layer 1
10
92.140357
20
52.070991
11
91.856534
21
51.455268
0
LINE
8
Layer 1
10
91.856534
20
51.455268
11
91.393365
21
50.924420
0
LINE
8
Layer 1
10
91.393365
20
50.924420
11
90.748451
21
50.490521
0
LINE
8
Layer 1
10
90.748451
20
50.490521
11
89.919390
21
50.165644
0
LINE
8
Layer 1
10
89.919390
20
50.165644
11
88.903785
21
49.961864
0
LINE
8
Layer 1
10
88.903785
20
49.961864
11
87.699235
21
49.891254
0
LINE
8
Layer 1
10
87.699235
20
49.891254
11
86.627194
21
49.748769
0
LINE
8
Layer 1
10
86.627194
20
49.748769
11
85.377805
21
49.340401
0
LINE
8
Layer 1
10
85.377805
20
49.340401
11
82.527661
21
47.840557
0
LINE
8
Layer 1
10
82.527661
20
47.840557
11
79.510149
21
45.620792
0
LINE
8
Layer 1
10
79.510149
20
45.620792
11
76.686616
21
42.910177
0
LINE
8
Layer 1
10
76.686616
20
42.910177
11
75.269266
21
41.496822
0
LINE
8
Layer 1
10
75.269266
20
41.496822
11
73.735098
21
40.258484
0
LINE
8
Layer 1
10
73.735098
20
40.258484
11
72.086227
21
39.195257
0
LINE
8
Layer 1
10
72.086227
20
39.195257
11
70.324769
21
38.307233
0
LINE
8
Layer 1
10
70.324769
20
38.307233
11
68.452841
21
37.594505
0
LINE
8
Layer 1
10
68.452841
20
37.594505
11
66.472559
21
37.057166
0
LINE
8
Layer 1
10
66.472559
20
37.057166
11
64.386038
21
36.695310
0
LINE
8
Layer 1
10
64.386038
20
36.695310
11
62.195396
21
36.509028
0
LINE
8
Layer 1
10
62.195396
20
36.509028
11
59.902747
21
36.498414
0
LINE
8
Layer 1
10
59.902747
20
36.498414
11
57.510207
21
36.663561
0
LINE
8
Layer 1
10
57.510207
20
36.663561
11
55.019894
21
37.004561
0
LINE
8
Layer 1
10
55.019894
20
37.004561
11
52.433923
21
37.521508
0
LINE
8
Layer 1
10
52.433923
20
37.521508
11
46.983469
21
39.083612
0
LINE
8
Layer 1
10
46.983469
20
39.083612
11
41.175776
21
41.350617
0
LINE
8
Layer 1
10
41.175776
20
41.350617
11
41.175776
21
41.350617
0
LINE
8
Layer 1
10
85.412967
20
41.455773
11
85.497882
21
42.527165
0
LINE
8
Layer 1
10
85.497882
20
42.527165
11
85.740060
21
43.431622
0
LINE
8
Layer 1
10
85.740060
20
43.431622
11
86.120646
21
44.171835
0
LINE
8
Layer 1
10
86.120646
20
44.171835
11
86.620784
21
44.750500
0
LINE
8
Layer 1
10
86.620784
20
44.750500
11
87.221622
21
45.170309
0
LINE
8
Layer 1
10
87.221622
20
45.170309
11
87.904305
21
45.433956
0
LINE
8
Layer 1
10
87.904305
20
45.433956
11
88.649978
21
45.544135
0
LINE
8
Layer 1
10
88.649978
20
45.544135
11
89.439788
21
45.503538
0
LINE
8
Layer 1
10
89.439788
20
45.503538
11
91.076399
21
44.980795
0
LINE
8
Layer 1
10
91.076399
20
44.980795
11
92.663304
21
43.887275
0
LINE
8
Layer 1
10
92.663304
20
43.887275
11
94.049668
21
42.244527
0
LINE
8
Layer 1
10
94.049668
20
42.244527
11
94.620512
21
41.223926
0
LINE
8
Layer 1
10
94.620512
20
41.223926
11
95.084657
21
40.074098
0
LINE
8
Layer 1
10
95.084657
20
40.074098
11
95.249409
21
39.241451
0
LINE
8
Layer 1
10
95.249409
20
39.241451
11
95.185052
21
38.464667
0
LINE
8
Layer 1
10
95.185052
20
38.464667
11
94.908586
21
37.760746
0
LINE
8
Layer 1
10
94.908586
20
37.760746
11
94.437012
21
37.146688
0
LINE
8
Layer 1
10
94.437012
20
37.146688
11
93.787330
21
36.639494
0
LINE
8
Layer 1
10
93.787330
20
36.639494
11
92.976541
21
36.256164
0
LINE
8
Layer 1
10
92.976541
20
36.256164
11
92.021645
21
36.013699
0
LINE
8
Layer 1
10
92.021645
20
36.013699
11
90.939643
21
35.929100
0
LINE
8
Layer 1
10
90.939643
20
35.929100
11
89.829452
21
36.041900
0
LINE
8
Layer 1
10
89.829452
20
36.041900
11
88.793740
21
36.365188
0
LINE
8
Layer 1
10
88.793740
20
36.365188
11
87.855177
21
36.876297
0
LINE
8
Layer 1
10
87.855177
20
36.876297
11
87.036430
21
37.552559
0
LINE
8
Layer 1
10
87.036430
20
37.552559
11
86.360167
21
38.371305
0
LINE
8
Layer 1
10
86.360167
20
38.371305
11
85.849057
21
39.309868
0
LINE
8
Layer 1
10
85.849057
20
39.309868
11
85.525767
21
40.345580
0
LINE
8
Layer 1
10
85.525767
20
40.345580
11
85.412967
21
41.455773
0
LINE
8
Layer 1
10
85.412967
20
41.455773
11
85.412967
21
41.455773
0
LINE
8
Layer 1
10
143.006882
20
42.910177
11
142.553700
21
43.793691
0
LINE
8
Layer 1
10
142.553700
20
43.793691
11
142.254736
21
44.706291
0
LINE
8
Layer 1
10
142.254736
20
44.706291
11
142.078193
21
46.554112
0
LINE
8
Layer 1
10
142.078193
20
46.554112
11
142.394705
21
48.324364
0
LINE
8
Layer 1
10
142.394705
20
48.324364
11
143.121723
21
49.887772
0
LINE
8
Layer 1
10
143.121723
20
49.887772
11
144.176698
21
51.115060
0
LINE
8
Layer 1
10
144.176698
20
51.115060
11
145.477083
21
51.876953
0
LINE
8
Layer 1
10
145.477083
20
51.876953
11
146.193507
21
52.042977
0
LINE
8
Layer 1
10
146.193507
20
52.042977
11
146.940329
21
52.044173
0
LINE
8
Layer 1
10
146.940329
20
52.044173
11
147.707228
21
51.864383
0
LINE
8
Layer 1
10
147.707228
20
51.864383
11
148.483887
21
51.487447
0
LINE
8
Layer 1
10
148.483887
20
51.487447
11
149.228827
21
50.920113
0
LINE
8
Layer 1
10
149.228827
20
50.920113
11
149.873824
21
50.216605
0
LINE
8
Layer 1
10
149.873824
20
50.216605
11
150.864267
21
48.496426
0
LINE
8
Layer 1
10
150.864267
20
48.496426
11
151.455773
21
46.517629
0
LINE
8
Layer 1
10
151.455773
20
46.517629
11
151.648897
21
44.470937
0
LINE
8
Layer 1
10
151.648897
20
44.470937
11
151.444196
21
42.547069
0
LINE
8
Layer 1
10
151.444196
20
42.547069
11
150.842226
21
40.936747
0
LINE
8
Layer 1
10
150.842226
20
40.936747
11
150.392439
21
40.308766
0
LINE
8
Layer 1
10
150.392439
20
40.308766
11
149.843543
21
39.830692
0
LINE
8
Layer 1
10
149.843543
20
39.830692
11
149.195608
21
39.526365
0
LINE
8
Layer 1
10
149.195608
20
39.526365
11
148.448703
21
39.419624
0
LINE
8
Layer 1
10
148.448703
20
39.419624
11
147.003157
21
39.695049
0
LINE
8
Layer 1
10
147.003157
20
39.695049
11
145.495298
21
40.444970
0
LINE
8
Layer 1
10
145.495298
20
40.444970
11
144.103687
21
41.554856
0
LINE
8
Layer 1
10
144.103687
20
41.554856
11
143.006882
21
42.910177
0
LINE
8
Layer 1
10
143.006882
20
42.910177
11
143.006882
21
42.910177
0
LINE
8
Layer 1
10
225.489451
20
47.597888
11
224.705111
21
48.717883
0
LINE
8
Layer 1
10
224.705111
20
48.717883
11
224.155687
21
49.880085
0
LINE
8
Layer 1
10
224.155687
20
49.880085
11
223.827391
21
51.064232
0
LINE
8
Layer 1
10
223.827391
20
51.064232
11
223.706434
21
52.250063
0
LINE
8
Layer 1
10
223.706434
20
52.250063
11
223.779029
21
53.417314
0
LINE
8
Layer 1
10
223.779029
20
53.417314
11
224.031388
21
54.545722
0
LINE
8
Layer 1
10
224.031388
20
54.545722
11
224.449723
21
55.615027
0
LINE
8
Layer 1
10
224.449723
20
55.615027
11
225.020246
21
56.604965
0
LINE
8
Layer 1
10
225.020246
20
56.604965
11
225.729169
21
57.495273
0
LINE
8
Layer 1
10
225.729169
20
57.495273
11
226.562703
21
58.265690
0
LINE
8
Layer 1
10
226.562703
20
58.265690
11
227.507062
21
58.895953
0
LINE
8
Layer 1
10
227.507062
20
58.895953
11
228.548456
21
59.365800
0
LINE
8
Layer 1
10
228.548456
20
59.365800
11
229.673099
21
59.654967
0
LINE
8
Layer 1
10
229.673099
20
59.654967
11
230.867202
21
59.743194
0
LINE
8
Layer 1
10
230.867202
20
59.743194
11
232.116976
21
59.610216
0
LINE
8
Layer 1
10
232.116976
20
59.610216
11
233.408635
21
59.235773
0
LINE
8
Layer 1
10
233.408635
20
59.235773
11
234.531158
21
58.703546
0
LINE
8
Layer 1
10
234.531158
20
58.703546
11
235.578376
21
58.010855
0
LINE
8
Layer 1
10
235.578376
20
58.010855
11
236.527367
21
57.186890
0
LINE
8
Layer 1
10
236.527367
20
57.186890
11
237.355213
21
56.260837
0
LINE
8
Layer 1
10
237.355213
20
56.260837
11
238.038991
21
55.261885
0
LINE
8
Layer 1
10
238.038991
20
55.261885
11
238.555782
21
54.219222
0
LINE
8
Layer 1
10
238.555782
20
54.219222
11
238.882665
21
53.162034
0
LINE
8
Layer 1
10
238.882665
20
53.162034
11
238.996720
21
52.119512
0
LINE
8
Layer 1
10
238.996720
20
52.119512
11
238.893185
21
50.898469
0
LINE
8
Layer 1
10
238.893185
20
50.898469
11
238.596122
21
49.770826
0
LINE
8
Layer 1
10
238.596122
20
49.770826
11
238.125839
21
48.743381
0
LINE
8
Layer 1
10
238.125839
20
48.743381
11
237.502643
21
47.822932
0
LINE
8
Layer 1
10
237.502643
20
47.822932
11
236.746844
21
47.016278
0
LINE
8
Layer 1
10
236.746844
20
47.016278
11
235.878749
21
46.330217
0
LINE
8
Layer 1
10
235.878749
20
46.330217
11
234.918669
21
45.771547
0
LINE
8
Layer 1
10
234.918669
20
45.771547
11
233.886910
21
45.347067
0
LINE
8
Layer 1
10
233.886910
20
45.347067
11
232.803781
21
45.063576
0
LINE
8
Layer 1
10
232.803781
20
45.063576
11
231.689592
21
44.927872
0
LINE
8
Layer 1
10
231.689592
20
44.927872
11
230.564650
21
44.946753
0
LINE
8
Layer 1
10
230.564650
20
44.946753
11
229.449264
21
45.127019
0
LINE
8
Layer 1
10
229.449264
20
45.127019
11
228.363743
21
45.475466
0
LINE
8
Layer 1
10
228.363743
20
45.475466
11
227.328395
21
45.998895
0
LINE
8
Layer 1
10
227.328395
20
45.998895
11
226.363528
21
46.704103
0
LINE
8
Layer 1
10
226.363528
20
46.704103
11
225.489451
21
47.597888
0
LINE
8
Layer 1
10
225.489451
20
47.597888
11
225.489451
21
47.597888
0
LINE
8
Layer 1
10
11.238978
20
50.282076
11
10.011921
21
51.151506
0
LINE
8
Layer 1
10
10.011921
20
51.151506
11
8.867184
21
52.304906
0
LINE
8
Layer 1
10
8.867184
20
52.304906
11
7.829823
21
53.692558
0
LINE
8
Layer 1
10
7.829823
20
53.692558
11
6.924890
21
55.264741
0
LINE
8
Layer 1
10
6.924890
20
55.264741
11
6.177441
21
56.971735
0
LINE
8
Layer 1
10
6.177441
20
56.971735
11
5.612530
21
58.763822
0
LINE
8
Layer 1
10
5.612530
20
58.763822
11
5.255210
21
60.591282
0
LINE
8
Layer 1
10
5.255210
20
60.591282
11
5.130535
21
62.404395
0
LINE
8
Layer 1
10
5.130535
20
62.404395
11
5.178566
21
64.954614
0
LINE
8
Layer 1
10
5.178566
20
64.954614
11
5.359304
21
66.874810
0
LINE
8
Layer 1
10
5.359304
20
66.874810
11
5.727717
21
68.201998
0
LINE
8
Layer 1
10
5.727717
20
68.201998
11
6.338773
21
68.973197
0
LINE
8
Layer 1
10
6.338773
20
68.973197
11
7.247442
21
69.225423
0
LINE
8
Layer 1
10
7.247442
20
69.225423
11
8.508690
21
68.995693
0
LINE
8
Layer 1
10
8.508690
20
68.995693
11
10.177486
21
68.321024
0
LINE
8
Layer 1
10
10.177486
20
68.321024
11
12.308798
21
67.238433
0
LINE
8
Layer 1
10
12.308798
20
67.238433
11
15.254691
21
65.333139
0
LINE
8
Layer 1
10
15.254691
20
65.333139
11
17.969326
21
62.985370
0
LINE
8
Layer 1
10
17.969326
20
62.985370
11
20.151153
21
60.493190
0
LINE
8
Layer 1
10
20.151153
20
60.493190
11
20.948030
21
59.286092
0
LINE
8
Layer 1
10
20.948030
20
59.286092
11
21.498624
21
58.154664
0
LINE
8
Layer 1
10
21.498624
20
58.154664
11
21.935426
21
56.790551
0
LINE
8
Layer 1
10
21.935426
20
56.790551
11
22.178336
21
55.504230
0
LINE
8
Layer 1
10
22.178336
20
55.504230
11
22.238101
21
54.303946
0
LINE
8
Layer 1
10
22.238101
20
54.303946
11
22.125468
21
53.197948
0
LINE
8
Layer 1
10
22.125468
20
53.197948
11
21.851186
21
52.194482
0
LINE
8
Layer 1
10
21.851186
20
52.194482
11
21.426001
21
51.301794
0
LINE
8
Layer 1
10
21.426001
20
51.301794
11
20.860661
21
50.528132
0
LINE
8
Layer 1
10
20.860661
20
50.528132
11
20.165915
21
49.881743
0
LINE
8
Layer 1
10
20.165915
20
49.881743
11
19.352508
21
49.370874
0
LINE
8
Layer 1
10
19.352508
20
49.370874
11
18.431189
21
49.003771
0
LINE
8
Layer 1
10
18.431189
20
49.003771
11
17.412705
21
48.788681
0
LINE
8
Layer 1
10
17.412705
20
48.788681
11
16.307804
21
48.733852
0
LINE
8
Layer 1
10
16.307804
20
48.733852
11
15.127233
21
48.847530
0
LINE
8
Layer 1
10
15.127233
20
48.847530
11
13.881741
21
49.137962
0
LINE
8
Layer 1
10
13.881741
20
49.137962
11
12.582073
21
49.613395
0
LINE
8
Layer 1
10
12.582073
20
49.613395
11
11.238978
21
50.282076
0
LINE
8
Layer 1
10
11.238978
20
50.282076
11
11.238978
21
50.282076
0
LINE
8
Layer 1
10
190.799486
20
53.962790
11
192.256788
21
56.005054
0
LINE
8
Layer 1
10
192.256788
20
56.005054
11
193.750339
21
57.808438
0
LINE
8
Layer 1
10
193.750339
20
57.808438
11
195.259651
21
59.369971
0
LINE
8
Layer 1
10
195.259651
20
59.369971
11
196.764235
21
60.686685
0
LINE
8
Layer 1
10
196.764235
20
60.686685
11
198.243603
21
61.755608
0
LINE
8
Layer 1
10
198.243603
20
61.755608
11
199.677267
21
62.573771
0
LINE
8
Layer 1
10
199.677267
20
62.573771
11
201.044739
21
63.138203
0
LINE
8
Layer 1
10
201.044739
20
63.138203
11
202.325530
21
63.445936
0
LINE
8
Layer 1
10
202.325530
20
63.445936
11
203.499151
21
63.493999
0
LINE
8
Layer 1
10
203.499151
20
63.493999
11
204.545115
21
63.279421
0
LINE
8
Layer 1
10
204.545115
20
63.279421
11
205.442933
21
62.799234
0
LINE
8
Layer 1
10
205.442933
20
62.799234
11
206.172117
21
62.050467
0
LINE
8
Layer 1
10
206.172117
20
62.050467
11
206.712179
21
61.030150
0
LINE
8
Layer 1
10
206.712179
20
61.030150
11
207.042630
21
59.735314
0
LINE
8
Layer 1
10
207.042630
20
59.735314
11
207.142983
21
58.162987
0
LINE
8
Layer 1
10
207.142983
20
58.162987
11
206.992748
21
56.310201
0
LINE
8
Layer 1
10
206.992748
20
56.310201
11
206.569056
21
54.195472
0
LINE
8
Layer 1
10
206.569056
20
54.195472
11
205.923942
21
52.404077
0
LINE
8
Layer 1
10
205.923942
20
52.404077
11
205.025530
21
50.909873
0
LINE
8
Layer 1
10
205.025530
20
50.909873
11
203.841941
21
49.686717
0
LINE
8
Layer 1
10
203.841941
20
49.686717
11
202.341300
21
48.708466
0
LINE
8
Layer 1
10
202.341300
20
48.708466
11
200.491729
21
47.948978
0
LINE
8
Layer 1
10
200.491729
20
47.948978
11
198.261351
21
47.382107
0
LINE
8
Layer 1
10
198.261351
20
47.382107
11
195.618289
21
46.981712
0
LINE
8
Layer 1
10
195.618289
20
46.981712
11
189.914420
21
46.474405
0
LINE
8
Layer 1
10
189.914420
20
46.474405
11
188.318489
21
46.593803
0
LINE
8
Layer 1
10
188.318489
20
46.593803
11
187.811562
21
46.780032
0
LINE
8
Layer 1
10
187.811562
20
46.780032
11
187.489914
21
47.063285
0
LINE
8
Layer 1
10
187.489914
20
47.063285
11
187.346984
21
47.453069
0
LINE
8
Layer 1
10
187.346984
20
47.453069
11
187.376212
21
47.958888
0
LINE
8
Layer 1
10
187.376212
20
47.958888
11
187.924896
21
49.356648
0
LINE
8
Layer 1
10
187.924896
20
49.356648
11
189.083482
21
51.332603
0
LINE
8
Layer 1
10
189.083482
20
51.332603
11
190.799486
21
53.962790
0
LINE
8
Layer 1
10
190.799486
20
53.962790
11
190.799486
21
53.962790
0
LINE
8
Layer 1
10
35.381895
20
59.199366
11
34.130183
21
60.702456
0
LINE
8
Layer 1
10
34.130183
20
60.702456
11
33.375482
21
62.166348
0
LINE
8
Layer 1
10
33.375482
20
62.166348
11
33.100046
21
63.541354
0
LINE
8
Layer 1
10
33.100046
20
63.541354
11
33.286126
21
64.777784
0
LINE
8
Layer 1
10
33.286126
20
64.777784
11
33.915976
21
65.825949
0
LINE
8
Layer 1
10
33.915976
20
65.825949
11
34.971848
21
66.636158
0
LINE
8
Layer 1
10
34.971848
20
66.636158
11
36.435994
21
67.158722
0
LINE
8
Layer 1
10
36.435994
20
67.158722
11
38.290667
21
67.343953
0
LINE
8
Layer 1
10
38.290667
20
67.343953
11
39.342431
21
67.237089
0
LINE
8
Layer 1
10
39.342431
20
67.237089
11
40.323634
21
66.930813
0
LINE
8
Layer 1
10
40.323634
20
66.930813
11
41.212802
21
66.446602
0
LINE
8
Layer 1
10
41.212802
20
66.446602
11
41.988459
21
65.805930
0
LINE
8
Layer 1
10
41.988459
20
65.805930
11
42.629130
21
65.030274
0
LINE
8
Layer 1
10
42.629130
20
65.030274
11
43.113340
21
64.141107
0
LINE
8
Layer 1
10
43.113340
20
64.141107
11
43.419615
21
63.159906
0
LINE
8
Layer 1
10
43.419615
20
63.159906
11
43.526479
21
62.108146
0
LINE
8
Layer 1
10
43.526479
20
62.108146
11
43.341248
21
60.253471
0
LINE
8
Layer 1
10
43.341248
20
60.253471
11
42.818683
21
58.789323
0
LINE
8
Layer 1
10
42.818683
20
58.789323
11
42.008473
21
57.733450
0
LINE
8
Layer 1
10
42.008473
20
57.733450
11
40.960308
21
57.103598
0
LINE
8
Layer 1
10
40.960308
20
57.103598
11
39.723879
21
56.917517
0
LINE
8
Layer 1
10
39.723879
20
56.917517
11
38.348873
21
57.192953
0
LINE
8
Layer 1
10
38.348873
20
57.192953
11
36.884982
21
57.947653
0
LINE
8
Layer 1
10
36.884982
20
57.947653
11
35.381895
21
59.199366
0
LINE
8
Layer 1
10
35.381895
20
59.199366
11
35.381895
21
59.199366
0
LINE
8
Layer 1
10
214.562936
20
66.907504
11
214.769852
21
67.771584
0
LINE
8
Layer 1
10
214.769852
20
67.771584
11
215.362880
21
69.129869
0
LINE
8
Layer 1
10
215.362880
20
69.129869
11
217.540944
21
73.052203
0
LINE
8
Layer 1
10
217.540944
20
73.052203
11
220.764473
21
78.120809
0
LINE
8
Layer 1
10
220.764473
20
78.120809
11
224.700809
21
83.781989
0
LINE
8
Layer 1
10
224.700809
20
83.781989
11
228.420558
21
88.590657
0
LINE
8
Layer 1
10
228.420558
20
88.590657
11
232.299897
21
92.985520
0
LINE
8
Layer 1
10
232.299897
20
92.985520
11
236.312009
21
96.957278
0
LINE
8
Layer 1
10
236.312009
20
96.957278
11
240.430078
21
100.496631
0
LINE
8
Layer 1
10
240.430078
20
100.496631
11
244.627287
21
103.594279
0
LINE
8
Layer 1
10
244.627287
20
103.594279
11
248.876818
21
106.240921
0
LINE
8
Layer 1
10
248.876818
20
106.240921
11
253.151857
21
108.427258
0
LINE
8
Layer 1
10
253.151857
20
108.427258
11
257.425585
21
110.143989
0
LINE
8
Layer 1
10
257.425585
20
110.143989
11
261.671186
21
111.381815
0
LINE
8
Layer 1
10
261.671186
20
111.381815
11
265.861843
21
112.131435
0
LINE
8
Layer 1
10
265.861843
20
112.131435
11
269.970739
21
112.383548
0
LINE
8
Layer 1
10
269.970739
20
112.383548
11
273.971058
21
112.128856
0
LINE
8
Layer 1
10
273.971058
20
112.128856
11
277.835983
21
111.358058
0
LINE
8
Layer 1
10
277.835983
20
111.358058
11
281.538697
21
110.061854
0
LINE
8
Layer 1
10
281.538697
20
110.061854
11
285.052384
21
108.230943
0
LINE
8
Layer 1
10
285.052384
20
108.230943
11
288.350226
21
105.856025
0
LINE
8
Layer 1
10
288.350226
20
105.856025
11
292.202301
21
102.433735
0
LINE
8
Layer 1
10
292.202301
20
102.433735
11
293.282388
21
101.229541
0
LINE
8
Layer 1
10
293.282388
20
101.229541
11
293.814214
21
100.316544
0
LINE
8
Layer 1
10
293.814214
20
100.316544
11
293.809560
21
99.659664
0
LINE
8
Layer 1
10
293.809560
20
99.659664
11
293.280204
21
99.223823
0
LINE
8
Layer 1
10
293.280204
20
99.223823
11
292.237925
21
98.973943
0
LINE
8
Layer 1
10
292.237925
20
98.973943
11
290.694505
21
98.874945
0
LINE
8
Layer 1
10
290.694505
20
98.874945
11
289.181268
21
98.567026
0
LINE
8
Layer 1
10
289.181268
20
98.567026
11
287.133909
21
97.729619
0
LINE
8
Layer 1
10
287.133909
20
97.729619
11
284.642690
21
96.420391
0
LINE
8
Layer 1
10
284.642690
20
96.420391
11
281.797871
21
94.697008
0
LINE
8
Layer 1
10
281.797871
20
94.697008
11
275.408487
21
90.238444
0
LINE
8
Layer 1
10
275.408487
20
90.238444
11
272.044445
21
87.618596
0
LINE
8
Layer 1
10
272.044445
20
87.618596
11
268.687852
21
84.815258
0
LINE
8
Layer 1
10
268.687852
20
84.815258
11
265.295186
21
81.982992
0
LINE
8
Layer 1
10
265.295186
20
81.982992
11
261.827787
21
79.280213
0
LINE
8
Layer 1
10
261.827787
20
79.280213
11
255.058815
21
74.517045
0
LINE
8
Layer 1
10
255.058815
20
74.517045
11
251.952257
21
72.583621
0
LINE
8
Layer 1
10
251.952257
20
72.583621
11
249.160995
21
71.033614
0
LINE
8
Layer 1
10
249.160995
20
71.033614
11
246.782534
21
69.930506
0
LINE
8
Layer 1
10
246.782534
20
69.930506
11
244.914383
21
69.337779
0
LINE
8
Layer 1
10
244.914383
20
69.337779
11
231.021302
21
66.759940
0
LINE
8
Layer 1
10
231.021302
20
66.759940
11
225.779050
21
65.973832
0
LINE
8
Layer 1
10
225.779050
20
65.973832
11
221.604733
21
65.517469
0
LINE
8
Layer 1
10
221.604733
20
65.517469
11
218.447156
21
65.386752
0
LINE
8
Layer 1
10
218.447156
20
65.386752
11
216.255127
21
65.577584
0
LINE
8
Layer 1
10
216.255127
20
65.577584
11
215.505194
21
65.792301
0
LINE
8
Layer 1
10
215.505194
20
65.792301
11
214.977451
21
66.085868
0
LINE
8
Layer 1
10
214.977451
20
66.085868
11
214.665498
21
66.457773
0
LINE
8
Layer 1
10
214.665498
20
66.457773
11
214.562936
21
66.907504
0
LINE
8
Layer 1
10
214.562936
20
66.907504
11
214.562936
21
66.907504
0
LINE
8
Layer 1
10
203.980364
20
76.942937
11
203.853451
21
79.009462
0
LINE
8
Layer 1
10
203.853451
20
79.009462
11
203.532854
21
81.204681
0
LINE
8
Layer 1
10
203.532854
20
81.204681
11
202.396512
21
85.712553
0
LINE
8
Layer 1
10
202.396512
20
85.712553
11
201.623718
21
87.890883
0
LINE
8
Layer 1
10
201.623718
20
87.890883
11
200.743142
21
89.929261
0
LINE
8
Layer 1
10
200.743142
20
89.929261
11
199.776261
21
91.760524
0
LINE
8
Layer 1
10
199.776261
20
91.760524
11
198.744549
21
93.317513
0
LINE
8
Layer 1
10
198.744549
20
93.317513
11
197.665171
21
94.987464
0
LINE
8
Layer 1
10
197.665171
20
94.987464
11
196.713933
21
96.944949
0
LINE
8
Layer 1
10
196.713933
20
96.944949
11
195.892229
21
99.144892
0
LINE
8
Layer 1
10
195.892229
20
99.144892
11
195.201454
21
101.542220
0
LINE
8
Layer 1
10
195.201454
20
101.542220
11
194.643001
21
104.091858
0
LINE
8
Layer 1
10
194.643001
20
104.091858
11
194.218263
21
106.748732
0
LINE
8
Layer 1
10
194.218263
20
106.748732
11
193.775512
21
112.203891
0
LINE
8
Layer 1
10
193.775512
20
112.203891
11
193.884351
21
117.547104
0
LINE
8
Layer 1
10
193.884351
20
117.547104
11
194.149101
21
120.064045
0
LINE
8
Layer 1
10
194.149101
20
120.064045
11
194.555931
21
122.417776
0
LINE
8
Layer 1
10
194.555931
20
122.417776
11
195.106233
21
124.563224
0
LINE
8
Layer 1
10
195.106233
20
124.563224
11
195.801402
21
126.455314
0
LINE
8
Layer 1
10
195.801402
20
126.455314
11
196.642832
21
128.048973
0
LINE
8
Layer 1
10
196.642832
20
128.048973
11
197.631916
21
129.299125
0
LINE
8
Layer 1
10
197.631916
20
129.299125
11
198.792211
21
130.188211
0
LINE
8
Layer 1
10
198.792211
20
130.188211
11
200.034550
21
130.571262
0
LINE
8
Layer 1
10
200.034550
20
130.571262
11
201.401479
21
130.422350
0
LINE
8
Layer 1
10
201.401479
20
130.422350
11
202.935542
21
129.715549
0
LINE
8
Layer 1
10
202.935542
20
129.715549
11
204.679285
21
128.424930
0
LINE
8
Layer 1
10
204.679285
20
128.424930
11
206.675253
21
126.524566
0
LINE
8
Layer 1
10
206.675253
20
126.524566
11
208.965990
21
123.988529
0
LINE
8
Layer 1
10
208.965990
20
123.988529
11
211.594042
21
120.790892
0
LINE
8
Layer 1
10
211.594042
20
120.790892
11
215.494919
21
115.574756
0
LINE
8
Layer 1
10
215.494919
20
115.574756
11
217.051934
21
113.190170
0
LINE
8
Layer 1
10
217.051934
20
113.190170
11
218.349598
21
110.914513
0
LINE
8
Layer 1
10
218.349598
20
110.914513
11
219.390108
21
108.717741
0
LINE
8
Layer 1
10
219.390108
20
108.717741
11
220.175662
21
106.569810
0
LINE
8
Layer 1
10
220.175662
20
106.569810
11
220.708456
21
104.440675
0
LINE
8
Layer 1
10
220.708456
20
104.440675
11
220.990688
21
102.300294
0
LINE
8
Layer 1
10
220.990688
20
102.300294
11
221.024556
21
100.118621
0
LINE
8
Layer 1
10
221.024556
20
100.118621
11
220.812256
21
97.865613
0
LINE
8
Layer 1
10
220.812256
20
97.865613
11
220.355988
21
95.511225
0
LINE
8
Layer 1
10
220.355988
20
95.511225
11
219.657947
21
93.025413
0
LINE
8
Layer 1
10
219.657947
20
93.025413
11
218.720332
21
90.378134
0
LINE
8
Layer 1
10
218.720332
20
90.378134
11
217.545339
21
87.539342
0
LINE
8
Layer 1
10
217.545339
20
87.539342
11
214.492013
21
81.167048
0
LINE
8
Layer 1
10
214.492013
20
81.167048
11
211.653663
21
75.765049
0
LINE
8
Layer 1
10
211.653663
20
75.765049
11
209.354623
21
71.797317
0
LINE
8
Layer 1
10
209.354623
20
71.797317
11
207.543010
21
69.243002
0
LINE
8
Layer 1
10
207.543010
20
69.243002
11
206.803774
21
68.489361
0
LINE
8
Layer 1
10
206.803774
20
68.489361
11
206.166937
21
68.081255
0
LINE
8
Layer 1
10
206.166937
20
68.081255
11
205.626015
21
68.016078
0
LINE
8
Layer 1
10
205.626015
20
68.016078
11
205.174521
21
68.291224
0
LINE
8
Layer 1
10
205.174521
20
68.291224
11
204.805971
21
68.904087
0
LINE
8
Layer 1
10
204.805971
20
68.904087
11
204.513877
21
69.852061
0
LINE
8
Layer 1
10
204.513877
20
69.852061
11
204.133120
21
72.742915
0
LINE
8
Layer 1
10
204.133120
20
72.742915
11
203.980364
21
76.942937
0
LINE
8
Layer 1
10
203.980364
20
76.942937
11
203.980364
21
76.942937
0
LINE
8
Layer 1
10
4.398634
20
80.502519
11
0.469235
21
84.971055
0
LINE
8
Layer 1
10
0.469235
20
84.971055
11
-3.012054
21
89.418440
0
LINE
8
Layer 1
10
-3.012054
20
89.418440
11
-5.950072
21
93.667555
0
LINE
8
Layer 1
10
-5.950072
20
93.667555
11
-8.249656
21
97.541280
0
LINE
8
Layer 1
10
-8.249656
20
97.541280
11
-9.815646
21
100.862496
0
LINE
8
Layer 1
10
-9.815646
20
100.862496
11
-10.293806
21
102.260563
0
LINE
8
Layer 1
10
-10.293806
20
102.260563
11
-10.552881
21
103.454083
0
LINE
8
Layer 1
10
-10.552881
20
103.454083
11
-10.580977
21
104.420917
0
LINE
8
Layer 1
10
-10.580977
20
104.420917
11
-10.366199
21
105.138923
0
LINE
8
Layer 1
10
-10.366199
20
105.138923
11
-9.896651
21
105.585963
0
LINE
8
Layer 1
10
-9.896651
20
105.585963
11
-9.160439
21
105.739897
0
LINE
8
Layer 1
10
-9.160439
20
105.739897
11
-7.667210
21
105.464471
0
LINE
8
Layer 1
10
-7.667210
20
105.464471
11
-6.120304
21
104.714550
0
LINE
8
Layer 1
10
-6.120304
20
104.714550
11
-4.702311
21
103.604667
0
LINE
8
Layer 1
10
-4.702311
20
103.604667
11
-3.595821
21
102.249352
0
LINE
8
Layer 1
10
-3.595821
20
102.249352
11
-2.920677
21
101.548177
0
LINE
8
Layer 1
10
-2.920677
20
101.548177
11
-1.823416
21
100.894042
0
LINE
8
Layer 1
10
-1.823416
20
100.894042
11
-0.361477
21
100.301264
0
LINE
8
Layer 1
10
-0.361477
20
100.301264
11
1.407704
21
99.784161
0
LINE
8
Layer 1
10
1.407704
20
99.784161
11
5.638039
21
99.034241
0
LINE
8
Layer 1
10
5.638039
20
99.034241
11
10.408088
21
98.758817
0
LINE
8
Layer 1
10
10.408088
20
98.758817
11
13.386131
21
98.682926
0
LINE
8
Layer 1
10
13.386131
20
98.682926
11
16.288634
21
98.457513
0
LINE
8
Layer 1
10
16.288634
20
98.457513
11
19.108774
21
98.085966
0
LINE
8
Layer 1
10
19.108774
20
98.085966
11
21.839728
21
97.571673
0
LINE
8
Layer 1
10
21.839728
20
97.571673
11
24.474671
21
96.918022
0
LINE
8
Layer 1
10
24.474671
20
96.918022
11
27.006780
21
96.128400
0
LINE
8
Layer 1
10
27.006780
20
96.128400
11
29.429230
21
95.206196
0
LINE
8
Layer 1
10
29.429230
20
95.206196
11
31.735198
21
94.154797
0
LINE
8
Layer 1
10
31.735198
20
94.154797
11
33.917861
21
92.977592
0
LINE
8
Layer 1
10
33.917861
20
92.977592
11
35.970393
21
91.677969
0
LINE
8
Layer 1
10
35.970393
20
91.677969
11
37.885973
21
90.259316
0
LINE
8
Layer 1
10
37.885973
20
90.259316
11
39.657775
21
88.725020
0
LINE
8
Layer 1
10
39.657775
20
88.725020
11
41.278976
21
87.078469
0
LINE
8
Layer 1
10
41.278976
20
87.078469
11
42.742752
21
85.323053
0
LINE
8
Layer 1
10
42.742752
20
85.323053
11
44.042279
21
83.462158
0
LINE
8
Layer 1
10
44.042279
20
83.462158
11
45.170733
21
81.499172
0
LINE
8
Layer 1
10
45.170733
20
81.499172
11
49.781945
21
72.579762
0
LINE
8
Layer 1
10
49.781945
20
72.579762
11
31.533682
21
71.776168
0
LINE
8
Layer 1
10
31.533682
20
71.776168
11
26.114986
21
71.608855
0
LINE
8
Layer 1
10
26.114986
20
71.608855
11
21.667905
21
71.674772
0
LINE
8
Layer 1
10
21.667905
20
71.674772
11
17.996176
21
72.037033
0
LINE
8
Layer 1
10
17.996176
20
72.037033
11
14.903538
21
72.758753
0
LINE
8
Layer 1
10
14.903538
20
72.758753
11
12.193727
21
73.903046
0
LINE
8
Layer 1
10
12.193727
20
73.903046
11
9.670481
21
75.533028
0
LINE
8
Layer 1
10
9.670481
20
75.533028
11
7.137538
21
77.711814
0
LINE
8
Layer 1
10
7.137538
20
77.711814
11
4.398634
21
80.502519
0
LINE
8
Layer 1
10
4.398634
20
80.502519
11
4.398634
21
80.502519
0
LINE
8
Layer 1
10
188.532987
20
77.574376
11
188.153465
21
78.355371
0
LINE
8
Layer 1
10
188.153465
20
78.355371
11
187.972134
21
79.125253
0
LINE
8
Layer 1
10
187.972134
20
79.125253
11
187.972787
21
79.873808
0
LINE
8
Layer 1
10
187.972787
20
79.873808
11
188.139216
21
80.590818
0
LINE
8
Layer 1
10
188.139216
20
80.590818
11
188.904569
21
81.889349
0
LINE
8
Layer 1
10
188.904569
20
81.889349
11
190.138529
21
82.939122
0
LINE
8
Layer 1
10
190.138529
20
82.939122
11
191.711432
21
83.658416
0
LINE
8
Layer 1
10
191.711432
20
83.658416
11
193.493613
21
83.965507
0
LINE
8
Layer 1
10
193.493613
20
83.965507
11
195.355408
21
83.778675
0
LINE
8
Layer 1
10
195.355408
20
83.778675
11
196.275641
21
83.474499
0
LINE
8
Layer 1
10
196.275641
20
83.474499
11
197.167153
21
83.016196
0
LINE
8
Layer 1
10
197.167153
20
83.016196
11
197.824338
21
82.521002
0
LINE
8
Layer 1
10
197.824338
20
82.521002
11
198.336031
21
81.950060
0
LINE
8
Layer 1
10
198.336031
20
81.950060
11
198.947199
21
80.640375
0
LINE
8
Layer 1
10
198.947199
20
80.640375
11
199.049183
21
79.206022
0
LINE
8
Layer 1
10
199.049183
20
79.206022
11
198.690507
21
77.765880
0
LINE
8
Layer 1
10
198.690507
20
77.765880
11
197.919696
21
76.438830
0
LINE
8
Layer 1
10
197.919696
20
76.438830
11
196.785276
21
75.343751
0
LINE
8
Layer 1
10
196.785276
20
75.343751
11
195.335770
21
74.599526
0
LINE
8
Layer 1
10
195.335770
20
74.599526
11
193.619704
21
74.325033
0
LINE
8
Layer 1
10
193.619704
20
74.325033
11
192.265910
21
74.581428
0
LINE
8
Layer 1
10
192.265910
20
74.581428
11
190.855588
21
75.279534
0
LINE
8
Layer 1
10
190.855588
20
75.279534
11
189.555645
21
76.312724
0
LINE
8
Layer 1
10
189.555645
20
76.312724
11
188.532987
21
77.574376
0
LINE
8
Layer 1
10
188.532987
20
77.574376
11
188.532987
21
77.574376
0
LINE
8
Layer 1
10
-41.650494
20
83.873649
11
-42.460668
21
85.208946
0
LINE
8
Layer 1
10
-42.460668
20
85.208946
11
-43.124121
21
87.302234
0
LINE
8
Layer 1
10
-43.124121
20
87.302234
11
-43.572396
21
89.866675
0
LINE
8
Layer 1
10
-43.572396
20
89.866675
11
-43.737033
21
92.615426
0
LINE
8
Layer 1
10
-43.737033
20
92.615426
11
-43.606250
21
94.044324
0
LINE
8
Layer 1
10
-43.606250
20
94.044324
11
-43.235005
21
95.257125
0
LINE
8
Layer 1
10
-43.235005
20
95.257125
11
-42.654952
21
96.256967
0
LINE
8
Layer 1
10
-42.654952
20
96.256967
11
-41.897749
21
97.046990
0
LINE
8
Layer 1
10
-41.897749
20
97.046990
11
-40.995050
21
97.630334
0
LINE
8
Layer 1
10
-40.995050
20
97.630334
11
-39.978512
21
98.010139
0
LINE
8
Layer 1
10
-39.978512
20
98.010139
11
-38.879791
21
98.189543
0
LINE
8
Layer 1
10
-38.879791
20
98.189543
11
-37.730541
21
98.171687
0
LINE
8
Layer 1
10
-37.730541
20
98.171687
11
-36.562419
21
97.959711
0
LINE
8
Layer 1
10
-36.562419
20
97.959711
11
-35.407081
21
97.556752
0
LINE
8
Layer 1
10
-35.407081
20
97.556752
11
-34.296182
21
96.965952
0
LINE
8
Layer 1
10
-34.296182
20
96.965952
11
-33.261378
21
96.190450
0
LINE
8
Layer 1
10
-33.261378
20
96.190450
11
-32.334324
21
95.233385
0
LINE
8
Layer 1
10
-32.334324
20
95.233385
11
-31.546677
21
94.097897
0
LINE
8
Layer 1
10
-31.546677
20
94.097897
11
-30.930093
21
92.787126
0
LINE
8
Layer 1
10
-30.930093
20
92.787126
11
-30.516226
21
91.304210
0
LINE
8
Layer 1
10
-30.516226
20
91.304210
11
-30.418365
21
90.240701
0
LINE
8
Layer 1
10
-30.418365
20
90.240701
11
-30.522053
21
89.193196
0
LINE
8
Layer 1
10
-30.522053
20
89.193196
11
-30.806780
21
88.175381
0
LINE
8
Layer 1
10
-30.806780
20
88.175381
11
-31.252035
21
87.200945
0
LINE
8
Layer 1
10
-31.252035
20
87.200945
11
-32.542088
21
85.436962
0
LINE
8
Layer 1
10
-32.542088
20
85.436962
11
-34.228129
21
84.010748
0
LINE
8
Layer 1
10
-34.228129
20
84.010748
11
-36.146074
21
83.031807
0
LINE
8
Layer 1
10
-36.146074
20
83.031807
11
-37.140734
21
82.744283
0
LINE
8
Layer 1
10
-37.140734
20
82.744283
11
-38.131839
21
82.609641
0
LINE
8
Layer 1
10
-38.131839
20
82.609641
11
-39.098878
21
82.641569
0
LINE
8
Layer 1
10
-39.098878
20
82.641569
11
-40.021340
21
82.853754
0
LINE
8
Layer 1
10
-40.021340
20
82.853754
11
-40.878716
21
83.259885
0
LINE
8
Layer 1
10
-40.878716
20
83.259885
11
-41.650494
21
83.873649
0
LINE
8
Layer 1
10
-41.650494
20
83.873649
11
-41.650494
21
83.873649
0
LINE
8
Layer 1
10
-74.200758
20
101.376721
11
-72.961336
21
102.988590
0
LINE
8
Layer 1
10
-72.961336
20
102.988590
11
-71.554064
21
105.236210
0
LINE
8
Layer 1
10
-71.554064
20
105.236210
11
-68.430964
21
111.229162
0
LINE
8
Layer 1
10
-68.430964
20
111.229162
11
-65.221448
21
118.536499
0
LINE
8
Layer 1
10
-65.221448
20
118.536499
11
-62.315505
21
126.339144
0
LINE
8
Layer 1
10
-62.315505
20
126.339144
11
-60.511339
21
131.276144
0
LINE
8
Layer 1
10
-60.511339
20
131.276144
11
-58.565211
21
135.763903
0
LINE
8
Layer 1
10
-58.565211
20
135.763903
11
-56.427334
21
139.875225
0
LINE
8
Layer 1
10
-56.427334
20
139.875225
11
-54.047920
21
143.682911
0
LINE
8
Layer 1
10
-54.047920
20
143.682911
11
-51.377181
21
147.259766
0
LINE
8
Layer 1
10
-51.377181
20
147.259766
11
-48.365328
21
150.678591
0
LINE
8
Layer 1
10
-48.365328
20
150.678591
11
-44.962573
21
154.012190
0
LINE
8
Layer 1
10
-44.962573
20
154.012190
11
-41.119129
21
157.333364
0
LINE
8
Layer 1
10
-41.119129
20
157.333364
11
-26.284329
21
169.473568
0
LINE
8
Layer 1
10
-26.284329
20
169.473568
11
-26.360983
21
152.441511
0
LINE
8
Layer 1
10
-26.360983
20
152.441511
11
-26.488317
21
148.656592
0
LINE
8
Layer 1
10
-26.488317
20
148.656592
11
-26.828978
21
144.818858
0
LINE
8
Layer 1
10
-26.828978
20
144.818858
11
-27.371588
21
140.955847
0
LINE
8
Layer 1
10
-27.371588
20
140.955847
11
-28.104771
21
137.095098
0
LINE
8
Layer 1
10
-28.104771
20
137.095098
11
-29.017150
21
133.264149
0
LINE
8
Layer 1
10
-29.017150
20
133.264149
11
-30.097348
21
129.490538
0
LINE
8
Layer 1
10
-30.097348
20
129.490538
11
-31.333988
21
125.801806
0
LINE
8
Layer 1
10
-31.333988
20
125.801806
11
-32.715695
21
122.225490
0
LINE
8
Layer 1
10
-32.715695
20
122.225490
11
-34.231091
21
118.789128
0
LINE
8
Layer 1
10
-34.231091
20
118.789128
11
-35.868799
21
115.520260
0
LINE
8
Layer 1
10
-35.868799
20
115.520260
11
-37.617442
21
112.446425
0
LINE
8
Layer 1
10
-37.617442
20
112.446425
11
-39.465644
21
109.595160
0
LINE
8
Layer 1
10
-39.465644
20
109.595160
11
-41.402029
21
106.994004
0
LINE
8
Layer 1
10
-41.402029
20
106.994004
11
-43.415219
21
104.670497
0
LINE
8
Layer 1
10
-43.415219
20
104.670497
11
-45.493837
21
102.652177
0
LINE
8
Layer 1
10
-45.493837
20
102.652177
11
-47.626507
21
100.966582
0
LINE
8
Layer 1
10
-47.626507
20
100.966582
11
-49.505295
21
99.821907
0
LINE
8
Layer 1
10
-49.505295
20
99.821907
11
-51.730759
21
98.754028
0
LINE
8
Layer 1
10
-51.730759
20
98.754028
11
-54.220390
21
97.786317
0
LINE
8
Layer 1
10
-54.220390
20
97.786317
11
-56.891676
21
96.942145
0
LINE
8
Layer 1
10
-56.891676
20
96.942145
11
-59.662109
21
96.244883
0
LINE
8
Layer 1
10
-59.662109
20
96.244883
11
-62.449179
21
95.717902
0
LINE
8
Layer 1
10
-62.449179
20
95.717902
11
-65.170376
21
95.384575
0
LINE
8
Layer 1
10
-65.170376
20
95.384575
11
-67.743191
21
95.268272
0
LINE
8
Layer 1
10
-67.743191
20
95.268272
11
-74.197422
21
95.420592
0
LINE
8
Layer 1
10
-74.197422
20
95.420592
11
-76.062972
21
95.697039
0
LINE
8
Layer 1
10
-76.062972
20
95.697039
11
-77.101669
21
96.183496
0
LINE
8
Layer 1
10
-77.101669
20
96.183496
11
-77.329897
21
96.523405
0
LINE
8
Layer 1
10
-77.329897
20
96.523405
11
-77.374153
21
96.937328
0
LINE
8
Layer 1
10
-77.374153
20
96.937328
11
-76.941068
21
98.015900
0
LINE
8
Layer 1
10
-76.941068
20
98.015900
11
-75.863056
21
99.476576
0
LINE
8
Layer 1
10
-75.863056
20
99.476576
11
-74.200758
21
101.376721
0
LINE
8
Layer 1
10
-74.200758
20
101.376721
11
-74.200758
21
101.376721
0
LINE
8
Layer 1
10
226.737240
20
105.874209
11
226.352976
21
107.509283
0
LINE
8
Layer 1
10
226.352976
20
107.509283
11
226.209429
21
109.177092
0
LINE
8
Layer 1
10
226.209429
20
109.177092
11
226.287289
21
110.852085
0
LINE
8
Layer 1
10
226.287289
20
110.852085
11
226.567247
21
112.508708
0
LINE
8
Layer 1
10
226.567247
20
112.508708
11
227.029994
21
114.121409
0
LINE
8
Layer 1
10
227.029994
20
114.121409
11
227.656220
21
115.664637
0
LINE
8
Layer 1
10
227.656220
20
115.664637
11
228.426616
21
117.112838
0
LINE
8
Layer 1
10
228.426616
20
117.112838
11
229.321874
21
118.440461
0
LINE
8
Layer 1
10
229.321874
20
118.440461
11
230.322682
21
119.621954
0
LINE
8
Layer 1
10
230.322682
20
119.621954
11
231.409733
21
120.631763
0
LINE
8
Layer 1
10
231.409733
20
120.631763
11
232.563717
21
121.444337
0
LINE
8
Layer 1
10
232.563717
20
121.444337
11
233.765325
21
122.034124
0
LINE
8
Layer 1
10
233.765325
20
122.034124
11
234.995247
21
122.375571
0
LINE
8
Layer 1
10
234.995247
20
122.375571
11
236.234174
21
122.443126
0
LINE
8
Layer 1
10
236.234174
20
122.443126
11
237.462797
21
122.211237
0
LINE
8
Layer 1
10
237.462797
20
122.211237
11
238.661806
21
121.654351
0
LINE
8
Layer 1
10
238.661806
20
121.654351
11
239.662002
21
120.946040
0
LINE
8
Layer 1
10
239.662002
20
120.946040
11
240.500898
21
120.161219
0
LINE
8
Layer 1
10
240.500898
20
120.161219
11
241.179412
21
119.305497
0
LINE
8
Layer 1
10
241.179412
20
119.305497
11
241.698459
21
118.384481
0
LINE
8
Layer 1
10
241.698459
20
118.384481
11
242.058957
21
117.403780
0
LINE
8
Layer 1
10
242.058957
20
117.403780
11
242.261822
21
116.369002
0
LINE
8
Layer 1
10
242.261822
20
116.369002
11
242.307970
21
115.285754
0
LINE
8
Layer 1
10
242.307970
20
115.285754
11
242.198319
21
114.159645
0
LINE
8
Layer 1
10
242.198319
20
114.159645
11
241.515284
21
111.801274
0
LINE
8
Layer 1
10
241.515284
20
111.801274
11
240.220049
21
109.338752
0
LINE
8
Layer 1
10
240.220049
20
109.338752
11
238.319947
21
106.816942
0
LINE
8
Layer 1
10
238.319947
20
106.816942
11
235.822312
21
104.280709
0
LINE
8
Layer 1
10
235.822312
20
104.280709
11
233.702039
21
102.399766
0
LINE
8
Layer 1
10
233.702039
20
102.399766
11
232.046309
21
101.081011
0
LINE
8
Layer 1
10
232.046309
20
101.081011
11
230.763512
21
100.340511
0
LINE
8
Layer 1
10
230.763512
20
100.340511
11
229.762042
21
100.194334
0
LINE
8
Layer 1
10
229.762042
20
100.194334
11
229.338176
21
100.349138
0
LINE
8
Layer 1
10
229.338176
20
100.349138
11
228.950288
21
100.658548
0
LINE
8
Layer 1
10
228.950288
20
100.658548
11
228.236642
21
101.749220
0
LINE
8
Layer 1
10
228.236642
20
101.749220
11
227.529496
21
103.482418
0
LINE
8
Layer 1
10
227.529496
20
103.482418
11
226.737240
21
105.874209
0
LINE
8
Layer 1
10
226.737240
20
105.874209
11
226.737240
21
105.874209
0
LINE
8
Layer 1
10
-0.070092
20
105.682961
11
-0.770252
21
107.331317
0
LINE
8
Layer 1
10
-0.770252
20
107.331317
11
-0.974239
21
109.085372
0
LINE
8
Layer 1
10
-0.974239
20
109.085372
11
-0.733571
21
110.844808
0
LINE
8
Layer 1
10
-0.733571
20
110.844808
11
-0.099762
21
112.509306
0
LINE
8
Layer 1
10
-0.099762
20
112.509306
11
0.875669
21
113.978544
0
LINE
8
Layer 1
10
0.875669
20
113.978544
11
2.141209
21
115.152206
0
LINE
8
Layer 1
10
2.141209
20
115.152206
11
3.645339
21
115.929970
0
LINE
8
Layer 1
10
3.645339
20
115.929970
11
5.336543
21
116.211518
0
LINE
8
Layer 1
10
5.336543
20
116.211518
11
6.083448
21
116.104778
0
LINE
8
Layer 1
10
6.083448
20
116.104778
11
6.731383
21
115.800450
0
LINE
8
Layer 1
10
6.731383
20
115.800450
11
7.280279
21
115.322375
0
LINE
8
Layer 1
10
7.280279
20
115.322375
11
7.730066
21
114.694394
0
LINE
8
Layer 1
10
7.730066
20
114.694394
11
8.332035
21
113.084070
0
LINE
8
Layer 1
10
8.332035
20
113.084070
11
8.536736
21
111.160200
0
LINE
8
Layer 1
10
8.536736
20
111.160200
11
8.343611
21
109.113504
0
LINE
8
Layer 1
10
8.343611
20
109.113504
11
7.752105
21
107.134704
0
LINE
8
Layer 1
10
7.752105
20
107.134704
11
6.761663
21
105.414520
0
LINE
8
Layer 1
10
6.761663
20
105.414520
11
6.116667
21
104.711009
0
LINE
8
Layer 1
10
6.116667
20
104.711009
11
5.371728
21
104.143673
0
LINE
8
Layer 1
10
5.371728
20
104.143673
11
4.674248
21
103.812673
0
LINE
8
Layer 1
10
4.674248
20
103.812673
11
3.937058
21
103.643848
0
LINE
8
Layer 1
10
3.937058
20
103.643848
11
3.182477
21
103.630882
0
LINE
8
Layer 1
10
3.182477
20
103.630882
11
2.432825
21
103.767463
0
LINE
8
Layer 1
10
2.432825
20
103.767463
11
1.037588
21
104.464005
0
LINE
8
Layer 1
10
1.037588
20
104.464005
11
0.436643
21
105.011338
0
LINE
8
Layer 1
10
0.436643
20
105.011338
11
-0.070092
21
105.682961
0
LINE
8
Layer 1
10
-0.070092
20
105.682961
11
-0.070092
21
105.682961
0
LINE
8
Layer 1
10
-24.977857
20
110.860556
11
-25.310214
21
112.076294
0
LINE
8
Layer 1
10
-25.310214
20
112.076294
11
-25.499711
21
113.572162
0
LINE
8
Layer 1
10
-25.499711
20
113.572162
11
-25.468019
21
117.169874
0
LINE
8
Layer 1
10
-25.468019
20
117.169874
11
-24.918564
21
121.184876
0
LINE
8
Layer 1
10
-24.918564
20
121.184876
11
-23.887130
21
125.148347
0
LINE
8
Layer 1
10
-23.887130
20
125.148347
11
-20.831440
21
134.315450
0
LINE
8
Layer 1
10
-20.831440
20
134.315450
11
-16.113003
21
125.498971
0
LINE
8
Layer 1
10
-16.113003
20
125.498971
11
-14.575879
21
122.012175
0
LINE
8
Layer 1
10
-14.575879
20
122.012175
11
-13.637117
21
118.535704
0
LINE
8
Layer 1
10
-13.637117
20
118.535704
11
-13.274093
21
115.209668
0
LINE
8
Layer 1
10
-13.274093
20
115.209668
11
-13.464185
21
112.174179
0
LINE
8
Layer 1
10
-13.464185
20
112.174179
11
-13.759579
21
110.809174
0
LINE
8
Layer 1
10
-13.759579
20
110.809174
11
-14.184769
21
109.569346
0
LINE
8
Layer 1
10
-14.184769
20
109.569346
11
-14.736926
21
108.472211
0
LINE
8
Layer 1
10
-14.736926
20
108.472211
11
-15.413223
21
107.535281
0
LINE
8
Layer 1
10
-15.413223
20
107.535281
11
-16.210832
21
106.776071
0
LINE
8
Layer 1
10
-16.210832
20
106.776071
11
-17.126924
21
106.212095
0
LINE
8
Layer 1
10
-17.126924
20
106.212095
11
-18.158672
21
105.860865
0
LINE
8
Layer 1
10
-18.158672
20
105.860865
11
-19.303249
21
105.739897
0
LINE
8
Layer 1
10
-19.303249
20
105.739897
11
-20.088539
21
105.844409
0
LINE
8
Layer 1
10
-20.088539
20
105.844409
11
-20.898675
21
106.143946
0
LINE
8
Layer 1
10
-20.898675
20
106.143946
11
-22.500385
21
107.244084
0
LINE
8
Layer 1
10
-22.500385
20
107.244084
11
-23.922179
21
108.872293
0
LINE
8
Layer 1
10
-23.922179
20
108.872293
11
-24.977857
21
110.860556
0
LINE
8
Layer 1
10
-24.977857
20
110.860556
11
-24.977857
21
110.860556
0
LINE
8
Layer 1
10
2.511581
20
121.172691
11
-1.547270
21
123.120738
0
LINE
8
Layer 1
10
-1.547270
20
123.120738
11
-4.935327
21
125.024905
0
LINE
8
Layer 1
10
-4.935327
20
125.024905
11
-7.735041
21
126.971660
0
LINE
8
Layer 1
10
-7.735041
20
126.971660
11
-10.028864
21
129.047472
0
LINE
8
Layer 1
10
-10.028864
20
129.047472
11
-11.899248
21
131.338809
0
LINE
8
Layer 1
10
-11.899248
20
131.338809
11
-13.428643
21
133.932141
0
LINE
8
Layer 1
10
-13.428643
20
133.932141
11
-14.699503
21
136.913936
0
LINE
8
Layer 1
10
-14.699503
20
136.913936
11
-15.794278
21
140.370663
0
LINE
8
Layer 1
10
-15.794278
20
140.370663
11
-17.256327
21
146.186442
0
LINE
8
Layer 1
10
-17.256327
20
146.186442
11
-18.301433
21
151.541966
0
LINE
8
Layer 1
10
-18.301433
20
151.541966
11
-18.929534
21
156.340090
0
LINE
8
Layer 1
10
-18.929534
20
156.340090
11
-19.140564
21
160.483669
0
LINE
8
Layer 1
10
-19.140564
20
160.483669
11
-18.934460
21
163.875557
0
LINE
8
Layer 1
10
-18.934460
20
163.875557
11
-18.674963
21
165.259259
0
LINE
8
Layer 1
10
-18.674963
20
165.259259
11
-18.311159
21
166.418609
0
LINE
8
Layer 1
10
-18.311159
20
166.418609
11
-17.843039
21
167.341463
0
LINE
8
Layer 1
10
-17.843039
20
167.341463
11
-17.270596
21
168.015680
0
LINE
8
Layer 1
10
-17.270596
20
168.015680
11
-16.593821
21
168.429114
0
LINE
8
Layer 1
10
-16.593821
20
168.429114
11
-15.812707
21
168.569624
0
LINE
8
Layer 1
10
-15.812707
20
168.569624
11
-15.111532
21
168.461608
0
LINE
8
Layer 1
10
-15.111532
20
168.461608
11
-14.457396
21
168.152030
0
LINE
8
Layer 1
10
-14.457396
20
168.152030
11
-13.864618
21
167.662597
0
LINE
8
Layer 1
10
-13.864618
20
167.662597
11
-13.347514
21
167.015016
0
LINE
8
Layer 1
10
-13.347514
20
167.015016
11
-12.597594
21
165.332234
0
LINE
8
Layer 1
10
-12.597594
20
165.332234
11
-12.322169
21
163.277337
0
LINE
8
Layer 1
10
-12.322169
20
163.277337
11
-12.079503
21
162.098506
0
LINE
8
Layer 1
10
-12.079503
20
162.098506
11
-11.384014
21
160.775062
0
LINE
8
Layer 1
10
-11.384014
20
160.775062
11
-10.284468
21
159.351966
0
LINE
8
Layer 1
10
-10.284468
20
159.351966
11
-8.829630
21
157.874180
0
LINE
8
Layer 1
10
-8.829630
20
157.874180
11
-7.068264
21
156.386664
0
LINE
8
Layer 1
10
-7.068264
20
156.386664
11
-5.049136
21
154.934382
0
LINE
8
Layer 1
10
-5.049136
20
154.934382
11
-2.821010
21
153.562294
0
LINE
8
Layer 1
10
-2.821010
20
153.562294
11
-0.432652
21
152.315363
0
LINE
8
Layer 1
10
-0.432652
20
152.315363
11
2.049662
21
151.044453
0
LINE
8
Layer 1
10
2.049662
20
151.044453
11
4.371819
21
149.677572
0
LINE
8
Layer 1
10
4.371819
20
149.677572
11
6.531036
21
148.219045
0
LINE
8
Layer 1
10
6.531036
20
148.219045
11
8.524529
21
146.673197
0
LINE
8
Layer 1
10
8.524529
20
146.673197
11
10.349514
21
145.044356
0
LINE
8
Layer 1
10
10.349514
20
145.044356
11
12.003207
21
143.336846
0
LINE
8
Layer 1
10
12.003207
20
143.336846
11
13.482824
21
141.554994
0
LINE
8
Layer 1
10
13.482824
20
141.554994
11
14.785581
21
139.703126
0
LINE
8
Layer 1
10
14.785581
20
139.703126
11
15.908694
21
137.785566
0
LINE
8
Layer 1
10
15.908694
20
137.785566
11
16.849379
21
135.806642
0
LINE
8
Layer 1
10
16.849379
20
135.806642
11
17.604852
21
133.770680
0
LINE
8
Layer 1
10
17.604852
20
133.770680
11
18.172329
21
131.682004
0
LINE
8
Layer 1
10
18.172329
20
131.682004
11
18.549026
21
129.544941
0
LINE
8
Layer 1
10
18.549026
20
129.544941
11
18.732160
21
127.363817
0
LINE
8
Layer 1
10
18.732160
20
127.363817
11
18.718945
21
125.142958
0
LINE
8
Layer 1
10
18.718945
20
125.142958
11
18.506599
21
122.886689
0
LINE
8
Layer 1
10
18.506599
20
122.886689
11
17.347427
21
114.466244
0
LINE
8
Layer 1
10
17.347427
20
114.466244
11
2.511581
21
121.172691
0
LINE
8
Layer 1
10
2.511581
20
121.172691
11
2.511581
21
121.172691
0
LINE
8
Layer 1
10
256.449455
20
126.939061
11
256.538403
21
128.667100
0
LINE
8
Layer 1
10
256.538403
20
128.667100
11
256.808603
21
130.108081
0
LINE
8
Layer 1
10
256.808603
20
130.108081
11
257.265085
21
131.267035
0
LINE
8
Layer 1
10
257.265085
20
131.267035
11
257.912879
21
132.148991
0
LINE
8
Layer 1
10
257.912879
20
132.148991
11
258.757017
21
132.758979
0
LINE
8
Layer 1
10
258.757017
20
132.758979
11
259.802528
21
133.102030
0
LINE
8
Layer 1
10
259.802528
20
133.102030
11
261.054445
21
133.183173
0
LINE
8
Layer 1
10
261.054445
20
133.183173
11
262.517797
21
133.007437
0
LINE
8
Layer 1
10
262.517797
20
133.007437
11
264.128652
21
132.569244
0
LINE
8
Layer 1
10
264.128652
20
132.569244
11
265.547288
21
131.932624
0
LINE
8
Layer 1
10
265.547288
20
131.932624
11
266.770956
21
131.128858
0
LINE
8
Layer 1
10
266.770956
20
131.128858
11
267.796909
21
130.189225
0
LINE
8
Layer 1
10
267.796909
20
130.189225
11
268.622399
21
129.145007
0
LINE
8
Layer 1
10
268.622399
20
129.145007
11
269.244679
21
128.027484
0
LINE
8
Layer 1
10
269.244679
20
128.027484
11
269.661001
21
126.867934
0
LINE
8
Layer 1
10
269.661001
20
126.867934
11
269.868617
21
125.697639
0
LINE
8
Layer 1
10
269.868617
20
125.697639
11
269.864780
21
124.547879
0
LINE
8
Layer 1
10
269.864780
20
124.547879
11
269.646741
21
123.449933
0
LINE
8
Layer 1
10
269.646741
20
123.449933
11
269.211755
21
122.435083
0
LINE
8
Layer 1
10
269.211755
20
122.435083
11
268.557072
21
121.534607
0
LINE
8
Layer 1
10
268.557072
20
121.534607
11
267.679944
21
120.779786
0
LINE
8
Layer 1
10
267.679944
20
120.779786
11
266.577626
21
120.201901
0
LINE
8
Layer 1
10
266.577626
20
120.201901
11
265.247368
21
119.832231
0
LINE
8
Layer 1
10
265.247368
20
119.832231
11
263.686423
21
119.702056
0
LINE
8
Layer 1
10
263.686423
20
119.702056
11
261.941276
21
119.808136
0
LINE
8
Layer 1
10
261.941276
20
119.808136
11
260.448276
21
120.130373
0
LINE
8
Layer 1
10
260.448276
20
120.130373
11
259.201423
21
120.674767
0
LINE
8
Layer 1
10
259.201423
20
120.674767
11
258.194720
21
121.447317
0
LINE
8
Layer 1
10
258.194720
20
121.447317
11
257.422170
21
122.454023
0
LINE
8
Layer 1
10
257.422170
20
122.454023
11
256.877774
21
123.700882
0
LINE
8
Layer 1
10
256.877774
20
123.700882
11
256.555535
21
125.193895
0
LINE
8
Layer 1
10
256.555535
20
125.193895
11
256.449455
21
126.939061
0
LINE
8
Layer 1
10
256.449455
20
126.939061
11
256.449455
21
126.939061
0
LINE
8
Layer 1
10
211.072439
20
131.918948
11
211.179301
21
132.970713
0
LINE
8
Layer 1
10
211.179301
20
132.970713
11
211.485571
21
133.951916
0
LINE
8
Layer 1
10
211.485571
20
133.951916
11
211.969775
21
134.841084
0
LINE
8
Layer 1
10
211.969775
20
134.841084
11
212.610438
21
135.616741
0
LINE
8
Layer 1
10
212.610438
20
135.616741
11
213.386086
21
136.257412
0
LINE
8
Layer 1
10
213.386086
20
136.257412
11
214.275244
21
136.741622
0
LINE
8
Layer 1
10
214.275244
20
136.741622
11
215.256440
21
137.047897
0
LINE
8
Layer 1
10
215.256440
20
137.047897
11
216.308198
21
137.154760
0
LINE
8
Layer 1
10
216.308198
20
137.154760
11
217.359967
21
137.047897
0
LINE
8
Layer 1
10
217.359967
20
137.047897
11
218.341176
21
136.741622
0
LINE
8
Layer 1
10
218.341176
20
136.741622
11
219.230349
21
136.257412
0
LINE
8
Layer 1
10
219.230349
20
136.257412
11
220.006011
21
135.616741
0
LINE
8
Layer 1
10
220.006011
20
135.616741
11
220.646686
21
134.841084
0
LINE
8
Layer 1
10
220.646686
20
134.841084
11
221.130900
21
133.951916
0
LINE
8
Layer 1
10
221.130900
20
133.951916
11
221.437176
21
132.970713
0
LINE
8
Layer 1
10
221.437176
20
132.970713
11
221.544041
21
131.918948
0
LINE
8
Layer 1
10
221.544041
20
131.918948
11
221.437176
21
130.867184
0
LINE
8
Layer 1
10
221.437176
20
130.867184
11
221.130900
21
129.885981
0
LINE
8
Layer 1
10
221.130900
20
129.885981
11
220.646686
21
128.996813
0
LINE
8
Layer 1
10
220.646686
20
128.996813
11
220.006011
21
128.221156
0
LINE
8
Layer 1
10
220.006011
20
128.221156
11
219.230349
21
127.580485
0
LINE
8
Layer 1
10
219.230349
20
127.580485
11
218.341176
21
127.096275
0
LINE
8
Layer 1
10
218.341176
20
127.096275
11
217.359967
21
126.790000
0
LINE
8
Layer 1
10
217.359967
20
126.790000
11
216.308198
21
126.683136
0
LINE
8
Layer 1
10
216.308198
20
126.683136
11
215.256440
21
126.790000
0
LINE
8
Layer 1
10
215.256440
20
126.790000
11
214.275244
21
127.096275
0
LINE
8
Layer 1
10
214.275244
20
127.096275
11
213.386086
21
127.580485
0
LINE
8
Layer 1
10
213.386086
20
127.580485
11
212.610438
21
128.221156
0
LINE
8
Layer 1
10
212.610438
20
128.221156
11
211.969775
21
128.996813
0
LINE
8
Layer 1
10
211.969775
20
128.996813
11
211.485571
21
129.885981
0
LINE
8
Layer 1
10
211.485571
20
129.885981
11
211.179301
21
130.867184
0
LINE
8
Layer 1
10
211.179301
20
130.867184
11
211.072439
21
131.918948
0
LINE
8
Layer 1
10
211.072439
20
131.918948
11
211.072439
21
131.918948
0
LINE
8
Layer 1
10
242.014663
20
131.250268
11
241.698110
21
136.148232
0
LINE
8
Layer 1
10
241.698110
20
136.148232
11
241.752146
21
141.672638
0
LINE
8
Layer 1
10
241.752146
20
141.672638
11
242.145329
21
147.596105
0
LINE
8
Layer 1
10
242.145329
20
147.596105
11
242.846217
21
153.691252
0
LINE
8
Layer 1
10
242.846217
20
153.691252
11
243.823366
21
159.730699
0
LINE
8
Layer 1
10
243.823366
20
159.730699
11
245.045335
21
165.487063
0
LINE
8
Layer 1
10
245.045335
20
165.487063
11
246.480682
21
170.732966
0
LINE
8
Layer 1
10
246.480682
20
170.732966
11
248.097963
21
175.241025
0
LINE
8
Layer 1
10
248.097963
20
175.241025
11
250.816238
21
181.241096
0
LINE
8
Layer 1
10
250.816238
20
181.241096
11
253.612047
21
186.349222
0
LINE
8
Layer 1
10
253.612047
20
186.349222
11
255.060706
21
188.589679
0
LINE
8
Layer 1
10
255.060706
20
188.589679
11
256.554764
21
190.632196
0
LINE
8
Layer 1
10
256.554764
20
190.632196
11
258.102894
21
192.485122
0
LINE
8
Layer 1
10
258.102894
20
192.485122
11
259.713767
21
194.156808
0
LINE
8
Layer 1
10
259.713767
20
194.156808
11
261.396056
21
195.655600
0
LINE
8
Layer 1
10
261.396056
20
195.655600
11
263.158432
21
196.989849
0
LINE
8
Layer 1
10
263.158432
20
196.989849
11
265.009567
21
198.167903
0
LINE
8
Layer 1
10
265.009567
20
198.167903
11
266.958134
21
199.198112
0
LINE
8
Layer 1
10
266.958134
20
199.198112
11
269.012804
21
200.088823
0
LINE
8
Layer 1
10
269.012804
20
200.088823
11
271.182249
21
200.848387
0
LINE
8
Layer 1
10
271.182249
20
200.848387
11
275.900154
21
202.007466
0
LINE
8
Layer 1
10
275.900154
20
202.007466
11
280.808912
21
202.681032
0
LINE
8
Layer 1
10
280.808912
20
202.681032
11
285.126503
21
202.811762
0
LINE
8
Layer 1
10
285.126503
20
202.811762
11
288.701079
21
202.465234
0
LINE
8
Layer 1
10
288.701079
20
202.465234
11
290.162283
21
202.133491
0
LINE
8
Layer 1
10
290.162283
20
202.133491
11
291.380791
21
201.707025
0
LINE
8
Layer 1
10
291.380791
20
201.707025
11
292.337621
21
201.194033
0
LINE
8
Layer 1
10
292.337621
20
201.194033
11
293.013793
21
200.602713
0
LINE
8
Layer 1
10
293.013793
20
200.602713
11
293.390325
21
199.941261
0
LINE
8
Layer 1
10
293.390325
20
199.941261
11
293.448236
21
199.217875
0
LINE
8
Layer 1
10
293.448236
20
199.217875
11
293.168546
21
198.440752
0
LINE
8
Layer 1
10
293.168546
20
198.440752
11
292.532274
21
197.618089
0
LINE
8
Layer 1
10
292.532274
20
197.618089
11
291.520439
21
196.758083
0
LINE
8
Layer 1
10
291.520439
20
196.758083
11
290.114059
21
195.868932
0
LINE
8
Layer 1
10
290.114059
20
195.868932
11
288.872987
21
194.855974
0
LINE
8
Layer 1
10
288.872987
20
194.855974
11
287.501467
21
193.175824
0
LINE
8
Layer 1
10
287.501467
20
193.175824
11
286.044795
21
190.917822
0
LINE
8
Layer 1
10
286.044795
20
190.917822
11
284.548270
21
188.171307
0
LINE
8
Layer 1
10
284.548270
20
188.171307
11
283.057189
21
185.025618
0
LINE
8
Layer 1
10
283.057189
20
185.025618
11
281.616849
21
181.570096
0
LINE
8
Layer 1
10
281.616849
20
181.570096
11
280.272548
21
177.894081
0
LINE
8
Layer 1
10
280.272548
20
177.894081
11
279.069583
21
174.086911
0
LINE
8
Layer 1
10
279.069583
20
174.086911
11
277.483107
21
169.115865
0
LINE
8
Layer 1
10
277.483107
20
169.115865
11
275.718369
21
164.578258
0
LINE
8
Layer 1
10
275.718369
20
164.578258
11
273.716149
21
160.381551
0
LINE
8
Layer 1
10
273.716149
20
160.381551
11
271.417229
21
156.433209
0
LINE
8
Layer 1
10
271.417229
20
156.433209
11
268.762387
21
152.640692
0
LINE
8
Layer 1
10
268.762387
20
152.640692
11
265.692406
21
148.911464
0
LINE
8
Layer 1
10
265.692406
20
148.911464
11
262.148065
21
145.152987
0
LINE
8
Layer 1
10
262.148065
20
145.152987
11
258.070144
21
141.272724
0
LINE
8
Layer 1
10
258.070144
20
141.272724
11
251.982329
21
136.094447
0
LINE
8
Layer 1
10
251.982329
20
136.094447
11
249.292276
21
134.070703
0
LINE
8
Layer 1
10
249.292276
20
134.070703
11
246.925929
21
132.478701
0
LINE
8
Layer 1
10
246.925929
20
132.478701
11
244.949142
21
131.359547
0
LINE
8
Layer 1
10
244.949142
20
131.359547
11
243.427766
21
130.754352
0
LINE
8
Layer 1
10
243.427766
20
130.754352
11
242.427656
21
130.704223
0
LINE
8
Layer 1
10
242.427656
20
130.704223
11
242.143654
21
130.900154
0
LINE
8
Layer 1
10
242.143654
20
130.900154
11
242.014663
21
131.250268
0
LINE
8
Layer 1
10
242.014663
20
131.250268
11
242.014663
21
131.250268
0
LINE
8
Layer 1
10
228.525118
20
133.781920
11
228.273164
21
134.655400
0
LINE
8
Layer 1
10
228.273164
20
134.655400
11
227.551059
21
135.757651
0
LINE
8
Layer 1
10
227.551059
20
135.757651
11
226.409434
21
137.044000
0
LINE
8
Layer 1
10
226.409434
20
137.044000
11
224.898922
21
138.469771
0
LINE
8
Layer 1
10
224.898922
20
138.469771
11
220.973769
21
141.560892
0
LINE
8
Layer 1
10
220.973769
20
141.560892
11
216.180662
21
144.673626
0
LINE
8
Layer 1
10
216.180662
20
144.673626
11
213.936873
21
146.094963
0
LINE
8
Layer 1
10
213.936873
20
146.094963
11
211.760739
21
147.663924
0
LINE
8
Layer 1
10
211.760739
20
147.663924
11
207.662696
21
151.170060
0
LINE
8
Layer 1
10
207.662696
20
151.170060
11
203.989068
21
155.042725
0
LINE
8
Layer 1
10
203.989068
20
155.042725
11
200.842392
21
159.132606
0
LINE
8
Layer 1
10
200.842392
20
159.132606
11
198.325201
21
163.290393
0
LINE
8
Layer 1
10
198.325201
20
163.290393
11
197.334706
21
165.348091
0
LINE
8
Layer 1
10
197.334706
20
165.348091
11
196.540032
21
167.366773
0
LINE
8
Layer 1
10
196.540032
20
167.366773
11
195.953998
21
169.327775
0
LINE
8
Layer 1
10
195.953998
20
169.327775
11
195.589420
21
171.212435
0
LINE
8
Layer 1
10
195.589420
20
171.212435
11
195.459115
21
173.002087
0
LINE
8
Layer 1
10
195.459115
20
173.002087
11
195.575899
21
174.678068
0
LINE
8
Layer 1
10
195.575899
20
174.678068
11
196.673941
21
182.781116
0
LINE
8
Layer 1
10
196.673941
20
182.781116
11
196.873079
21
183.426270
0
LINE
8
Layer 1
10
196.873079
20
183.426270
11
197.273504
21
183.810999
0
LINE
8
Layer 1
10
197.273504
20
183.810999
11
197.851865
21
183.942185
0
LINE
8
Layer 1
10
197.851865
20
183.942185
11
198.584812
21
183.826710
0
LINE
8
Layer 1
10
198.584812
20
183.826710
11
199.448991
21
183.471456
0
LINE
8
Layer 1
10
199.448991
20
183.471456
11
200.421052
21
182.883306
0
LINE
8
Layer 1
10
200.421052
20
182.883306
11
202.595415
21
181.035843
0
LINE
8
Layer 1
10
202.595415
20
181.035843
11
203.823605
21
179.933991
0
LINE
8
Layer 1
10
203.823605
20
179.933991
11
205.213659
21
178.906062
0
LINE
8
Layer 1
10
205.213659
20
178.906062
11
208.287795
21
177.161960
0
LINE
8
Layer 1
10
208.287795
20
177.161960
11
211.434702
21
175.983515
0
LINE
8
Layer 1
10
211.434702
20
175.983515
11
212.915720
21
175.662656
0
LINE
8
Layer 1
10
212.915720
20
175.662656
11
214.271259
21
175.550704
0
LINE
8
Layer 1
10
214.271259
20
175.550704
11
215.625654
21
175.426030
0
LINE
8
Layer 1
10
215.625654
20
175.426030
11
217.103332
21
175.068710
0
LINE
8
Layer 1
10
217.103332
20
175.068710
11
218.656641
21
174.503798
0
LINE
8
Layer 1
10
218.656641
20
174.503798
11
220.237927
21
173.756348
0
LINE
8
Layer 1
10
220.237927
20
173.756348
11
223.293819
21
171.814054
0
LINE
8
Layer 1
10
223.293819
20
171.814054
11
224.673119
21
170.669318
0
LINE
8
Layer 1
10
224.673119
20
170.669318
11
225.889783
21
169.442261
0
LINE
8
Layer 1
10
225.889783
20
169.442261
11
227.087510
21
167.797895
0
LINE
8
Layer 1
10
227.087510
20
167.797895
11
228.238763
21
165.658415
0
LINE
8
Layer 1
10
228.238763
20
165.658415
11
229.330394
21
163.106779
0
LINE
8
Layer 1
10
229.330394
20
163.106779
11
230.349256
21
160.225939
0
LINE
8
Layer 1
10
230.349256
20
160.225939
11
232.116078
21
153.808472
0
LINE
8
Layer 1
10
232.116078
20
153.808472
11
233.434045
21
147.069654
0
LINE
8
Layer 1
10
233.434045
20
147.069654
11
234.197974
21
140.673126
0
LINE
8
Layer 1
10
234.197974
20
140.673126
11
234.339304
21
137.810608
0
LINE
8
Layer 1
10
234.339304
20
137.810608
11
234.302680
21
135.282527
0
LINE
8
Layer 1
10
234.302680
20
135.282527
11
234.074954
21
133.171839
0
LINE
8
Layer 1
10
234.074954
20
133.171839
11
233.642979
21
131.561499
0
LINE
8
Layer 1
10
233.642979
20
131.561499
11
232.993606
21
130.534461
0
LINE
8
Layer 1
10
232.993606
20
130.534461
11
232.583286
21
130.265604
0
LINE
8
Layer 1
10
232.583286
20
130.265604
11
232.113686
21
130.173681
0
LINE
8
Layer 1
10
232.113686
20
130.173681
11
230.720321
21
130.458396
0
LINE
8
Layer 1
10
230.720321
20
130.458396
11
229.579267
21
131.233608
0
LINE
8
Layer 1
10
229.579267
20
131.233608
11
228.808281
21
132.380916
0
LINE
8
Layer 1
10
228.808281
20
132.380916
11
228.525118
21
133.781920
0
LINE
8
Layer 1
10
228.525118
20
133.781920
11
228.525118
21
133.781920
0
LINE
8
Layer 1
10
-5.341089
20
167.115220
11
-5.256173
21
168.186614
0
LINE
8
Layer 1
10
-5.256173
20
168.186614
11
-5.013995
21
169.091072
0
LINE
8
Layer 1
10
-5.013995
20
169.091072
11
-4.633410
21
169.831287
0
LINE
8
Layer 1
10
-4.633410
20
169.831287
11
-4.133271
21
170.409953
0
LINE
8
Layer 1
10
-4.133271
20
170.409953
11
-3.532432
21
170.829763
0
LINE
8
Layer 1
10
-3.532432
20
170.829763
11
-2.849749
21
171.093411
0
LINE
8
Layer 1
10
-2.849749
20
171.093411
11
-2.104075
21
171.203591
0
LINE
8
Layer 1
10
-2.104075
20
171.203591
11
-1.314265
21
171.162996
0
LINE
8
Layer 1
10
-1.314265
20
171.162996
11
0.322347
21
170.640255
0
LINE
8
Layer 1
10
0.322347
20
170.640255
11
1.909253
21
169.546736
0
LINE
8
Layer 1
10
1.909253
20
169.546736
11
3.295619
21
167.903988
0
LINE
8
Layer 1
10
3.295619
20
167.903988
11
3.866464
21
166.883387
0
LINE
8
Layer 1
10
3.866464
20
166.883387
11
4.330610
21
165.733559
0
LINE
8
Layer 1
10
4.330610
20
165.733559
11
4.495359
21
164.900909
0
LINE
8
Layer 1
10
4.495359
20
164.900909
11
4.431000
21
164.124121
0
LINE
8
Layer 1
10
4.431000
20
164.124121
11
4.154532
21
163.420197
0
LINE
8
Layer 1
10
4.154532
20
163.420197
11
3.682957
21
162.806136
0
LINE
8
Layer 1
10
3.682957
20
162.806136
11
3.033275
21
162.298941
0
LINE
8
Layer 1
10
3.033275
20
162.298941
11
2.222485
21
161.915610
0
LINE
8
Layer 1
10
2.222485
20
161.915610
11
1.267589
21
161.673144
0
LINE
8
Layer 1
10
1.267589
20
161.673144
11
0.185587
21
161.588544
0
LINE
8
Layer 1
10
0.185587
20
161.588544
11
-0.924604
21
161.701345
0
LINE
8
Layer 1
10
-0.924604
20
161.701345
11
-1.960315
21
162.024635
0
LINE
8
Layer 1
10
-1.960315
20
162.024635
11
-2.898878
21
162.535745
0
LINE
8
Layer 1
10
-2.898878
20
162.535745
11
-3.717626
21
163.212008
0
LINE
8
Layer 1
10
-3.717626
20
163.212008
11
-4.393888
21
164.030755
0
LINE
8
Layer 1
10
-4.393888
20
164.030755
11
-4.904999
21
164.969318
0
LINE
8
Layer 1
10
-4.904999
20
164.969318
11
-5.228288
21
166.005029
0
LINE
8
Layer 1
10
-5.228288
20
166.005029
11
-5.341089
21
167.115220
0
LINE
8
Layer 1
10
-5.341089
20
167.115220
11
-5.341089
21
167.115220
0
LINE
8
Layer 1
10
9.687259
20
163.818227
11
9.959037
21
164.475433
0
LINE
8
Layer 1
10
9.959037
20
164.475433
11
9.872124
21
165.493162
0
LINE
8
Layer 1
10
9.872124
20
165.493162
11
9.452764
21
166.820209
0
LINE
8
Layer 1
10
9.452764
20
166.820209
11
8.727207
21
168.405366
0
LINE
8
Layer 1
10
8.727207
20
168.405366
11
6.462487
21
172.145181
0
LINE
8
Layer 1
10
6.462487
20
172.145181
11
3.287943
21
176.302951
0
LINE
8
Layer 1
10
3.287943
20
176.302951
11
1.499583
21
178.540430
0
LINE
8
Layer 1
10
1.499583
20
178.540430
11
-0.069158
21
180.748794
0
LINE
8
Layer 1
10
-0.069158
20
180.748794
11
-1.419152
21
182.940479
0
LINE
8
Layer 1
10
-1.419152
20
182.940479
11
-2.551267
21
185.127922
0
LINE
8
Layer 1
10
-2.551267
20
185.127922
11
-3.466374
21
187.323561
0
LINE
8
Layer 1
10
-3.466374
20
187.323561
11
-4.165342
21
189.539833
0
LINE
8
Layer 1
10
-4.165342
20
189.539833
11
-4.649041
21
191.789174
0
LINE
8
Layer 1
10
-4.649041
20
191.789174
11
-4.918343
21
194.084021
0
LINE
8
Layer 1
10
-4.918343
20
194.084021
11
-4.974115
21
196.436812
0
LINE
8
Layer 1
10
-4.974115
20
196.436812
11
-4.817229
21
198.859984
0
LINE
8
Layer 1
10
-4.817229
20
198.859984
11
-4.448553
21
201.365974
0
LINE
8
Layer 1
10
-4.448553
20
201.365974
11
-3.868959
21
203.967219
0
LINE
8
Layer 1
10
-3.868959
20
203.967219
11
-3.079316
21
206.676155
0
LINE
8
Layer 1
10
-3.079316
20
206.676155
11
-2.080494
21
209.505221
0
LINE
8
Layer 1
10
-2.080494
20
209.505221
11
0.541207
21
215.573487
0
LINE
8
Layer 1
10
0.541207
20
215.573487
11
2.699140
21
219.589938
0
LINE
8
Layer 1
10
2.699140
20
219.589938
11
4.983649
21
223.017703
0
LINE
8
Layer 1
10
4.983649
20
223.017703
11
7.212465
21
225.719705
0
LINE
8
Layer 1
10
7.212465
20
225.719705
11
9.203318
21
227.558870
0
LINE
8
Layer 1
10
9.203318
20
227.558870
11
10.052550
21
228.112052
0
LINE
8
Layer 1
10
10.052550
20
228.112052
11
10.773941
21
228.398121
0
LINE
8
Layer 1
10
10.773941
20
228.398121
11
11.344706
21
228.399943
0
LINE
8
Layer 1
10
11.344706
20
228.399943
11
11.742063
21
228.100383
0
LINE
8
Layer 1
10
11.742063
20
228.100383
11
11.943227
21
227.482307
0
LINE
8
Layer 1
10
11.943227
20
227.482307
11
11.925416
21
226.528580
0
LINE
8
Layer 1
10
11.925416
20
226.528580
11
11.665845
21
225.222067
0
LINE
8
Layer 1
10
11.665845
20
225.222067
11
11.141730
21
223.545636
0
LINE
8
Layer 1
10
11.141730
20
223.545636
11
10.962647
21
222.404845
0
LINE
8
Layer 1
10
10.962647
20
222.404845
11
11.051900
21
220.829625
0
LINE
8
Layer 1
10
11.051900
20
220.829625
11
11.389206
21
218.890988
0
LINE
8
Layer 1
10
11.389206
20
218.890988
11
11.954284
21
216.659947
0
LINE
8
Layer 1
10
11.954284
20
216.659947
11
13.686628
21
211.604703
0
LINE
8
Layer 1
10
13.686628
20
211.604703
11
16.086679
21
206.231994
0
LINE
8
Layer 1
10
16.086679
20
206.231994
11
17.389440
21
203.431762
0
LINE
8
Layer 1
10
17.389440
20
203.431762
11
18.600420
21
200.435177
0
LINE
8
Layer 1
10
18.600420
20
200.435177
11
20.642274
21
194.225174
0
LINE
8
Layer 1
10
20.642274
20
194.225174
11
21.420768
21
191.197875
0
LINE
8
Layer 1
10
21.420768
20
191.197875
11
22.002720
21
188.346455
0
LINE
8
Layer 1
10
22.002720
20
188.346455
11
22.361939
21
185.763973
0
LINE
8
Layer 1
10
22.361939
20
185.763973
11
22.472237
21
183.543486
0
LINE
8
Layer 1
10
22.472237
20
183.543486
11
22.133597
21
179.803321
0
LINE
8
Layer 1
10
22.133597
20
179.803321
11
21.264735
21
176.003459
0
LINE
8
Layer 1
10
21.264735
20
176.003459
11
19.961285
21
172.316006
0
LINE
8
Layer 1
10
19.961285
20
172.316006
11
18.318882
21
168.913067
0
LINE
8
Layer 1
10
18.318882
20
168.913067
11
16.433159
21
165.966746
0
LINE
8
Layer 1
10
16.433159
20
165.966746
11
14.399750
21
163.649148
0
LINE
8
Layer 1
10
14.399750
20
163.649148
11
13.357550
21
162.779904
0
LINE
8
Layer 1
10
13.357550
20
162.779904
11
12.314291
21
162.132380
0
LINE
8
Layer 1
10
12.314291
20
162.132380
11
11.281928
21
161.728089
0
LINE
8
Layer 1
10
11.281928
20
161.728089
11
10.272415
21
161.588544
0
LINE
8
Layer 1
10
10.272415
20
161.588544
11
9.355401
21
161.764479
0
LINE
8
Layer 1
10
9.355401
20
161.764479
11
8.939402
21
162.243511
0
LINE
8
Layer 1
10
8.939402
20
162.243511
11
9.043620
21
162.952480
0
LINE
8
Layer 1
10
9.043620
20
162.952480
11
9.687259
21
163.818227
0
LINE
8
Layer 1
10
9.687259
20
163.818227
11
9.687259
21
163.818227
0
LINE
8
Layer 1
10
-53.544160
20
171.187529
11
-53.202940
21
172.414586
0
LINE
8
Layer 1
10
-53.202940
20
172.414586
11
-52.681804
21
173.559323
0
LINE
8
Layer 1
10
-52.681804
20
173.559323
11
-52.006659
21
174.596685
0
LINE
8
Layer 1
10
-52.006659
20
174.596685
11
-51.203413
21
175.501617
0
LINE
8
Layer 1
10
-51.203413
20
175.501617
11
-50.297974
21
176.249066
0
LINE
8
Layer 1
10
-50.297974
20
176.249066
11
-49.316249
21
176.813978
0
LINE
8
Layer 1
10
-49.316249
20
176.813978
11
-48.284146
21
177.171298
0
LINE
8
Layer 1
10
-48.284146
20
177.171298
11
-47.227572
21
177.295972
0
LINE
8
Layer 1
10
-47.227572
20
177.295972
11
-46.171000
21
177.171298
0
LINE
8
Layer 1
10
-46.171000
20
177.171298
11
-45.138898
21
176.813978
0
LINE
8
Layer 1
10
-45.138898
20
176.813978
11
-44.157173
21
176.249066
0
LINE
8
Layer 1
10
-44.157173
20
176.249066
11
-43.251735
21
175.501617
0
LINE
8
Layer 1
10
-43.251735
20
175.501617
11
-42.448489
21
174.596685
0
LINE
8
Layer 1
10
-42.448489
20
174.596685
11
-41.773345
21
173.559323
0
LINE
8
Layer 1
10
-41.773345
20
173.559323
11
-41.252208
21
172.414586
0
LINE
8
Layer 1
10
-41.252208
20
172.414586
11
-40.910987
21
171.187529
0
LINE
8
Layer 1
10
-40.910987
20
171.187529
11
-40.729800
21
169.694545
0
LINE
8
Layer 1
10
-40.729800
20
169.694545
11
-40.810444
21
168.424985
0
LINE
8
Layer 1
10
-40.810444
20
168.424985
11
-41.160685
21
167.371342
0
LINE
8
Layer 1
10
-41.160685
20
167.371342
11
-41.788285
21
166.526106
0
LINE
8
Layer 1
10
-41.788285
20
166.526106
11
-42.701010
21
165.881770
0
LINE
8
Layer 1
10
-42.701010
20
165.881770
11
-43.906623
21
165.430826
0
LINE
8
Layer 1
10
-43.906623
20
165.430826
11
-45.412889
21
165.165765
0
LINE
8
Layer 1
10
-45.412889
20
165.165765
11
-47.227572
21
165.079080
0
LINE
8
Layer 1
10
-47.227572
20
165.079080
11
-49.042255
21
165.165765
0
LINE
8
Layer 1
10
-49.042255
20
165.165765
11
-50.548521
21
165.430826
0
LINE
8
Layer 1
10
-50.548521
20
165.430826
11
-51.754135
21
165.881770
0
LINE
8
Layer 1
10
-51.754135
20
165.881770
11
-52.666861
21
166.526106
0
LINE
8
Layer 1
10
-52.666861
20
166.526106
11
-53.294462
21
167.371342
0
LINE
8
Layer 1
10
-53.294462
20
167.371342
11
-53.644703
21
168.424985
0
LINE
8
Layer 1
10
-53.644703
20
168.424985
11
-53.725347
21
169.694545
0
LINE
8
Layer 1
10
-53.725347
20
169.694545
11
-53.544160
21
171.187529
0
LINE
8
Layer 1
10
-53.544160
20
171.187529
11
-53.544160
21
171.187529
0
LINE
8
Layer 1
10
232.844670
20
169.136837
11
231.958490
21
170.174003
0
LINE
8
Layer 1
10
231.958490
20
170.174003
11
231.172482
21
171.394228
0
LINE
8
Layer 1
10
231.172482
20
171.394228
11
229.907649
21
174.264677
0
LINE
8
Layer 1
10
229.907649
20
174.264677
11
229.063511
21
177.509830
0
LINE
8
Layer 1
10
229.063511
20
177.509830
11
228.653409
21
180.891331
0
LINE
8
Layer 1
10
228.653409
20
180.891331
11
228.690683
21
184.170824
0
LINE
8
Layer 1
10
228.690683
20
184.170824
11
229.188674
21
187.109953
0
LINE
8
Layer 1
10
229.188674
20
187.109953
11
229.614606
21
188.377395
0
LINE
8
Layer 1
10
229.614606
20
188.377395
11
230.160721
21
189.470362
0
LINE
8
Layer 1
10
230.160721
20
189.470362
11
230.828684
21
190.359061
0
LINE
8
Layer 1
10
230.828684
20
190.359061
11
231.620164
21
191.013697
0
LINE
8
Layer 1
10
231.620164
20
191.013697
11
232.732961
21
191.530749
0
LINE
8
Layer 1
10
232.732961
20
191.530749
11
233.827168
21
191.717004
0
LINE
8
Layer 1
10
233.827168
20
191.717004
11
234.890218
21
191.597821
0
LINE
8
Layer 1
10
234.890218
20
191.597821
11
235.909540
21
191.198559
0
LINE
8
Layer 1
10
235.909540
20
191.198559
11
236.872568
21
190.544576
0
LINE
8
Layer 1
10
236.872568
20
190.544576
11
237.766732
21
189.661232
0
LINE
8
Layer 1
10
237.766732
20
189.661232
11
238.579463
21
188.573886
0
LINE
8
Layer 1
10
238.579463
20
188.573886
11
239.298193
21
187.307896
0
LINE
8
Layer 1
10
239.298193
20
187.307896
11
239.910353
21
185.888622
0
LINE
8
Layer 1
10
239.910353
20
185.888622
11
240.403374
21
184.341422
0
LINE
8
Layer 1
10
240.403374
20
184.341422
11
240.764689
21
182.691656
0
LINE
8
Layer 1
10
240.764689
20
182.691656
11
240.981727
21
180.964682
0
LINE
8
Layer 1
10
240.981727
20
180.964682
11
241.041921
21
179.185860
0
LINE
8
Layer 1
10
241.041921
20
179.185860
11
240.932702
21
177.380548
0
LINE
8
Layer 1
10
240.932702
20
177.380548
11
240.641501
21
175.574105
0
LINE
8
Layer 1
10
240.641501
20
175.574105
11
240.155750
21
173.791890
0
LINE
8
Layer 1
10
240.155750
20
173.791890
11
239.299885
21
171.403621
0
LINE
8
Layer 1
10
239.299885
20
171.403621
11
238.493213
21
169.573341
0
LINE
8
Layer 1
10
238.493213
20
169.573341
11
237.702850
21
168.280110
0
LINE
8
Layer 1
10
237.702850
20
168.280110
11
236.895910
21
167.502989
0
LINE
8
Layer 1
10
236.895910
20
167.502989
11
236.039508
21
167.221040
0
LINE
8
Layer 1
10
236.039508
20
167.221040
11
235.100757
21
167.413325
0
LINE
8
Layer 1
10
235.100757
20
167.413325
11
234.046773
21
168.058903
0
LINE
8
Layer 1
10
234.046773
20
168.058903
11
232.844670
21
169.136837
0
LINE
8
Layer 1
10
232.844670
20
169.136837
11
232.844670
21
169.136837
0
LINE
8
Layer 1
10
-26.284329
20
181.990784
11
-26.148103
21
183.407749
0
LINE
8
Layer 1
10
-26.148103
20
183.407749
11
-25.757678
21
184.967970
0
LINE
8
Layer 1
10
-25.757678
20
184.967970
11
-25.140428
21
186.620260
0
LINE
8
Layer 1
10
-25.140428
20
186.620260
11
-24.323727
21
188.313429
0
LINE
8
Layer 1
10
-24.323727
20
188.313429
11
-23.334952
21
189.996290
0
LINE
8
Layer 1
10
-23.334952
20
189.996290
11
-22.201477
21
191.617655
0
LINE
8
Layer 1
10
-22.201477
20
191.617655
11
-20.950677
21
193.126335
0
LINE
8
Layer 1
10
-20.950677
20
193.126335
11
-19.609928
21
194.471142
0
LINE
8
Layer 1
10
-19.609928
20
194.471142
11
-15.862103
21
197.690274
0
LINE
8
Layer 1
10
-15.862103
20
197.690274
11
-14.622842
21
198.482579
0
LINE
8
Layer 1
10
-14.622842
20
198.482579
11
-13.700097
21
198.725644
0
LINE
8
Layer 1
10
-13.700097
20
198.725644
11
-13.013928
21
198.416169
0
LINE
8
Layer 1
10
-13.013928
20
198.416169
11
-12.484394
21
197.550854
0
LINE
8
Layer 1
10
-12.484394
20
197.550854
11
-12.031556
21
196.126399
0
LINE
8
Layer 1
10
-12.031556
20
196.126399
11
-11.575474
21
194.139505
0
LINE
8
Layer 1
10
-11.575474
20
194.139505
11
-10.987738
21
190.282265
0
LINE
8
Layer 1
10
-10.987738
20
190.282265
11
-10.911991
21
186.740879
0
LINE
8
Layer 1
10
-10.911991
20
186.740879
11
-11.321467
21
183.576511
0
LINE
8
Layer 1
10
-11.321467
20
183.576511
11
-12.189398
21
180.850326
0
LINE
8
Layer 1
10
-12.189398
20
180.850326
11
-12.786920
21
179.670666
0
LINE
8
Layer 1
10
-12.786920
20
179.670666
11
-13.489019
21
178.623488
0
LINE
8
Layer 1
10
-13.489019
20
178.623488
11
-14.292348
21
177.716439
0
LINE
8
Layer 1
10
-14.292348
20
177.716439
11
-15.193562
21
176.957162
0
LINE
8
Layer 1
10
-15.193562
20
176.957162
11
-16.189315
21
176.353305
0
LINE
8
Layer 1
10
-16.189315
20
176.353305
11
-17.276261
21
175.912513
0
LINE
8
Layer 1
10
-17.276261
20
175.912513
11
-18.451054
21
175.642431
0
LINE
8
Layer 1
10
-18.451054
20
175.642431
11
-19.710349
21
175.550704
0
LINE
8
Layer 1
10
-19.710349
20
175.550704
11
-21.159317
21
175.664179
0
LINE
8
Layer 1
10
-21.159317
20
175.664179
11
-22.451563
21
175.997262
0
LINE
8
Layer 1
10
-22.451563
20
175.997262
11
-23.575845
21
176.538940
0
LINE
8
Layer 1
10
-23.575845
20
176.538940
11
-24.520921
21
177.278199
0
LINE
8
Layer 1
10
-24.520921
20
177.278199
11
-25.275549
21
178.204026
0
LINE
8
Layer 1
10
-25.275549
20
178.204026
11
-25.828488
21
179.305408
0
LINE
8
Layer 1
10
-25.828488
20
179.305408
11
-26.168495
21
180.571332
0
LINE
8
Layer 1
10
-26.168495
20
180.571332
11
-26.284329
21
181.990784
0
LINE
8
Layer 1
10
-26.284329
20
181.990784
11
-26.284329
21
181.990784
0
LINE
8
Layer 1
10
206.418397
20
184.858825
11
205.166675
21
186.361909
0
LINE
8
Layer 1
10
205.166675
20
186.361909
11
204.411968
21
187.825799
0
LINE
8
Layer 1
10
204.411968
20
187.825799
11
204.136528
21
189.200805
0
LINE
8
Layer 1
10
204.136528
20
189.200805
11
204.322608
21
190.437235
0
LINE
8
Layer 1
10
204.322608
20
190.437235
11
204.952461
21
191.485401
0
LINE
8
Layer 1
10
204.952461
20
191.485401
11
206.008338
21
192.295612
0
LINE
8
Layer 1
10
206.008338
20
192.295612
11
207.472493
21
192.818178
0
LINE
8
Layer 1
10
207.472493
20
192.818178
11
209.327177
21
193.003408
0
LINE
8
Layer 1
10
209.327177
20
193.003408
11
210.378919
21
192.896545
0
LINE
8
Layer 1
10
210.378919
20
192.896545
11
211.360107
21
192.590270
0
LINE
8
Layer 1
10
211.360107
20
192.590270
11
212.249265
21
192.106060
0
LINE
8
Layer 1
10
212.249265
20
192.106060
11
213.024916
21
191.465389
0
LINE
8
Layer 1
10
213.024916
20
191.465389
11
213.665585
21
190.689732
0
LINE
8
Layer 1
10
213.665585
20
190.689732
11
214.149796
21
189.800564
0
LINE
8
Layer 1
10
214.149796
20
189.800564
11
214.456071
21
188.819361
0
LINE
8
Layer 1
10
214.456071
20
188.819361
11
214.562936
21
187.767596
0
LINE
8
Layer 1
10
214.562936
20
187.767596
11
214.377705
21
185.912923
0
LINE
8
Layer 1
10
214.377705
20
185.912923
11
213.855140
21
184.448777
0
LINE
8
Layer 1
10
213.855140
20
184.448777
11
213.044932
21
183.392906
0
LINE
8
Layer 1
10
213.044932
20
183.392906
11
211.996770
21
182.763056
0
LINE
8
Layer 1
10
211.996770
20
182.763056
11
210.760345
21
182.576975
0
LINE
8
Layer 1
10
210.760345
20
182.576975
11
209.385348
21
182.852412
0
LINE
8
Layer 1
10
209.385348
20
182.852412
11
207.921468
21
183.607112
0
LINE
8
Layer 1
10
207.921468
20
183.607112
11
206.418397
21
184.858825
0
LINE
8
Layer 1
10
206.418397
20
184.858825
11
206.418397
21
184.858825
0
LINE
8
Layer 1
10
-75.637850
20
192.887274
11
-83.878248
21
199.752225
0
LINE
8
Layer 1
10
-83.878248
20
199.752225
11
-74.963999
21
199.868360
0
LINE
8
Layer 1
10
-74.963999
20
199.868360
11
-72.795444
21
200.108898
0
LINE
8
Layer 1
10
-72.795444
20
200.108898
11
-70.434092
21
200.762343
0
LINE
8
Layer 1
10
-70.434092
20
200.762343
11
-67.916642
21
201.806936
0
LINE
8
Layer 1
10
-67.916642
20
201.806936
11
-65.279794
21
203.220921
0
LINE
8
Layer 1
10
-65.279794
20
203.220921
11
-62.560246
21
204.982538
0
LINE
8
Layer 1
10
-62.560246
20
204.982538
11
-59.794697
21
207.070031
0
LINE
8
Layer 1
10
-59.794697
20
207.070031
11
-57.019847
21
209.461643
0
LINE
8
Layer 1
10
-57.019847
20
209.461643
11
-54.272394
21
212.135614
0
LINE
8
Layer 1
10
-54.272394
20
212.135614
11
-49.984581
21
216.271526
0
LINE
8
Layer 1
10
-49.984581
20
216.271526
11
-45.657124
21
219.810273
0
LINE
8
Layer 1
10
-45.657124
20
219.810273
11
-41.126531
21
222.827418
0
LINE
8
Layer 1
10
-41.126531
20
222.827418
11
-36.229308
21
225.398523
0
LINE
8
Layer 1
10
-36.229308
20
225.398523
11
-30.801963
21
227.599150
0
LINE
8
Layer 1
10
-30.801963
20
227.599150
11
-24.681003
21
229.504861
0
LINE
8
Layer 1
10
-24.681003
20
229.504861
11
-17.702934
21
231.191218
0
LINE
8
Layer 1
10
-17.702934
20
231.191218
11
-9.704264
21
232.733784
0
LINE
8
Layer 1
10
-9.704264
20
232.733784
11
-5.098410
21
233.403211
0
LINE
8
Layer 1
10
-5.098410
20
233.403211
11
-3.283142
21
233.526638
0
LINE
8
Layer 1
10
-3.283142
20
233.526638
11
-1.792068
21
233.487344
0
LINE
8
Layer 1
10
-1.792068
20
233.487344
11
-0.624503
21
233.268931
0
LINE
8
Layer 1
10
-0.624503
20
233.268931
11
0.220237
21
232.855002
0
LINE
8
Layer 1
10
0.220237
20
232.855002
11
0.742836
21
232.229158
0
LINE
8
Layer 1
10
0.742836
20
232.229158
11
0.943980
21
231.375004
0
LINE
8
Layer 1
10
0.943980
20
231.375004
11
0.824351
21
230.276141
0
LINE
8
Layer 1
10
0.824351
20
230.276141
11
0.384635
21
228.916172
0
LINE
8
Layer 1
10
0.384635
20
228.916172
11
-0.374485
21
227.278699
0
LINE
8
Layer 1
10
-0.374485
20
227.278699
11
-1.452323
21
225.347325
0
LINE
8
Layer 1
10
-1.452323
20
225.347325
11
-4.561419
21
220.537284
0
LINE
8
Layer 1
10
-4.561419
20
220.537284
11
-8.937179
21
214.354869
0
LINE
8
Layer 1
10
-8.937179
20
214.354869
11
-12.713992
21
209.497925
0
LINE
8
Layer 1
10
-12.713992
20
209.497925
11
-16.685848
21
205.063725
0
LINE
8
Layer 1
10
-16.685848
20
205.063725
11
-20.822151
21
201.062113
0
LINE
8
Layer 1
10
-20.822151
20
201.062113
11
-25.092305
21
197.502939
0
LINE
8
Layer 1
10
-25.092305
20
197.502939
11
-29.465716
21
194.396048
0
LINE
8
Layer 1
10
-29.465716
20
194.396048
11
-33.911787
21
191.751289
0
LINE
8
Layer 1
10
-33.911787
20
191.751289
11
-38.399924
21
189.578507
0
LINE
8
Layer 1
10
-38.399924
20
189.578507
11
-42.899531
21
187.887551
0
LINE
8
Layer 1
10
-42.899531
20
187.887551
11
-47.380012
21
186.688268
0
LINE
8
Layer 1
10
-47.380012
20
186.688268
11
-51.810772
21
185.990504
0
LINE
8
Layer 1
10
-51.810772
20
185.990504
11
-56.161216
21
185.804107
0
LINE
8
Layer 1
10
-56.161216
20
185.804107
11
-60.400748
21
186.138924
0
LINE
8
Layer 1
10
-60.400748
20
186.138924
11
-64.498773
21
187.004802
0
LINE
8
Layer 1
10
-64.498773
20
187.004802
11
-68.424695
21
188.411588
0
LINE
8
Layer 1
10
-68.424695
20
188.411588
11
-72.147919
21
190.369130
0
LINE
8
Layer 1
10
-72.147919
20
190.369130
11
-73.923959
21
191.557511
0
LINE
8
Layer 1
10
-73.923959
20
191.557511
11
-75.637850
21
192.887274
0
LINE
8
Layer 1
10
-75.637850
20
192.887274
11
-75.637850
21
192.887274
0
LINE
8
Layer 1
10
219.942289
20
196.261723
11
219.158235
21
197.009547
0
LINE
8
Layer 1
10
219.158235
20
197.009547
11
217.804579
21
197.707201
0
LINE
8
Layer 1
10
217.804579
20
197.707201
11
215.955437
21
198.339417
0
LINE
8
Layer 1
10
215.955437
20
198.339417
11
213.684928
21
198.890924
0
LINE
8
Layer 1
10
213.684928
20
198.890924
11
211.067169
21
199.346455
0
LINE
8
Layer 1
10
211.067169
20
199.346455
11
208.176278
21
199.690738
0
LINE
8
Layer 1
10
208.176278
20
199.690738
11
205.086373
21
199.908506
0
LINE
8
Layer 1
10
205.086373
20
199.908506
11
201.871572
21
199.984488
0
LINE
8
Layer 1
10
201.871572
20
199.984488
11
197.426505
21
200.083870
0
LINE
8
Layer 1
10
197.426505
20
200.083870
11
193.585864
21
200.416323
0
LINE
8
Layer 1
10
193.585864
20
200.416323
11
190.218641
21
201.033315
0
LINE
8
Layer 1
10
190.218641
20
201.033315
11
187.193828
21
201.986309
0
LINE
8
Layer 1
10
187.193828
20
201.986309
11
184.380417
21
203.326771
0
LINE
8
Layer 1
10
184.380417
20
203.326771
11
181.647402
21
205.106167
0
LINE
8
Layer 1
10
181.647402
20
205.106167
11
178.863775
21
207.375960
0
LINE
8
Layer 1
10
178.863775
20
207.375960
11
175.898528
21
210.187618
0
LINE
8
Layer 1
10
175.898528
20
210.187618
11
171.936724
21
214.377048
0
LINE
8
Layer 1
10
171.936724
20
214.377048
11
168.692149
21
218.241445
0
LINE
8
Layer 1
10
168.692149
20
218.241445
11
166.499631
21
221.351309
0
LINE
8
Layer 1
10
166.499631
20
221.351309
11
165.902529
21
222.489073
0
LINE
8
Layer 1
10
165.902529
20
222.489073
11
165.694002
21
223.277141
0
LINE
8
Layer 1
10
165.694002
20
223.277141
11
165.802471
21
223.693223
0
LINE
8
Layer 1
10
165.802471
20
223.693223
11
166.119799
21
224.070063
0
LINE
8
Layer 1
10
166.119799
20
224.070063
11
167.330043
21
224.708947
0
LINE
8
Layer 1
10
167.330043
20
224.708947
11
169.222750
21
225.199651
0
LINE
8
Layer 1
10
169.222750
20
225.199651
11
171.695937
21
225.548032
0
LINE
8
Layer 1
10
171.695937
20
225.548032
11
174.647622
21
225.759946
0
LINE
8
Layer 1
10
174.647622
20
225.759946
11
177.975822
21
225.841253
0
LINE
8
Layer 1
10
177.975822
20
225.841253
11
185.353833
21
225.635468
0
LINE
8
Layer 1
10
185.353833
20
225.635468
11
193.014110
21
224.977537
0
LINE
8
Layer 1
10
193.014110
20
224.977537
11
200.140787
21
223.914318
0
LINE
8
Layer 1
10
200.140787
20
223.914318
11
203.249070
21
223.245369
0
LINE
8
Layer 1
10
203.249070
20
223.245369
11
205.918004
21
222.492670
0
LINE
8
Layer 1
10
205.918004
20
222.492670
11
208.045608
21
221.662078
0
LINE
8
Layer 1
10
208.045608
20
221.662078
11
209.529897
21
220.759450
0
LINE
8
Layer 1
10
209.529897
20
220.759450
11
210.797253
21
219.590325
0
LINE
8
Layer 1
10
210.797253
20
219.590325
11
212.125426
21
218.152124
0
LINE
8
Layer 1
10
212.125426
20
218.152124
11
214.869867
21
214.642979
0
LINE
8
Layer 1
10
214.869867
20
214.642979
11
217.574517
21
210.580982
0
LINE
8
Layer 1
10
217.574517
20
210.580982
11
220.050669
21
206.315101
0
LINE
8
Layer 1
10
220.050669
20
206.315101
11
222.109618
21
202.194302
0
LINE
8
Layer 1
10
222.109618
20
202.194302
11
223.562659
21
198.567552
0
LINE
8
Layer 1
10
223.562659
20
198.567552
11
224.002993
21
197.048499
0
LINE
8
Layer 1
10
224.002993
20
197.048499
11
224.221086
21
195.783820
0
LINE
8
Layer 1
10
224.221086
20
195.783820
11
224.193349
21
194.817138
0
LINE
8
Layer 1
10
224.193349
20
194.817138
11
223.896194
21
194.192072
0
LINE
8
Layer 1
10
223.896194
20
194.192072
11
223.517160
21
193.935979
0
LINE
8
Layer 1
10
223.517160
20
193.935979
11
223.072775
21
193.843950
0
LINE
8
Layer 1
10
223.072775
20
193.843950
11
222.052824
21
194.118124
0
LINE
8
Layer 1
10
222.052824
20
194.118124
11
220.966082
21
194.946685
0
LINE
8
Layer 1
10
220.966082
20
194.946685
11
219.942289
21
196.261723
0
LINE
8
Layer 1
10
219.942289
20
196.261723
11
219.942289
21
196.261723
0
LINE
8
Layer 1
10
227.343369
20
208.340597
11
225.855171
21
210.831745
0
LINE
8
Layer 1
10
225.855171
20
210.831745
11
224.420750
21
213.658549
0
LINE
8
Layer 1
10
224.420750
20
213.658549
11
223.050770
21
216.771781
0
LINE
8
Layer 1
10
223.050770
20
216.771781
11
221.755894
21
220.122215
0
LINE
8
Layer 1
10
221.755894
20
220.122215
11
219.434100
21
227.337783
0
LINE
8
Layer 1
10
219.434100
20
227.337783
11
217.540669
21
234.911440
0
LINE
8
Layer 1
10
217.540669
20
234.911440
11
216.160904
21
242.449371
0
LINE
8
Layer 1
10
216.160904
20
242.449371
11
215.380104
21
249.557765
0
LINE
8
Layer 1
10
215.380104
20
249.557765
11
215.240973
21
252.827819
0
LINE
8
Layer 1
10
215.240973
20
252.827819
11
215.283571
21
255.842808
0
LINE
8
Layer 1
10
215.283571
20
255.842808
11
215.518561
21
258.553506
0
LINE
8
Layer 1
10
215.518561
20
258.553506
11
215.956605
21
260.910687
0
LINE
8
Layer 1
10
215.956605
20
260.910687
11
216.615720
21
263.065214
0
LINE
8
Layer 1
10
216.615720
20
263.065214
11
217.514207
21
265.280719
0
LINE
8
Layer 1
10
217.514207
20
265.280719
11
218.626135
21
267.529606
0
LINE
8
Layer 1
10
218.626135
20
267.529606
11
219.925575
21
269.784284
0
LINE
8
Layer 1
10
219.925575
20
269.784284
11
222.983268
21
274.200636
0
LINE
8
Layer 1
10
222.983268
20
274.200636
11
226.479846
21
278.309026
0
LINE
8
Layer 1
10
226.479846
20
278.309026
11
230.207869
21
281.888705
0
LINE
8
Layer 1
10
230.207869
20
281.888705
11
232.093847
21
283.411294
0
LINE
8
Layer 1
10
232.093847
20
283.411294
11
233.959895
21
284.718926
0
LINE
8
Layer 1
10
233.959895
20
284.718926
11
235.780084
21
285.784005
0
LINE
8
Layer 1
10
235.780084
20
285.784005
11
237.528484
21
286.578940
0
LINE
8
Layer 1
10
237.528484
20
286.578940
11
239.179165
21
287.076136
0
LINE
8
Layer 1
10
239.179165
20
287.076136
11
240.706196
21
287.248000
0
LINE
8
Layer 1
10
240.706196
20
287.248000
11
242.183354
21
287.178418
0
LINE
8
Layer 1
10
242.183354
20
287.178418
11
243.283879
21
286.946647
0
LINE
8
Layer 1
10
243.283879
20
286.946647
11
244.016384
21
286.518152
0
LINE
8
Layer 1
10
244.016384
20
286.518152
11
244.389482
21
285.858397
0
LINE
8
Layer 1
10
244.389482
20
285.858397
11
244.411786
21
284.932846
0
LINE
8
Layer 1
10
244.411786
20
284.932846
11
244.091909
21
283.706964
0
LINE
8
Layer 1
10
244.091909
20
283.706964
11
242.460066
21
280.216062
0
LINE
8
Layer 1
10
242.460066
20
280.216062
11
241.590859
21
278.311407
0
LINE
8
Layer 1
10
241.590859
20
278.311407
11
240.965272
21
276.284355
0
LINE
8
Layer 1
10
240.965272
20
276.284355
11
240.583126
21
274.109795
0
LINE
8
Layer 1
10
240.583126
20
274.109795
11
240.444244
21
271.762615
0
LINE
8
Layer 1
10
240.444244
20
271.762615
11
240.548449
21
269.217703
0
LINE
8
Layer 1
10
240.548449
20
269.217703
11
240.895561
21
266.449946
0
LINE
8
Layer 1
10
240.895561
20
266.449946
11
241.485403
21
263.434233
0
LINE
8
Layer 1
10
241.485403
20
263.434233
11
242.317798
21
260.145452
0
LINE
8
Layer 1
10
242.317798
20
260.145452
11
243.990685
21
253.165430
0
LINE
8
Layer 1
10
243.990685
20
253.165430
11
245.081413
21
246.384840
0
LINE
8
Layer 1
10
245.081413
20
246.384840
11
245.591137
21
239.823575
0
LINE
8
Layer 1
10
245.591137
20
239.823575
11
245.521013
21
233.501525
0
LINE
8
Layer 1
10
245.521013
20
233.501525
11
245.268868
21
230.436422
0
LINE
8
Layer 1
10
245.268868
20
230.436422
11
244.872194
21
227.438581
0
LINE
8
Layer 1
10
244.872194
20
227.438581
11
244.331136
21
224.510489
0
LINE
8
Layer 1
10
244.331136
20
224.510489
11
243.645837
21
221.654632
0
LINE
8
Layer 1
10
243.645837
20
221.654632
11
242.816442
21
218.873497
0
LINE
8
Layer 1
10
242.816442
20
218.873497
11
241.843095
21
216.169570
0
LINE
8
Layer 1
10
241.843095
20
216.169570
11
240.725941
21
213.545337
0
LINE
8
Layer 1
10
240.725941
20
213.545337
11
239.465124
21
211.003285
0
LINE
8
Layer 1
10
239.465124
20
211.003285
11
233.245059
21
199.333574
0
LINE
8
Layer 1
10
233.245059
20
199.333574
11
227.343369
21
208.340597
0
LINE
8
Layer 1
10
227.343369
20
208.340597
11
227.343369
21
208.340597
0
LINE
8
Layer 1
10
245.977825
20
206.965568
11
246.086905
21
208.601755
0
LINE
8
Layer 1
10
246.086905
20
208.601755
11
246.414144
21
210.019785
0
LINE
8
Layer 1
10
246.414144
20
210.019785
11
246.959541
21
211.219658
0
LINE
8
Layer 1
10
246.959541
20
211.219658
11
247.723098
21
212.201373
0
LINE
8
Layer 1
10
247.723098
20
212.201373
11
248.704812
21
212.964930
0
LINE
8
Layer 1
10
248.704812
20
212.964930
11
249.904685
21
213.510329
0
LINE
8
Layer 1
10
249.904685
20
213.510329
11
251.322715
21
213.837568
0
LINE
8
Layer 1
10
251.322715
20
213.837568
11
252.958902
21
213.946648
0
LINE
8
Layer 1
10
252.958902
20
213.946648
11
254.595099
21
213.837568
0
LINE
8
Layer 1
10
254.595099
20
213.837568
11
256.013136
21
213.510329
0
LINE
8
Layer 1
10
256.013136
20
213.510329
11
257.213013
21
212.964930
0
LINE
8
Layer 1
10
257.213013
20
212.964930
11
258.194731
21
212.201373
0
LINE
8
Layer 1
10
258.194731
20
212.201373
11
258.958289
21
211.219658
0
LINE
8
Layer 1
10
258.958289
20
211.219658
11
259.503688
21
210.019785
0
LINE
8
Layer 1
10
259.503688
20
210.019785
11
259.830928
21
208.601755
0
LINE
8
Layer 1
10
259.830928
20
208.601755
11
259.940007
21
206.965568
0
LINE
8
Layer 1
10
259.940007
20
206.965568
11
259.830928
21
205.329382
0
LINE
8
Layer 1
10
259.830928
20
205.329382
11
259.503688
21
203.911352
0
LINE
8
Layer 1
10
259.503688
20
203.911352
11
258.958289
21
202.711479
0
LINE
8
Layer 1
10
258.958289
20
202.711479
11
258.194731
21
201.729764
0
LINE
8
Layer 1
10
258.194731
20
201.729764
11
257.213013
21
200.966206
0
LINE
8
Layer 1
10
257.213013
20
200.966206
11
256.013136
21
200.420808
0
LINE
8
Layer 1
10
256.013136
20
200.420808
11
254.595099
21
200.093568
0
LINE
8
Layer 1
10
254.595099
20
200.093568
11
252.958902
21
199.984488
0
LINE
8
Layer 1
10
252.958902
20
199.984488
11
251.322715
21
200.093568
0
LINE
8
Layer 1
10
251.322715
20
200.093568
11
249.904685
21
200.420808
0
LINE
8
Layer 1
10
249.904685
20
200.420808
11
248.704812
21
200.966206
0
LINE
8
Layer 1
10
248.704812
20
200.966206
11
247.723098
21
201.729764
0
LINE
8
Layer 1
10
247.723098
20
201.729764
11
246.959541
21
202.711479
0
LINE
8
Layer 1
10
246.959541
20
202.711479
11
246.414144
21
203.911352
0
LINE
8
Layer 1
10
246.414144
20
203.911352
11
246.086905
21
205.329382
0
LINE
8
Layer 1
10
246.086905
20
205.329382
11
245.977825
21
206.965568
0
LINE
8
Layer 1
10
245.977825
20
206.965568
11
245.977825
21
206.965568
0
LINE
8
Layer 1
10
31.309587
20
226.546979
11
31.371523
21
232.625907
0
LINE
8
Layer 1
10
31.371523
20
232.625907
11
31.629843
21
237.493536
0
LINE
8
Layer 1
10
31.629843
20
237.493536
11
32.193310
21
241.416870
0
LINE
8
Layer 1
10
32.193310
20
241.416870
11
32.623464
21
243.107866
0
LINE
8
Layer 1
10
32.623464
20
243.107866
11
33.170691
21
244.662915
0
LINE
8
Layer 1
10
33.170691
20
244.662915
11
33.848587
21
246.115393
0
LINE
8
Layer 1
10
33.848587
20
246.115393
11
34.670749
21
247.498675
0
LINE
8
Layer 1
10
34.670749
20
247.498675
11
36.802250
21
250.191156
0
LINE
8
Layer 1
10
36.802250
20
250.191156
11
39.673960
21
253.007363
0
LINE
8
Layer 1
10
39.673960
20
253.007363
11
43.394641
21
256.214300
0
LINE
8
Layer 1
10
43.394641
20
256.214300
11
47.974724
21
259.697202
0
LINE
8
Layer 1
10
47.974724
20
259.697202
11
52.551767
21
262.606433
0
LINE
8
Layer 1
10
52.551767
20
262.606433
11
56.799469
21
264.836662
0
LINE
8
Layer 1
10
56.799469
20
264.836662
11
60.391527
21
266.282555
0
LINE
8
Layer 1
10
60.391527
20
266.282555
11
61.839720
21
266.678459
0
LINE
8
Layer 1
10
61.839720
20
266.678459
11
63.001639
21
266.838779
0
LINE
8
Layer 1
10
63.001639
20
266.838779
11
63.836497
21
266.750348
0
LINE
8
Layer 1
10
63.836497
20
266.750348
11
64.303505
21
266.400001
0
LINE
8
Layer 1
10
64.303505
20
266.400001
11
64.361875
21
265.774569
0
LINE
8
Layer 1
10
64.361875
20
265.774569
11
63.970820
21
264.860887
0
LINE
8
Layer 1
10
63.970820
20
264.860887
11
63.089553
21
263.645788
0
LINE
8
Layer 1
10
63.089553
20
263.645788
11
61.677285
21
262.116106
0
LINE
8
Layer 1
10
61.677285
20
262.116106
11
60.835874
21
260.962872
0
LINE
8
Layer 1
10
60.835874
20
260.962872
11
60.050912
21
259.284215
0
LINE
8
Layer 1
10
60.050912
20
259.284215
11
59.339579
21
257.159979
0
LINE
8
Layer 1
10
59.339579
20
257.159979
11
58.719054
21
254.670008
0
LINE
8
Layer 1
10
58.719054
20
254.670008
11
58.206517
21
251.894144
0
LINE
8
Layer 1
10
58.206517
20
251.894144
11
57.819149
21
248.912233
0
LINE
8
Layer 1
10
57.819149
20
248.912233
11
57.574129
21
245.804116
0
LINE
8
Layer 1
10
57.574129
20
245.804116
11
57.488638
21
242.649639
0
LINE
8
Layer 1
10
57.488638
20
242.649639
11
57.385279
21
238.377897
0
LINE
8
Layer 1
10
57.385279
20
238.377897
11
57.043163
21
234.656640
0
LINE
8
Layer 1
10
57.043163
20
234.656640
11
56.414236
21
231.365856
0
LINE
8
Layer 1
10
56.414236
20
231.365856
11
55.450443
21
228.385536
0
LINE
8
Layer 1
10
55.450443
20
228.385536
11
54.103729
21
225.595671
0
LINE
8
Layer 1
10
54.103729
20
225.595671
11
52.326038
21
222.876249
0
LINE
8
Layer 1
10
52.326038
20
222.876249
11
50.069317
21
220.107261
0
LINE
8
Layer 1
10
50.069317
20
220.107261
11
47.285509
21
217.168697
0
LINE
8
Layer 1
10
47.285509
20
217.168697
11
43.096079
21
213.207182
0
LINE
8
Layer 1
10
43.096079
20
213.207182
11
39.231682
21
209.963392
0
LINE
8
Layer 1
10
39.231682
20
209.963392
11
36.121818
21
207.772039
0
LINE
8
Layer 1
10
36.121818
20
207.772039
11
34.984054
21
207.175624
0
LINE
8
Layer 1
10
34.984054
20
207.175624
11
34.195986
21
206.967835
0
LINE
8
Layer 1
10
34.195986
20
206.967835
11
33.901958
21
207.069626
0
LINE
8
Layer 1
10
33.901958
20
207.069626
11
33.616174
21
207.367849
0
LINE
8
Layer 1
10
33.616174
20
207.367849
11
33.075258
21
208.513439
0
LINE
8
Layer 1
10
33.075258
20
208.513439
11
32.585078
21
210.324299
0
LINE
8
Layer 1
10
32.585078
20
210.324299
11
32.157473
21
212.720124
0
LINE
8
Layer 1
10
32.157473
20
212.720124
11
31.537344
21
218.945451
0
LINE
8
Layer 1
10
31.537344
20
218.945451
11
31.309587
21
226.546979
0
LINE
8
Layer 1
10
31.309587
20
226.546979
11
31.309587
21
226.546979
0
LINE
8
Layer 1
10
16.363688
20
217.976477
11
16.767256
21
218.942836
0
LINE
8
Layer 1
10
16.767256
20
218.942836
11
17.286328
21
219.800407
0
LINE
8
Layer 1
10
17.286328
20
219.800407
11
18.601453
21
221.180945
0
LINE
8
Layer 1
10
18.601453
20
221.180945
11
20.169991
21
222.101615
0
LINE
8
Layer 1
10
20.169991
20
222.101615
11
21.852873
21
222.545940
0
LINE
8
Layer 1
10
21.852873
20
222.545940
11
23.511026
21
222.497442
0
LINE
8
Layer 1
10
23.511026
20
222.497442
11
25.005382
21
221.939644
0
LINE
8
Layer 1
10
25.005382
20
221.939644
11
25.647675
21
221.464609
0
LINE
8
Layer 1
10
25.647675
20
221.464609
11
26.196867
21
220.856071
0
LINE
8
Layer 1
10
26.196867
20
220.856071
11
26.635574
21
220.111968
0
LINE
8
Layer 1
10
26.635574
20
220.111968
11
26.946412
21
219.230243
0
LINE
8
Layer 1
10
26.946412
20
219.230243
11
26.988826
21
218.513089
0
LINE
8
Layer 1
10
26.988826
20
218.513089
11
26.771523
21
217.794575
0
LINE
8
Layer 1
10
26.771523
20
217.794575
11
26.317626
21
217.093966
0
LINE
8
Layer 1
10
26.317626
20
217.093966
11
25.650261
21
216.430526
0
LINE
8
Layer 1
10
25.650261
20
216.430526
11
24.792551
21
215.823517
0
LINE
8
Layer 1
10
24.792551
20
215.823517
11
23.767620
21
215.292205
0
LINE
8
Layer 1
10
23.767620
20
215.292205
11
21.308595
21
214.533721
0
LINE
8
Layer 1
10
21.308595
20
214.533721
11
19.837072
21
214.321794
0
LINE
8
Layer 1
10
19.837072
20
214.321794
11
18.604002
21
214.297115
0
LINE
8
Layer 1
10
18.604002
20
214.297115
11
17.612076
21
214.457814
0
LINE
8
Layer 1
10
17.612076
20
214.457814
11
16.863980
21
214.802019
0
LINE
8
Layer 1
10
16.863980
20
214.802019
11
16.362405
21
215.327859
0
LINE
8
Layer 1
10
16.362405
20
215.327859
11
16.110039
21
216.033463
0
LINE
8
Layer 1
10
16.110039
20
216.033463
11
16.109570
21
216.916959
0
LINE
8
Layer 1
10
16.109570
20
216.916959
11
16.363688
21
217.976477
0
LINE
8
Layer 1
10
16.363688
20
217.976477
11
16.363688
21
217.976477
0
LINE
8
Layer 1
10
172.676479
20
232.853756
11
172.789279
21
233.963947
0
LINE
8
Layer 1
10
172.789279
20
233.963947
11
173.112569
21
234.999658
0
LINE
8
Layer 1
10
173.112569
20
234.999658
11
173.623679
21
235.938222
0
LINE
8
Layer 1
10
173.623679
20
235.938222
11
174.299942
21
236.756969
0
LINE
8
Layer 1
10
174.299942
20
236.756969
11
175.118689
21
237.433232
0
LINE
8
Layer 1
10
175.118689
20
237.433232
11
176.057252
21
237.944342
0
LINE
8
Layer 1
10
176.057252
20
237.944342
11
177.092963
21
238.267632
0
LINE
8
Layer 1
10
177.092963
20
238.267632
11
178.203154
21
238.380432
0
LINE
8
Layer 1
10
178.203154
20
238.380432
11
179.285157
21
238.295831
0
LINE
8
Layer 1
10
179.285157
20
238.295831
11
180.240055
21
238.053362
0
LINE
8
Layer 1
10
180.240055
20
238.053362
11
181.050846
21
237.670027
0
LINE
8
Layer 1
10
181.050846
20
237.670027
11
181.700530
21
237.162827
0
LINE
8
Layer 1
10
181.700530
20
237.162827
11
182.172105
21
236.548765
0
LINE
8
Layer 1
10
182.172105
20
236.548765
11
182.448571
21
235.844841
0
LINE
8
Layer 1
10
182.448571
20
235.844841
11
182.512926
21
235.068058
0
LINE
8
Layer 1
10
182.512926
20
235.068058
11
182.348169
21
234.235417
0
LINE
8
Layer 1
10
182.348169
20
234.235417
11
181.884024
21
233.085590
0
LINE
8
Layer 1
10
181.884024
20
233.085590
11
181.313181
21
232.064989
0
LINE
8
Layer 1
10
181.313181
20
232.064989
11
179.926817
21
230.422241
0
LINE
8
Layer 1
10
179.926817
20
230.422241
11
178.339912
21
229.328722
0
LINE
8
Layer 1
10
178.339912
20
229.328722
11
176.703301
21
228.805981
0
LINE
8
Layer 1
10
176.703301
20
228.805981
11
175.913491
21
228.765386
0
LINE
8
Layer 1
10
175.913491
20
228.765386
11
175.167818
21
228.875565
0
LINE
8
Layer 1
10
175.167818
20
228.875565
11
174.485135
21
229.139214
0
LINE
8
Layer 1
10
174.485135
20
229.139214
11
173.884297
21
229.559024
0
LINE
8
Layer 1
10
173.884297
20
229.559024
11
173.384158
21
230.137690
0
LINE
8
Layer 1
10
173.384158
20
230.137690
11
173.003572
21
230.877905
0
LINE
8
Layer 1
10
173.003572
20
230.877905
11
172.761394
21
231.782362
0
LINE
8
Layer 1
10
172.761394
20
231.782362
11
172.676479
21
232.853756
0
LINE
8
Layer 1
10
172.676479
20
232.853756
11
172.676479
21
232.853756
0
LINE
8
Layer 1
10
201.473441
20
231.716782
11
199.938090
21
232.439719
0
LINE
8
Layer 1
10
199.938090
20
232.439719
11
198.552174
21
233.377312
0
LINE
8
Layer 1
10
198.552174
20
233.377312
11
197.322098
21
234.493507
0
LINE
8
Layer 1
10
197.322098
20
234.493507
11
196.254271
21
235.752249
0
LINE
8
Layer 1
10
196.254271
20
235.752249
11
195.355101
21
237.117484
0
LINE
8
Layer 1
10
195.355101
20
237.117484
11
194.630995
21
238.553157
0
LINE
8
Layer 1
10
194.630995
20
238.553157
11
194.088360
21
240.023214
0
LINE
8
Layer 1
10
194.088360
20
240.023214
11
193.733606
21
241.491602
0
LINE
8
Layer 1
10
193.733606
20
241.491602
11
193.573138
21
242.922265
0
LINE
8
Layer 1
10
193.573138
20
242.922265
11
193.613365
21
244.279149
0
LINE
8
Layer 1
10
193.613365
20
244.279149
11
193.860695
21
245.526200
0
LINE
8
Layer 1
10
193.860695
20
245.526200
11
194.321535
21
246.627363
0
LINE
8
Layer 1
10
194.321535
20
246.627363
11
195.002293
21
247.546585
0
LINE
8
Layer 1
10
195.002293
20
247.546585
11
195.909376
21
248.247811
0
LINE
8
Layer 1
10
195.909376
20
248.247811
11
197.049193
21
248.694986
0
LINE
8
Layer 1
10
197.049193
20
248.694986
11
198.428150
21
248.852056
0
LINE
8
Layer 1
10
198.428150
20
248.852056
11
199.635183
21
248.750591
0
LINE
8
Layer 1
10
199.635183
20
248.750591
11
200.845011
21
248.457514
0
LINE
8
Layer 1
10
200.845011
20
248.457514
11
202.044083
21
247.989802
0
LINE
8
Layer 1
10
202.044083
20
247.989802
11
203.218851
21
247.364431
0
LINE
8
Layer 1
10
203.218851
20
247.364431
11
205.441272
21
245.708622
0
LINE
8
Layer 1
10
205.441272
20
245.708622
11
207.403871
21
243.625903
0
LINE
8
Layer 1
10
207.403871
20
243.625903
11
208.998249
21
241.252089
0
LINE
8
Layer 1
10
208.998249
20
241.252089
11
210.116004
21
238.722996
0
LINE
8
Layer 1
10
210.116004
20
238.722996
11
210.462272
21
237.442662
0
LINE
8
Layer 1
10
210.462272
20
237.442662
11
210.648735
21
236.174439
0
LINE
8
Layer 1
10
210.648735
20
236.174439
11
210.661841
21
234.935304
0
LINE
8
Layer 1
10
210.661841
20
234.935304
11
210.488042
21
233.742234
0
LINE
8
Layer 1
10
210.488042
20
233.742234
11
210.092559
21
232.526660
0
LINE
8
Layer 1
10
210.092559
20
232.526660
11
209.527388
21
231.594877
0
LINE
8
Layer 1
10
209.527388
20
231.594877
11
208.772894
21
230.942474
0
LINE
8
Layer 1
10
208.772894
20
230.942474
11
207.809446
21
230.565040
0
LINE
8
Layer 1
10
207.809446
20
230.565040
11
206.617409
21
230.458164
0
LINE
8
Layer 1
10
206.617409
20
230.458164
11
205.177152
21
230.617436
0
LINE
8
Layer 1
10
205.177152
20
230.617436
11
203.469040
21
231.038446
0
LINE
8
Layer 1
10
203.469040
20
231.038446
11
201.473441
21
231.716782
0
LINE
8
Layer 1
10
201.473441
20
231.716782
11
201.473441
21
231.716782
0
LINE
8
Layer 1
10
130.863080
20
237.100244
11
119.275011
21
241.972653
0
LINE
8
Layer 1
10
119.275011
20
241.972653
11
135.736542
21
252.876297
0
LINE
8
Layer 1
10
135.736542
20
252.876297
11
140.896902
21
256.231763
0
LINE
8
Layer 1
10
140.896902
20
256.231763
11
145.098317
21
258.748209
0
LINE
8
Layer 1
10
145.098317
20
258.748209
11
148.614802
21
260.489260
0
LINE
8
Layer 1
10
148.614802
20
260.489260
11
151.720370
21
261.518541
0
LINE
8
Layer 1
10
151.720370
20
261.518541
11
153.204690
21
261.786152
0
LINE
8
Layer 1
10
153.204690
20
261.786152
11
154.689035
21
261.899680
0
LINE
8
Layer 1
10
154.689035
20
261.899680
11
157.794811
21
261.696303
0
LINE
8
Layer 1
10
157.794811
20
261.696303
11
161.311711
21
260.972034
0
LINE
8
Layer 1
10
161.311711
20
260.972034
11
165.513749
21
259.790501
0
LINE
8
Layer 1
10
165.513749
20
259.790501
11
171.025791
21
257.829586
0
LINE
8
Layer 1
10
171.025791
20
257.829586
11
176.190464
21
255.439624
0
LINE
8
Layer 1
10
176.190464
20
255.439624
11
178.461578
21
254.178181
0
LINE
8
Layer 1
10
178.461578
20
254.178181
11
180.428699
21
252.922793
0
LINE
8
Layer 1
10
180.428699
20
252.922793
11
182.019443
21
251.711230
0
LINE
8
Layer 1
10
182.019443
20
251.711230
11
183.161426
21
250.581266
0
LINE
8
Layer 1
10
183.161426
20
250.581266
11
184.321462
21
249.097046
0
LINE
8
Layer 1
10
184.321462
20
249.097046
11
185.053250
21
247.914348
0
LINE
8
Layer 1
10
185.053250
20
247.914348
11
185.331558
21
247.001233
0
LINE
8
Layer 1
10
185.331558
20
247.001233
11
185.131155
21
246.325761
0
LINE
8
Layer 1
10
185.131155
20
246.325761
11
184.426807
21
245.855993
0
LINE
8
Layer 1
10
184.426807
20
245.855993
11
183.193283
21
245.559988
0
LINE
8
Layer 1
10
183.193283
20
245.559988
11
179.037776
21
245.361512
0
LINE
8
Layer 1
10
179.037776
20
245.361512
11
175.474389
21
245.081282
0
LINE
8
Layer 1
10
175.474389
20
245.081282
11
172.022759
21
244.318279
0
LINE
8
Layer 1
10
172.022759
20
244.318279
11
169.076869
21
243.189030
0
LINE
8
Layer 1
10
169.076869
20
243.189030
11
167.916697
21
242.523479
0
LINE
8
Layer 1
10
167.916697
20
242.523479
11
167.030702
21
241.810064
0
LINE
8
Layer 1
10
167.030702
20
241.810064
11
165.518952
21
240.466779
0
LINE
8
Layer 1
10
165.518952
20
240.466779
11
163.809542
21
239.250610
0
LINE
8
Layer 1
10
163.809542
20
239.250610
11
161.923436
21
238.164287
0
LINE
8
Layer 1
10
161.923436
20
238.164287
11
159.881597
21
237.210541
0
LINE
8
Layer 1
10
159.881597
20
237.210541
11
157.704990
21
236.392101
0
LINE
8
Layer 1
10
157.704990
20
236.392101
11
155.414576
21
235.711698
0
LINE
8
Layer 1
10
155.414576
20
235.711698
11
153.031320
21
235.172061
0
LINE
8
Layer 1
10
153.031320
20
235.172061
11
150.576186
21
234.775920
0
LINE
8
Layer 1
10
150.576186
20
234.775920
11
148.070136
21
234.526005
0
LINE
8
Layer 1
10
148.070136
20
234.526005
11
145.534134
21
234.425046
0
LINE
8
Layer 1
10
145.534134
20
234.425046
11
142.989143
21
234.475773
0
LINE
8
Layer 1
10
142.989143
20
234.475773
11
140.456127
21
234.680915
0
LINE
8
Layer 1
10
140.456127
20
234.680915
11
137.956049
21
235.043204
0
LINE
8
Layer 1
10
137.956049
20
235.043204
11
135.509873
21
235.565368
0
LINE
8
Layer 1
10
135.509873
20
235.565368
11
133.138563
21
236.250138
0
LINE
8
Layer 1
10
133.138563
20
236.250138
11
130.863080
21
237.100244
0
LINE
8
Layer 1
10
130.863080
20
237.100244
11
130.863080
21
237.100244
0
LINE
8
Layer 1
10
7.312122
20
237.674467
11
6.859935
21
238.577928
0
LINE
8
Layer 1
10
6.859935
20
238.577928
11
6.602954
21
239.498517
0
LINE
8
Layer 1
10
6.602954
20
239.498517
11
6.535123
21
240.430058
0
LINE
8
Layer 1
10
6.535123
20
240.430058
11
6.650386
21
241.366377
0
LINE
8
Layer 1
10
6.650386
20
241.366377
11
6.942686
21
242.301295
0
LINE
8
Layer 1
10
6.942686
20
242.301295
11
7.405969
21
243.228638
0
LINE
8
Layer 1
10
7.405969
20
243.228638
11
8.821256
21
245.035893
0
LINE
8
Layer 1
10
8.821256
20
245.035893
11
10.847797
21
246.738730
0
LINE
8
Layer 1
10
10.847797
20
246.738730
11
13.437145
21
248.287742
0
LINE
8
Layer 1
10
13.437145
20
248.287742
11
16.540850
21
249.633518
0
LINE
8
Layer 1
10
16.540850
20
249.633518
11
20.110466
21
250.726650
0
LINE
8
Layer 1
10
20.110466
20
250.726650
11
23.207091
21
251.478093
0
LINE
8
Layer 1
10
23.207091
20
251.478093
11
25.498286
21
251.918381
0
LINE
8
Layer 1
10
25.498286
20
251.918381
11
27.042842
21
251.976022
0
LINE
8
Layer 1
10
27.042842
20
251.976022
11
27.553501
21
251.839009
0
LINE
8
Layer 1
10
27.553501
20
251.839009
11
27.899547
21
251.579524
0
LINE
8
Layer 1
10
27.899547
20
251.579524
11
28.088328
21
251.188631
0
LINE
8
Layer 1
10
28.088328
20
251.188631
11
28.127193
21
250.657394
0
LINE
8
Layer 1
10
28.127193
20
250.657394
11
27.784570
21
249.138142
0
LINE
8
Layer 1
10
27.784570
20
249.138142
11
26.930466
21
246.950273
0
LINE
8
Layer 1
10
26.930466
20
246.950273
11
25.623673
21
244.022297
0
LINE
8
Layer 1
10
25.623673
20
244.022297
11
24.808376
21
242.457449
0
LINE
8
Layer 1
10
24.808376
20
242.457449
11
23.855919
21
241.016016
0
LINE
8
Layer 1
10
23.855919
20
241.016016
11
22.786289
21
239.704927
0
LINE
8
Layer 1
10
22.786289
20
239.704927
11
21.619473
21
238.531109
0
LINE
8
Layer 1
10
21.619473
20
238.531109
11
20.375456
21
237.501493
0
LINE
8
Layer 1
10
20.375456
20
237.501493
11
19.074225
21
236.623005
0
LINE
8
Layer 1
10
19.074225
20
236.623005
11
17.735767
21
235.902574
0
LINE
8
Layer 1
10
17.735767
20
235.902574
11
16.380067
21
235.347130
0
LINE
8
Layer 1
10
16.380067
20
235.347130
11
15.027111
21
234.963599
0
LINE
8
Layer 1
10
15.027111
20
234.963599
11
13.696887
21
234.758911
0
LINE
8
Layer 1
10
13.696887
20
234.758911
11
12.409379
21
234.739994
0
LINE
8
Layer 1
10
12.409379
20
234.739994
11
11.184576
21
234.913776
0
LINE
8
Layer 1
10
11.184576
20
234.913776
11
10.042462
21
235.287186
0
LINE
8
Layer 1
10
10.042462
20
235.287186
11
9.003024
21
235.867153
0
LINE
8
Layer 1
10
9.003024
20
235.867153
11
8.086248
21
236.660603
0
LINE
8
Layer 1
10
8.086248
20
236.660603
11
7.312122
21
237.674467
0
LINE
8
Layer 1
10
7.312122
20
237.674467
11
7.312122
21
237.674467
0
LINE
8
Layer 1
10
74.001376
20
236.993397
11
73.772092
21
237.660955
0
LINE
8
Layer 1
10
73.772092
20
237.660955
11
73.863811
21
238.818108
0
LINE
8
Layer 1
10
73.863811
20
238.818108
11
74.243467
21
240.398982
0
LINE
8
Layer 1
10
74.243467
20
240.398982
11
74.877994
21
242.337702
0
LINE
8
Layer 1
10
74.877994
20
242.337702
11
76.779397
21
247.025179
0
LINE
8
Layer 1
10
76.779397
20
247.025179
11
79.303490
21
252.353543
0
LINE
8
Layer 1
10
79.303490
20
252.353543
11
82.185746
21
257.795793
0
LINE
8
Layer 1
10
82.185746
20
257.795793
11
85.161635
21
262.824931
0
LINE
8
Layer 1
10
85.161635
20
262.824931
11
87.966628
21
266.913959
0
LINE
8
Layer 1
10
87.966628
20
266.913959
11
89.222374
21
268.441245
0
LINE
8
Layer 1
10
89.222374
20
268.441245
11
90.336198
21
269.535878
0
LINE
8
Layer 1
10
90.336198
20
269.535878
11
91.658231
21
270.407114
0
LINE
8
Layer 1
10
91.658231
20
270.407114
11
93.414964
21
271.220336
0
LINE
8
Layer 1
10
93.414964
20
271.220336
11
95.538778
21
271.969107
0
LINE
8
Layer 1
10
95.538778
20
271.969107
11
97.962056
21
272.646991
0
LINE
8
Layer 1
10
97.962056
20
272.646991
11
103.436528
21
273.764360
0
LINE
8
Layer 1
10
103.436528
20
273.764360
11
109.297436
21
274.520956
0
LINE
8
Layer 1
10
109.297436
20
274.520956
11
115.003834
21
274.865294
0
LINE
8
Layer 1
10
115.003834
20
274.865294
11
120.014777
21
274.745889
0
LINE
8
Layer 1
10
120.014777
20
274.745889
11
122.090406
21
274.496194
0
LINE
8
Layer 1
10
122.090406
20
274.496194
11
123.789318
21
274.111256
0
LINE
8
Layer 1
10
123.789318
20
274.111256
11
125.043892
21
273.584640
0
LINE
8
Layer 1
10
125.043892
20
273.584640
11
125.786512
21
272.909910
0
LINE
8
Layer 1
10
125.786512
20
272.909910
11
126.246157
21
271.700556
0
LINE
8
Layer 1
10
126.246157
20
271.700556
11
126.235781
21
271.171619
0
LINE
8
Layer 1
10
126.235781
20
271.171619
11
126.074690
21
270.710208
0
LINE
8
Layer 1
10
126.074690
20
270.710208
11
125.769948
21
270.329095
0
LINE
8
Layer 1
10
125.769948
20
270.329095
11
125.328618
21
270.041057
0
LINE
8
Layer 1
10
125.328618
20
270.041057
11
124.064451
21
269.795297
0
LINE
8
Layer 1
10
124.064451
20
269.795297
11
123.144759
21
269.512600
0
LINE
8
Layer 1
10
123.144759
20
269.512600
11
121.925121
21
268.702384
0
LINE
8
Layer 1
10
121.925121
20
268.702384
11
120.458092
21
267.421457
0
LINE
8
Layer 1
10
120.458092
20
267.421457
11
118.796223
21
265.726630
0
LINE
8
Layer 1
10
118.796223
20
265.726630
11
115.098179
21
261.322515
0
LINE
8
Layer 1
10
115.098179
20
261.322515
11
111.251410
21
255.944515
0
LINE
8
Layer 1
10
111.251410
20
255.944515
11
109.281329
21
253.121308
0
LINE
8
Layer 1
10
109.281329
20
253.121308
11
107.194369
21
250.408457
0
LINE
8
Layer 1
10
107.194369
20
250.408457
11
105.054014
21
247.870990
0
LINE
8
Layer 1
10
105.054014
20
247.870990
11
102.923750
21
245.573934
0
LINE
8
Layer 1
10
102.923750
20
245.573934
11
100.867062
21
243.582318
0
LINE
8
Layer 1
10
100.867062
20
243.582318
11
98.947436
21
241.961168
0
LINE
8
Layer 1
10
98.947436
20
241.961168
11
97.228356
21
240.775512
0
LINE
8
Layer 1
10
97.228356
20
240.775512
11
95.773308
21
240.090377
0
LINE
8
Layer 1
10
95.773308
20
240.090377
11
88.062924
21
237.933269
0
LINE
8
Layer 1
10
88.062924
20
237.933269
11
84.589881
21
237.174157
0
LINE
8
Layer 1
10
84.589881
20
237.174157
11
81.470111
21
236.642020
0
LINE
8
Layer 1
10
81.470111
20
236.642020
11
78.777494
21
236.347366
0
LINE
8
Layer 1
10
78.777494
20
236.347366
11
76.585913
21
236.300705
0
LINE
8
Layer 1
10
76.585913
20
236.300705
11
74.969246
21
236.512546
0
LINE
8
Layer 1
10
74.969246
20
236.512546
11
74.001376
21
236.993397
0
LINE
8
Layer 1
10
74.001376
20
236.993397
11
74.001376
21
236.993397
0
LINE
8
Layer 1
10
-20.466752
20
240.707473
11
-21.280224
21
241.629970
0
LINE
8
Layer 1
10
-21.280224
20
241.629970
11
-21.922235
21
242.586961
0
LINE
8
Layer 1
10
-21.922235
20
242.586961
11
-22.397974
21
243.565476
0
LINE
8
Layer 1
10
-22.397974
20
243.565476
11
-22.712630
21
244.552542
0
LINE
8
Layer 1
10
-22.712630
20
244.552542
11
-22.871391
21
245.535188
0
LINE
8
Layer 1
10
-22.871391
20
245.535188
11
-22.879446
21
246.500441
0
LINE
8
Layer 1
10
-22.879446
20
246.500441
11
-22.464195
21
248.326883
0
LINE
8
Layer 1
10
-22.464195
20
248.326883
11
-21.508386
21
249.928094
0
LINE
8
Layer 1
10
-21.508386
20
249.928094
11
-20.840743
21
250.611808
0
LINE
8
Layer 1
10
-20.840743
20
250.611808
11
-20.053528
21
251.200299
0
LINE
8
Layer 1
10
-20.053528
20
251.200299
11
-19.151928
21
251.680594
0
LINE
8
Layer 1
10
-19.151928
20
251.680594
11
-18.141132
21
252.039723
0
LINE
8
Layer 1
10
-18.141132
20
252.039723
11
-17.026329
21
252.264713
0
LINE
8
Layer 1
10
-17.026329
20
252.264713
11
-15.812707
21
252.342592
0
LINE
8
Layer 1
10
-15.812707
20
252.342592
11
-14.176520
21
252.233512
0
LINE
8
Layer 1
10
-14.176520
20
252.233512
11
-12.758490
21
251.906273
0
LINE
8
Layer 1
10
-12.758490
20
251.906273
11
-11.558617
21
251.360875
0
LINE
8
Layer 1
10
-11.558617
20
251.360875
11
-10.576902
21
250.597318
0
LINE
8
Layer 1
10
-10.576902
20
250.597318
11
-9.813345
21
249.615603
0
LINE
8
Layer 1
10
-9.813345
20
249.615603
11
-9.267946
21
248.415730
0
LINE
8
Layer 1
10
-9.267946
20
248.415730
11
-8.940707
21
246.997699
0
LINE
8
Layer 1
10
-8.940707
20
246.997699
11
-8.831627
21
245.361512
0
LINE
8
Layer 1
10
-8.831627
20
245.361512
11
-8.909507
21
244.147892
0
LINE
8
Layer 1
10
-8.909507
20
244.147892
11
-9.134497
21
243.033089
0
LINE
8
Layer 1
10
-9.134497
20
243.033089
11
-9.493625
21
242.022294
0
LINE
8
Layer 1
10
-9.493625
20
242.022294
11
-9.973921
21
241.120694
0
LINE
8
Layer 1
10
-9.973921
20
241.120694
11
-10.562412
21
240.333479
0
LINE
8
Layer 1
10
-10.562412
20
240.333479
11
-11.246126
21
239.665837
0
LINE
8
Layer 1
10
-11.246126
20
239.665837
11
-12.847337
21
238.710027
0
LINE
8
Layer 1
10
-12.847337
20
238.710027
11
-14.673780
21
238.294776
0
LINE
8
Layer 1
10
-14.673780
20
238.294776
11
-15.639034
21
238.302832
0
LINE
8
Layer 1
10
-15.639034
20
238.302832
11
-16.621680
21
238.461593
0
LINE
8
Layer 1
10
-16.621680
20
238.461593
11
-17.608746
21
238.776249
0
LINE
8
Layer 1
10
-17.608746
20
238.776249
11
-18.587262
21
239.251989
0
LINE
8
Layer 1
10
-18.587262
20
239.251989
11
-19.544254
21
239.894000
0
LINE
8
Layer 1
10
-19.544254
20
239.894000
11
-20.466752
21
240.707473
0
LINE
8
Layer 1
10
-20.466752
20
240.707473
11
-20.466752
21
240.707473
0
LINE
8
Layer 1
10
64.469718
20
250.306460
11
64.582519
21
251.416651
0
LINE
8
Layer 1
10
64.582519
20
251.416651
11
64.905809
21
252.452363
0
LINE
8
Layer 1
10
64.905809
20
252.452363
11
65.416921
21
253.390926
0
LINE
8
Layer 1
10
65.416921
20
253.390926
11
66.093185
21
254.209673
0
LINE
8
Layer 1
10
66.093185
20
254.209673
11
66.911933
21
254.885936
0
LINE
8
Layer 1
10
66.911933
20
254.885936
11
67.850498
21
255.397046
0
LINE
8
Layer 1
10
67.850498
20
255.397046
11
68.886211
21
255.720336
0
LINE
8
Layer 1
10
68.886211
20
255.720336
11
69.996403
21
255.833136
0
LINE
8
Layer 1
10
69.996403
20
255.833136
11
71.078404
21
255.748535
0
LINE
8
Layer 1
10
71.078404
20
255.748535
11
72.033299
21
255.506066
0
LINE
8
Layer 1
10
72.033299
20
255.506066
11
72.844088
21
255.122731
0
LINE
8
Layer 1
10
72.844088
20
255.122731
11
73.493770
21
254.615531
0
LINE
8
Layer 1
10
73.493770
20
254.615531
11
73.965344
21
254.001468
0
LINE
8
Layer 1
10
73.965344
20
254.001468
11
74.241810
21
253.297543
0
LINE
8
Layer 1
10
74.241810
20
253.297543
11
74.306168
21
252.520759
0
LINE
8
Layer 1
10
74.306168
20
252.520759
11
74.141417
21
251.688116
0
LINE
8
Layer 1
10
74.141417
20
251.688116
11
73.677272
21
250.538288
0
LINE
8
Layer 1
10
73.677272
20
250.538288
11
73.106428
21
249.517687
0
LINE
8
Layer 1
10
73.106428
20
249.517687
11
71.720063
21
247.874940
0
LINE
8
Layer 1
10
71.720063
20
247.874940
11
70.133157
21
246.781422
0
LINE
8
Layer 1
10
70.133157
20
246.781422
11
68.496544
21
246.258682
0
LINE
8
Layer 1
10
68.496544
20
246.258682
11
67.706734
21
246.218087
0
LINE
8
Layer 1
10
67.706734
20
246.218087
11
66.961060
21
246.328268
0
LINE
8
Layer 1
10
66.961060
20
246.328268
11
66.278376
21
246.591916
0
LINE
8
Layer 1
10
66.278376
20
246.591916
11
65.677537
21
247.011727
0
LINE
8
Layer 1
10
65.677537
20
247.011727
11
65.177398
21
247.590393
0
LINE
8
Layer 1
10
65.177398
20
247.590393
11
64.796812
21
248.330609
0
LINE
8
Layer 1
10
64.796812
20
248.330609
11
64.554634
21
249.235066
0
LINE
8
Layer 1
10
64.554634
20
249.235066
11
64.469718
21
250.306460
0
LINE
8
Layer 1
10
64.469718
20
250.306460
11
64.469718
21
250.306460
0
LINE
8
Layer 1
10
120.318366
20
257.578404
11
120.425230
21
258.630168
0
LINE
8
Layer 1
10
120.425230
20
258.630168
11
120.731505
21
259.611372
0
LINE
8
Layer 1
10
120.731505
20
259.611372
11
121.215715
21
260.500540
0
LINE
8
Layer 1
10
121.215715
20
260.500540
11
121.856386
21
261.276196
0
LINE
8
Layer 1
10
121.856386
20
261.276196
11
122.632043
21
261.916868
0
LINE
8
Layer 1
10
122.632043
20
261.916868
11
123.521211
21
262.401078
0
LINE
8
Layer 1
10
123.521211
20
262.401078
11
124.502414
21
262.707352
0
LINE
8
Layer 1
10
124.502414
20
262.707352
11
125.554178
21
262.814216
0
LINE
8
Layer 1
10
125.554178
20
262.814216
11
126.605943
21
262.707352
0
LINE
8
Layer 1
10
126.605943
20
262.707352
11
127.587146
21
262.401078
0
LINE
8
Layer 1
10
127.587146
20
262.401078
11
128.476314
21
261.916868
0
LINE
8
Layer 1
10
128.476314
20
261.916868
11
129.251971
21
261.276196
0
LINE
8
Layer 1
10
129.251971
20
261.276196
11
129.892642
21
260.500540
0
LINE
8
Layer 1
10
129.892642
20
260.500540
11
130.376852
21
259.611372
0
LINE
8
Layer 1
10
130.376852
20
259.611372
11
130.683127
21
258.630168
0
LINE
8
Layer 1
10
130.683127
20
258.630168
11
130.789990
21
257.578404
0
LINE
8
Layer 1
10
130.789990
20
257.578404
11
130.683127
21
256.526640
0
LINE
8
Layer 1
10
130.683127
20
256.526640
11
130.376852
21
255.545436
0
LINE
8
Layer 1
10
130.376852
20
255.545436
11
129.892642
21
254.656269
0
LINE
8
Layer 1
10
129.892642
20
254.656269
11
129.251971
21
253.880612
0
LINE
8
Layer 1
10
129.251971
20
253.880612
11
128.476314
21
253.239941
0
LINE
8
Layer 1
10
128.476314
20
253.239941
11
127.587146
21
252.755730
0
LINE
8
Layer 1
10
127.587146
20
252.755730
11
126.605943
21
252.449456
0
LINE
8
Layer 1
10
126.605943
20
252.449456
11
125.554178
21
252.342592
0
LINE
8
Layer 1
10
125.554178
20
252.342592
11
124.502414
21
252.449456
0
LINE
8
Layer 1
10
124.502414
20
252.449456
11
123.521211
21
252.755730
0
LINE
8
Layer 1
10
123.521211
20
252.755730
11
122.632043
21
253.239941
0
LINE
8
Layer 1
10
122.632043
20
253.239941
11
121.856386
21
253.880612
0
LINE
8
Layer 1
10
121.856386
20
253.880612
11
121.215715
21
254.656269
0
LINE
8
Layer 1
10
121.215715
20
254.656269
11
120.731505
21
255.545436
0
LINE
8
Layer 1
10
120.731505
20
255.545436
11
120.425230
21
256.526640
0
LINE
8
Layer 1
10
120.425230
20
256.526640
11
120.318366
21
257.578404
0
LINE
8
Layer 1
10
120.318366
20
257.578404
11
120.318366
21
257.578404
0
LINE
8
Layer 1
10
-8.831627
20
258.298257
11
-10.625415
21
259.050207
0
LINE
8
Layer 1
10
-10.625415
20
259.050207
11
-12.446934
21
259.995070
0
LINE
8
Layer 1
10
-12.446934
20
259.995070
11
-16.093987
21
262.376561
0
LINE
8
Layer 1
10
-16.093987
20
262.376561
11
-19.614428
21
265.268783
0
LINE
8
Layer 1
10
-19.614428
20
265.268783
11
-22.849897
21
268.497792
0
LINE
8
Layer 1
10
-22.849897
20
268.497792
11
-25.642035
21
271.889641
0
LINE
8
Layer 1
10
-25.642035
20
271.889641
11
-27.832484
21
275.270385
0
LINE
8
Layer 1
10
-27.832484
20
275.270385
11
-28.652587
21
276.902234
0
LINE
8
Layer 1
10
-28.652587
20
276.902234
11
-29.262883
21
278.466077
0
LINE
8
Layer 1
10
-29.262883
20
278.466077
11
-29.643577
21
279.940171
0
LINE
8
Layer 1
10
-29.643577
20
279.940171
11
-29.774873
21
281.302772
0
LINE
8
Layer 1
10
-29.774873
20
281.302772
11
-29.725672
21
283.126836
0
LINE
8
Layer 1
10
-29.725672
20
283.126836
11
-29.561938
21
284.499474
0
LINE
8
Layer 1
10
-29.561938
20
284.499474
11
-29.259475
21
285.433807
0
LINE
8
Layer 1
10
-29.259475
20
285.433807
11
-28.794088
21
285.942954
0
LINE
8
Layer 1
10
-28.794088
20
285.942954
11
-28.141581
21
286.040037
0
LINE
8
Layer 1
10
-28.141581
20
286.040037
11
-27.277759
21
285.738176
0
LINE
8
Layer 1
10
-27.277759
20
285.738176
11
-26.178426
21
285.050491
0
LINE
8
Layer 1
10
-26.178426
20
285.050491
11
-24.819386
21
283.990104
0
LINE
8
Layer 1
10
-24.819386
20
283.990104
11
-23.273419
21
282.955518
0
LINE
8
Layer 1
10
-23.273419
20
282.955518
11
-21.429781
21
282.222567
0
LINE
8
Layer 1
10
-21.429781
20
282.222567
11
-19.195824
21
281.792008
0
LINE
8
Layer 1
10
-19.195824
20
281.792008
11
-16.478897
21
281.664596
0
LINE
8
Layer 1
10
-16.478897
20
281.664596
11
-13.186353
21
281.841090
0
LINE
8
Layer 1
10
-13.186353
20
281.841090
11
-9.225540
21
282.322244
0
LINE
8
Layer 1
10
-9.225540
20
282.322244
11
-4.503811
21
283.108816
0
LINE
8
Layer 1
10
-4.503811
20
283.108816
11
1.071486
21
284.201561
0
LINE
8
Layer 1
10
1.071486
20
284.201561
11
7.035701
21
285.359489
0
LINE
8
Layer 1
10
7.035701
20
285.359489
11
12.197416
21
286.175577
0
LINE
8
Layer 1
10
12.197416
20
286.175577
11
16.749749
21
286.647469
0
LINE
8
Layer 1
10
16.749749
20
286.647469
11
20.885820
21
286.772808
0
LINE
8
Layer 1
10
20.885820
20
286.772808
11
24.798747
21
286.549239
0
LINE
8
Layer 1
10
24.798747
20
286.549239
11
28.681649
21
285.974403
0
LINE
8
Layer 1
10
28.681649
20
285.974403
11
32.727646
21
285.045946
0
LINE
8
Layer 1
10
32.727646
20
285.045946
11
37.129855
21
283.761509
0
LINE
8
Layer 1
10
37.129855
20
283.761509
11
43.208393
21
281.961746
0
LINE
8
Layer 1
10
43.208393
20
281.961746
11
48.579467
21
280.583260
0
LINE
8
Layer 1
10
48.579467
20
280.583260
11
52.660954
21
279.761545
0
LINE
8
Layer 1
10
52.660954
20
279.761545
11
54.036190
21
279.601818
0
LINE
8
Layer 1
10
54.036190
20
279.601818
11
54.870734
21
279.632093
0
LINE
8
Layer 1
10
54.870734
20
279.632093
11
55.396616
21
279.685098
0
LINE
8
Layer 1
10
55.396616
20
279.685098
11
55.887218
21
279.590491
0
LINE
8
Layer 1
10
55.887218
20
279.590491
11
56.719630
21
279.007925
0
LINE
8
Layer 1
10
56.719630
20
279.007925
11
57.282070
21
277.983365
0
LINE
8
Layer 1
10
57.282070
20
277.983365
11
57.488638
21
276.615781
0
LINE
8
Layer 1
10
57.488638
20
276.615781
11
57.114616
21
275.708217
0
LINE
8
Layer 1
10
57.114616
20
275.708217
11
56.042655
21
274.524921
0
LINE
8
Layer 1
10
56.042655
20
274.524921
11
54.347920
21
273.115861
0
LINE
8
Layer 1
10
54.347920
20
273.115861
11
52.105572
21
271.531006
0
LINE
8
Layer 1
10
52.105572
20
271.531006
11
46.278689
21
268.033781
0
LINE
8
Layer 1
10
46.278689
20
268.033781
11
39.163303
21
264.432989
0
LINE
8
Layer 1
10
39.163303
20
264.432989
11
32.628852
21
261.684400
0
LINE
8
Layer 1
10
32.628852
20
261.684400
11
26.042478
21
259.475846
0
LINE
8
Layer 1
10
26.042478
20
259.475846
11
19.506583
21
257.820415
0
LINE
8
Layer 1
10
19.506583
20
257.820415
11
13.123570
21
256.731198
0
LINE
8
Layer 1
10
13.123570
20
256.731198
11
6.995840
21
256.221285
0
LINE
8
Layer 1
10
6.995840
20
256.221285
11
4.059707
21
256.187657
0
LINE
8
Layer 1
10
4.059707
20
256.187657
11
1.225795
21
256.303764
0
LINE
8
Layer 1
10
1.225795
20
256.303764
11
-1.493094
21
256.571241
0
LINE
8
Layer 1
10
-1.493094
20
256.571241
11
-4.084161
21
256.991725
0
LINE
8
Layer 1
10
-4.084161
20
256.991725
11
-6.534606
21
257.566851
0
LINE
8
Layer 1
10
-6.534606
20
257.566851
11
-8.831627
21
258.298257
0
LINE
8
Layer 1
10
-8.831627
20
258.298257
11
-8.831627
21
258.298257
0
LINE
8
Layer 1
10
181.402826
20
259.896998
11
177.066278
21
262.593870
0
LINE
8
Layer 1
10
177.066278
20
262.593870
11
172.506343
21
265.974050
0
LINE
8
Layer 1
10
172.506343
20
265.974050
11
167.887677
21
269.873846
0
LINE
8
Layer 1
10
167.887677
20
269.873846
11
163.374936
21
274.129565
0
LINE
8
Layer 1
10
163.374936
20
274.129565
11
159.132775
21
278.577516
0
LINE
8
Layer 1
10
159.132775
20
278.577516
11
155.325850
21
283.054006
0
LINE
8
Layer 1
10
155.325850
20
283.054006
11
152.118816
21
287.395343
0
LINE
8
Layer 1
10
152.118816
20
287.395343
11
149.676330
21
291.437834
0
LINE
8
Layer 1
10
149.676330
20
291.437834
11
148.595331
21
293.721719
0
LINE
8
Layer 1
10
148.595331
20
293.721719
11
147.657718
21
296.143309
0
LINE
8
Layer 1
10
147.657718
20
296.143309
11
146.863534
21
298.676715
0
LINE
8
Layer 1
10
146.863534
20
298.676715
11
146.212824
21
301.296049
0
LINE
8
Layer 1
10
146.212824
20
301.296049
11
145.341997
21
306.688949
0
LINE
8
Layer 1
10
145.341997
20
306.688949
11
145.045590
21
312.114902
0
LINE
8
Layer 1
10
145.045590
20
312.114902
11
145.323952
21
317.366802
0
LINE
8
Layer 1
10
145.323952
20
317.366802
11
145.678781
21
319.862761
0
LINE
8
Layer 1
10
145.678781
20
319.862761
11
146.177433
21
322.237543
0
LINE
8
Layer 1
10
146.177433
20
322.237543
11
146.819954
21
324.465258
0
LINE
8
Layer 1
10
146.819954
20
324.465258
11
147.606386
21
326.520018
0
LINE
8
Layer 1
10
147.606386
20
326.520018
11
148.536773
21
328.375936
0
LINE
8
Layer 1
10
148.536773
20
328.375936
11
149.611159
21
330.007122
0
LINE
8
Layer 1
10
149.611159
20
330.007122
11
151.708048
21
332.572121
0
LINE
8
Layer 1
10
151.708048
20
332.572121
11
153.539917
21
334.397367
0
LINE
8
Layer 1
10
153.539917
20
334.397367
11
155.102278
21
335.482953
0
LINE
8
Layer 1
10
155.102278
20
335.482953
11
155.780990
21
335.748402
0
LINE
8
Layer 1
10
155.780990
20
335.748402
11
156.390641
21
335.828971
0
LINE
8
Layer 1
10
156.390641
20
335.828971
11
156.930670
21
335.724671
0
LINE
8
Layer 1
10
156.930670
20
335.724671
11
157.400515
21
335.435514
0
LINE
8
Layer 1
10
157.400515
20
335.435514
11
157.799617
21
334.961512
0
LINE
8
Layer 1
10
157.799617
20
334.961512
11
158.127413
21
334.302676
0
LINE
8
Layer 1
10
158.127413
20
334.302676
11
158.566844
21
332.430548
0
LINE
8
Layer 1
10
158.566844
20
332.430548
11
158.714319
21
329.819224
0
LINE
8
Layer 1
10
158.714319
20
329.819224
11
158.962325
21
328.314041
0
LINE
8
Layer 1
10
158.962325
20
328.314041
11
159.673117
21
326.445159
0
LINE
8
Layer 1
10
159.673117
20
326.445159
11
160.796858
21
324.286711
0
LINE
8
Layer 1
10
160.796858
20
324.286711
11
162.283709
21
321.912825
0
LINE
8
Layer 1
10
162.283709
20
321.912825
11
164.083831
21
319.397633
0
LINE
8
Layer 1
10
164.083831
20
319.397633
11
166.147387
21
316.815265
0
LINE
8
Layer 1
10
166.147387
20
316.815265
11
168.424537
21
314.239851
0
LINE
8
Layer 1
10
168.424537
20
314.239851
11
170.865444
21
311.745521
0
LINE
8
Layer 1
10
170.865444
20
311.745521
11
175.001348
21
307.457708
0
LINE
8
Layer 1
10
175.001348
20
307.457708
11
178.540094
21
303.130251
0
LINE
8
Layer 1
10
178.540094
20
303.130251
11
181.557241
21
298.599657
0
LINE
8
Layer 1
10
181.557241
20
298.599657
11
184.128352
21
293.702435
0
LINE
8
Layer 1
10
184.128352
20
293.702435
11
186.328987
21
288.275090
0
LINE
8
Layer 1
10
186.328987
20
288.275090
11
188.234706
21
282.154130
0
LINE
8
Layer 1
10
188.234706
20
282.154130
11
189.921070
21
275.176061
0
LINE
8
Layer 1
10
189.921070
20
275.176061
11
191.463639
21
267.177392
0
LINE
8
Layer 1
10
191.463639
20
267.177392
11
192.086742
21
263.112275
0
LINE
8
Layer 1
10
192.086742
20
263.112275
11
192.309616
21
260.047828
0
LINE
8
Layer 1
10
192.309616
20
260.047828
11
192.249543
21
258.875352
0
LINE
8
Layer 1
10
192.249543
20
258.875352
11
192.063704
21
257.934439
0
LINE
8
Layer 1
10
192.063704
20
257.934439
11
191.743528
21
257.218889
0
LINE
8
Layer 1
10
191.743528
20
257.218889
11
191.280447
21
256.722499
0
LINE
8
Layer 1
10
191.280447
20
256.722499
11
190.665891
21
256.439068
0
LINE
8
Layer 1
10
190.665891
20
256.439068
11
189.891289
21
256.362395
0
LINE
8
Layer 1
10
189.891289
20
256.362395
11
188.948072
21
256.486279
0
LINE
8
Layer 1
10
188.948072
20
256.486279
11
187.827671
21
256.804518
0
LINE
8
Layer 1
10
187.827671
20
256.804518
11
185.021036
21
257.999256
0
LINE
8
Layer 1
10
185.021036
20
257.999256
11
181.402826
21
259.896998
0
LINE
8
Layer 1
10
181.402826
20
259.896998
11
181.402826
21
259.896998
0
LINE
8
Layer 1
10
198.282467
20
268.284657
11
197.854603
21
269.697939
0
LINE
8
Layer 1
10
197.854603
20
269.697939
11
197.649871
21
271.083109
0
LINE
8
Layer 1
10
197.649871
20
271.083109
11
197.650115
21
272.422640
0
LINE
8
Layer 1
10
197.650115
20
272.422640
11
197.837179
21
273.699006
0
LINE
8
Layer 1
10
197.837179
20
273.699006
11
198.192908
21
274.894682
0
LINE
8
Layer 1
10
198.192908
20
274.894682
11
198.699147
21
275.992141
0
LINE
8
Layer 1
10
198.699147
20
275.992141
11
199.337739
21
276.973857
0
LINE
8
Layer 1
10
199.337739
20
276.973857
11
200.090531
21
277.822305
0
LINE
8
Layer 1
10
200.090531
20
277.822305
11
200.939365
21
278.519959
0
LINE
8
Layer 1
10
200.939365
20
278.519959
11
201.866087
21
279.049293
0
LINE
8
Layer 1
10
201.866087
20
279.049293
11
202.852541
21
279.392781
0
LINE
8
Layer 1
10
202.852541
20
279.392781
11
203.880571
21
279.532897
0
LINE
8
Layer 1
10
203.880571
20
279.532897
11
204.932023
21
279.452115
0
LINE
8
Layer 1
10
204.932023
20
279.452115
11
205.988741
21
279.132909
0
LINE
8
Layer 1
10
205.988741
20
279.132909
11
207.032569
21
278.557754
0
LINE
8
Layer 1
10
207.032569
20
278.557754
11
208.045352
21
277.709124
0
LINE
8
Layer 1
10
208.045352
20
277.709124
11
208.799372
21
276.805537
0
LINE
8
Layer 1
10
208.799372
20
276.805537
11
209.390171
21
275.786293
0
LINE
8
Layer 1
10
209.390171
20
275.786293
11
209.824119
21
274.675393
0
LINE
8
Layer 1
10
209.824119
20
274.675393
11
210.107590
21
273.496841
0
LINE
8
Layer 1
10
210.107590
20
273.496841
11
210.248584
21
271.032789
0
LINE
8
Layer 1
10
210.248584
20
271.032789
11
209.864130
21
268.586156
0
LINE
8
Layer 1
10
209.864130
20
268.586156
11
209.005202
21
266.348962
0
LINE
8
Layer 1
10
209.005202
20
266.348962
11
208.413740
21
265.368911
0
LINE
8
Layer 1
10
208.413740
20
265.368911
11
207.722776
21
264.513228
0
LINE
8
Layer 1
10
207.722776
20
264.513228
11
206.938681
21
263.805914
0
LINE
8
Layer 1
10
206.938681
20
263.805914
11
206.067828
21
263.270972
0
LINE
8
Layer 1
10
206.067828
20
263.270972
11
205.116588
21
262.932406
0
LINE
8
Layer 1
10
205.116588
20
262.932406
11
204.091334
21
262.814216
0
LINE
8
Layer 1
10
204.091334
20
262.814216
11
203.303302
21
262.925869
0
LINE
8
Layer 1
10
203.303302
20
262.925869
11
202.485314
21
263.245869
0
LINE
8
Layer 1
10
202.485314
20
263.245869
11
200.854764
21
264.421160
0
LINE
8
Layer 1
10
200.854764
20
264.421160
11
199.390282
21
266.160589
0
LINE
8
Layer 1
10
199.390282
20
266.160589
11
198.282467
21
268.284657
0
LINE
8
Layer 1
10
198.282467
20
268.284657
11
198.282467
21
268.284657
0
LINE
8
Layer 1
10
138.643707
20
268.839554
11
137.754420
21
269.297070
0
LINE
8
Layer 1
10
137.754420
20
269.297070
11
136.961022
21
269.985770
0
LINE
8
Layer 1
10
136.961022
20
269.985770
11
136.266305
21
270.869680
0
LINE
8
Layer 1
10
136.266305
20
270.869680
11
135.673061
21
271.912829
0
LINE
8
Layer 1
10
135.673061
20
271.912829
11
134.802166
21
274.332955
0
LINE
8
Layer 1
10
134.802166
20
274.332955
11
134.370675
21
276.958374
0
LINE
8
Layer 1
10
134.370675
20
276.958374
11
134.400931
21
279.501309
0
LINE
8
Layer 1
10
134.400931
20
279.501309
11
134.596196
21
280.651915
0
LINE
8
Layer 1
10
134.596196
20
280.651915
11
134.915274
21
281.673985
0
LINE
8
Layer 1
10
134.915274
20
281.673985
11
135.360959
21
282.531546
0
LINE
8
Layer 1
10
135.360959
20
282.531546
11
135.936044
21
283.188626
0
LINE
8
Layer 1
10
135.936044
20
283.188626
11
136.643321
21
283.609254
0
LINE
8
Layer 1
10
136.643321
20
283.609254
11
137.485583
21
283.757457
0
LINE
8
Layer 1
10
137.485583
20
283.757457
11
140.028915
21
283.552702
0
LINE
8
Layer 1
10
140.028915
20
283.552702
11
142.615043
21
282.966069
0
LINE
8
Layer 1
10
142.615043
20
282.966069
11
145.171548
21
282.039004
0
LINE
8
Layer 1
10
145.171548
20
282.039004
11
147.626011
21
280.812952
0
LINE
8
Layer 1
10
147.626011
20
280.812952
11
149.906014
21
279.329361
0
LINE
8
Layer 1
10
149.906014
20
279.329361
11
151.939138
21
277.629676
0
LINE
8
Layer 1
10
151.939138
20
277.629676
11
153.652965
21
275.755344
0
LINE
8
Layer 1
10
153.652965
20
275.755344
11
154.975075
21
273.747810
0
LINE
8
Layer 1
10
154.975075
20
273.747810
11
155.700637
21
272.230495
0
LINE
8
Layer 1
10
155.700637
20
272.230495
11
156.093675
21
270.976231
0
LINE
8
Layer 1
10
156.093675
20
270.976231
11
156.137153
21
269.961827
0
LINE
8
Layer 1
10
156.137153
20
269.961827
11
155.814037
21
269.164093
0
LINE
8
Layer 1
10
155.814037
20
269.164093
11
155.107291
21
268.559839
0
LINE
8
Layer 1
10
155.107291
20
268.559839
11
153.999880
21
268.125874
0
LINE
8
Layer 1
10
153.999880
20
268.125874
11
152.474771
21
267.839008
0
LINE
8
Layer 1
10
152.474771
20
267.839008
11
150.514928
21
267.676050
0
LINE
8
Layer 1
10
150.514928
20
267.676050
11
147.255419
21
267.652154
0
LINE
8
Layer 1
10
147.255419
20
267.652154
11
143.930693
21
267.863558
0
LINE
8
Layer 1
10
143.930693
20
267.863558
11
140.930280
21
268.272083
0
LINE
8
Layer 1
10
140.930280
20
268.272083
11
138.643707
21
268.839554
0
LINE
8
Layer 1
10
138.643707
20
268.839554
11
138.643707
21
268.839554
0
LINE
8
Layer 1
10
66.796759
20
272.122337
11
65.694130
21
273.416321
0
LINE
8
Layer 1
10
65.694130
20
273.416321
11
64.990514
21
274.671183
0
LINE
8
Layer 1
10
64.990514
20
274.671183
11
64.663518
21
275.875067
0
LINE
8
Layer 1
10
64.663518
20
275.875067
11
64.690747
21
277.016118
0
LINE
8
Layer 1
10
64.690747
20
277.016118
11
65.049810
21
278.082481
0
LINE
8
Layer 1
10
65.049810
20
278.082481
11
65.718312
21
279.062300
0
LINE
8
Layer 1
10
65.718312
20
279.062300
11
66.673859
21
279.943720
0
LINE
8
Layer 1
10
66.673859
20
279.943720
11
67.894059
21
280.714885
0
LINE
8
Layer 1
10
67.894059
20
280.714885
11
69.356518
21
281.363941
0
LINE
8
Layer 1
10
69.356518
20
281.363941
11
71.038842
21
281.879032
0
LINE
8
Layer 1
10
71.038842
20
281.879032
11
72.918639
21
282.248303
0
LINE
8
Layer 1
10
72.918639
20
282.248303
11
74.973513
21
282.459898
0
LINE
8
Layer 1
10
74.973513
20
282.459898
11
77.181073
21
282.501962
0
LINE
8
Layer 1
10
77.181073
20
282.501962
11
79.518924
21
282.362640
0
LINE
8
Layer 1
10
79.518924
20
282.362640
11
81.964674
21
282.030076
0
LINE
8
Layer 1
10
81.964674
20
282.030076
11
84.495928
21
281.492414
0
LINE
8
Layer 1
10
84.495928
20
281.492414
11
89.338699
21
280.128752
0
LINE
8
Layer 1
10
89.338699
20
280.128752
11
90.646268
21
279.522325
0
LINE
8
Layer 1
10
90.646268
20
279.522325
11
91.244492
21
278.875176
0
LINE
8
Layer 1
10
91.244492
20
278.875176
11
91.285382
21
278.515003
0
LINE
8
Layer 1
10
91.285382
20
278.515003
11
91.158274
21
278.119057
0
LINE
8
Layer 1
10
91.158274
20
278.119057
11
90.412513
21
277.185725
0
LINE
8
Layer 1
10
90.412513
20
277.185725
11
89.032111
21
276.006934
0
LINE
8
Layer 1
10
89.032111
20
276.006934
11
87.041967
21
274.514439
0
LINE
8
Layer 1
10
87.041967
20
274.514439
11
84.342020
21
272.804264
0
LINE
8
Layer 1
10
84.342020
20
272.804264
11
81.494308
21
271.474104
0
LINE
8
Layer 1
10
81.494308
20
271.474104
11
78.596900
21
270.535547
0
LINE
8
Layer 1
10
78.596900
20
270.535547
11
75.747862
21
270.000179
0
LINE
8
Layer 1
10
75.747862
20
270.000179
11
73.045262
21
269.879587
0
LINE
8
Layer 1
10
73.045262
20
269.879587
11
70.587167
21
270.185358
0
LINE
8
Layer 1
10
70.587167
20
270.185358
11
68.471644
21
270.929079
0
LINE
8
Layer 1
10
68.471644
20
270.929079
11
67.572992
21
271.468792
0
LINE
8
Layer 1
10
67.572992
20
271.468792
11
66.796759
21
272.122337
0
LINE
8
Layer 1
10
66.796759
20
272.122337
11
66.796759
21
272.122337
0
LINE
8
Layer 1
10
98.927220
20
283.961444
11
92.091393
21
285.266974
0
LINE
8
Layer 1
10
92.091393
20
285.266974
11
85.421565
21
286.909752
0
LINE
8
Layer 1
10
85.421565
20
286.909752
11
79.681951
21
288.679609
0
LINE
8
Layer 1
10
79.681951
20
288.679609
11
77.399791
21
289.546515
0
LINE
8
Layer 1
10
77.399791
20
289.546515
11
75.636766
21
290.366378
0
LINE
8
Layer 1
10
75.636766
20
290.366378
11
73.370486
21
291.694336
0
LINE
8
Layer 1
10
73.370486
20
291.694336
11
71.181998
21
293.204132
0
LINE
8
Layer 1
10
71.181998
20
293.204132
11
69.080742
21
294.880666
0
LINE
8
Layer 1
10
69.080742
20
294.880666
11
67.076160
21
296.708835
0
LINE
8
Layer 1
10
67.076160
20
296.708835
11
65.177691
21
298.673541
0
LINE
8
Layer 1
10
65.177691
20
298.673541
11
63.394777
21
300.759681
0
LINE
8
Layer 1
10
63.394777
20
300.759681
11
61.736859
21
302.952156
0
LINE
8
Layer 1
10
61.736859
20
302.952156
11
60.213377
21
305.235864
0
LINE
8
Layer 1
10
60.213377
20
305.235864
11
58.833771
21
307.595705
0
LINE
8
Layer 1
10
58.833771
20
307.595705
11
57.607483
21
310.016578
0
LINE
8
Layer 1
10
57.607483
20
310.016578
11
56.543953
21
312.483382
0
LINE
8
Layer 1
10
56.543953
20
312.483382
11
55.652622
21
314.981017
0
LINE
8
Layer 1
10
55.652622
20
314.981017
11
54.942931
21
317.494382
0
LINE
8
Layer 1
10
54.942931
20
317.494382
11
54.424320
21
320.008376
0
LINE
8
Layer 1
10
54.424320
20
320.008376
11
54.106231
21
322.507898
0
LINE
8
Layer 1
10
54.106231
20
322.507898
11
53.998103
21
324.977849
0
LINE
8
Layer 1
10
53.998103
20
324.977849
11
53.998103
21
337.332474
0
LINE
8
Layer 1
10
53.998103
20
337.332474
11
61.851814
21
330.263676
0
LINE
8
Layer 1
10
61.851814
20
330.263676
11
63.771518
21
328.751552
0
LINE
8
Layer 1
10
63.771518
20
328.751552
11
66.223670
21
327.162730
0
LINE
8
Layer 1
10
66.223670
20
327.162730
11
69.107320
21
325.544722
0
LINE
8
Layer 1
10
69.107320
20
325.544722
11
72.321515
21
323.945039
0
LINE
8
Layer 1
10
72.321515
20
323.945039
11
75.765305
21
322.411194
0
LINE
8
Layer 1
10
75.765305
20
322.411194
11
79.337739
21
320.990697
0
LINE
8
Layer 1
10
79.337739
20
320.990697
11
82.937866
21
319.731061
0
LINE
8
Layer 1
10
82.937866
20
319.731061
11
86.464735
21
318.679797
0
LINE
8
Layer 1
10
86.464735
20
318.679797
11
90.945297
21
317.333475
0
LINE
8
Layer 1
10
90.945297
20
317.333475
11
95.003220
21
315.799910
0
LINE
8
Layer 1
10
95.003220
20
315.799910
11
98.723975
21
314.022099
0
LINE
8
Layer 1
10
98.723975
20
314.022099
11
102.193032
21
311.943039
0
LINE
8
Layer 1
10
102.193032
20
311.943039
11
105.495862
21
309.505727
0
LINE
8
Layer 1
10
105.495862
20
309.505727
11
108.717935
21
306.653160
0
LINE
8
Layer 1
10
108.717935
20
306.653160
11
111.944721
21
303.328334
0
LINE
8
Layer 1
10
111.944721
20
303.328334
11
115.261692
21
299.474248
0
LINE
8
Layer 1
10
115.261692
20
299.474248
11
119.935722
21
293.650595
0
LINE
8
Layer 1
10
119.935722
20
293.650595
11
123.763354
21
288.653848
0
LINE
8
Layer 1
10
123.763354
20
288.653848
11
126.349595
21
285.015768
0
LINE
8
Layer 1
10
126.349595
20
285.015768
11
127.299452
21
283.268117
0
LINE
8
Layer 1
10
127.299452
20
283.268117
11
127.173860
21
282.852197
0
LINE
8
Layer 1
10
127.173860
20
282.852197
11
126.801019
21
282.498183
0
LINE
8
Layer 1
10
126.801019
20
282.498183
11
125.337217
21
281.975298
0
LINE
8
Layer 1
10
125.337217
20
281.975298
11
122.955287
21
281.698310
0
LINE
8
Layer 1
10
122.955287
20
281.698310
11
119.702473
21
281.666065
0
LINE
8
Layer 1
10
119.702473
20
281.666065
11
115.626016
21
281.877409
0
LINE
8
Layer 1
10
115.626016
20
281.877409
11
110.773160
21
282.331190
0
LINE
8
Layer 1
10
110.773160
20
282.331190
11
98.927220
21
283.961444
0
LINE
8
Layer 1
10
98.927220
20
283.961444
11
98.927220
21
283.961444
0
LINE
8
Layer 1
10
43.526479
20
294.229080
11
43.613164
21
296.043762
0
LINE
8
Layer 1
10
43.613164
20
296.043762
11
43.878224
21
297.550027
0
LINE
8
Layer 1
10
43.878224
20
297.550027
11
44.329168
21
298.755640
0
LINE
8
Layer 1
10
44.329168
20
298.755640
11
44.973504
21
299.668365
0
LINE
8
Layer 1
10
44.973504
20
299.668365
11
45.818739
21
300.295966
0
LINE
8
Layer 1
10
45.818739
20
300.295966
11
46.872381
21
300.646207
0
LINE
8
Layer 1
10
46.872381
20
300.646207
11
48.141940
21
300.726852
0
LINE
8
Layer 1
10
48.141940
20
300.726852
11
49.634922
21
300.545665
0
LINE
8
Layer 1
10
49.634922
20
300.545665
11
50.861980
21
300.204443
0
LINE
8
Layer 1
10
50.861980
20
300.204443
11
52.006718
21
299.683303
0
LINE
8
Layer 1
10
52.006718
20
299.683303
11
53.044080
21
299.008155
0
LINE
8
Layer 1
10
53.044080
20
299.008155
11
53.949014
21
298.204906
0
LINE
8
Layer 1
10
53.949014
20
298.204906
11
54.696464
21
297.299466
0
LINE
8
Layer 1
10
54.696464
20
297.299466
11
55.261376
21
296.317742
0
LINE
8
Layer 1
10
55.261376
20
296.317742
11
55.618696
21
295.285644
0
LINE
8
Layer 1
10
55.618696
20
295.285644
11
55.743371
21
294.229080
0
LINE
8
Layer 1
10
55.743371
20
294.229080
11
55.618696
21
293.172506
0
LINE
8
Layer 1
10
55.618696
20
293.172506
11
55.261376
21
292.140403
0
LINE
8
Layer 1
10
55.261376
20
292.140403
11
54.696464
21
291.158678
0
LINE
8
Layer 1
10
54.696464
20
291.158678
11
53.949014
21
290.253240
0
LINE
8
Layer 1
10
53.949014
20
290.253240
11
53.044080
21
289.449995
0
LINE
8
Layer 1
10
53.044080
20
289.449995
11
52.006718
21
288.774851
0
LINE
8
Layer 1
10
52.006718
20
288.774851
11
50.861980
21
288.253715
0
LINE
8
Layer 1
10
50.861980
20
288.253715
11
49.634922
21
287.912495
0
LINE
8
Layer 1
10
49.634922
20
287.912495
11
48.141940
21
287.731306
0
LINE
8
Layer 1
10
48.141940
20
287.731306
11
46.872381
21
287.811950
0
LINE
8
Layer 1
10
46.872381
20
287.811950
11
45.818739
21
288.162191
0
LINE
8
Layer 1
10
45.818739
20
288.162191
11
44.973504
21
288.789792
0
LINE
8
Layer 1
10
44.973504
20
288.789792
11
44.329168
21
289.702518
0
LINE
8
Layer 1
10
44.329168
20
289.702518
11
43.878224
21
290.908132
0
LINE
8
Layer 1
10
43.878224
20
290.908132
11
43.613164
21
292.414398
0
LINE
8
Layer 1
10
43.613164
20
292.414398
11
43.526479
21
294.229080
0
LINE
8
Layer 1
10
43.526479
20
294.229080
11
43.526479
21
294.229080
0
LINE
8
Layer 1
10
123.808911
20
304.956632
11
123.897861
21
306.684668
0
LINE
8
Layer 1
10
123.897861
20
306.684668
11
124.168065
21
308.125649
0
LINE
8
Layer 1
10
124.168065
20
308.125649
11
124.624554
21
309.284602
0
LINE
8
Layer 1
10
124.624554
20
309.284602
11
125.272355
21
310.166559
0
LINE
8
Layer 1
10
125.272355
20
310.166559
11
126.116499
21
310.776548
0
LINE
8
Layer 1
10
126.116499
20
310.776548
11
127.162015
21
311.119599
0
LINE
8
Layer 1
10
127.162015
20
311.119599
11
128.413934
21
311.200741
0
LINE
8
Layer 1
10
128.413934
20
311.200741
11
129.877284
21
311.025005
0
LINE
8
Layer 1
10
129.877284
20
311.025005
11
131.488133
21
310.586812
0
LINE
8
Layer 1
10
131.488133
20
310.586812
11
132.906764
21
309.950192
0
LINE
8
Layer 1
10
132.906764
20
309.950192
11
134.130427
21
309.146426
0
LINE
8
Layer 1
10
134.130427
20
309.146426
11
135.156376
21
308.206793
0
LINE
8
Layer 1
10
135.156376
20
308.206793
11
135.981863
21
307.162575
0
LINE
8
Layer 1
10
135.981863
20
307.162575
11
136.604140
21
306.045051
0
LINE
8
Layer 1
10
136.604140
20
306.045051
11
137.020461
21
304.885501
0
LINE
8
Layer 1
10
137.020461
20
304.885501
11
137.228076
21
303.715205
0
LINE
8
Layer 1
10
137.228076
20
303.715205
11
137.224239
21
302.565444
0
LINE
8
Layer 1
10
137.224239
20
302.565444
11
137.006202
21
301.467498
0
LINE
8
Layer 1
10
137.006202
20
301.467498
11
136.571217
21
300.452646
0
LINE
8
Layer 1
10
136.571217
20
300.452646
11
135.916537
21
299.552170
0
LINE
8
Layer 1
10
135.916537
20
299.552170
11
135.039415
21
298.797349
0
LINE
8
Layer 1
10
135.039415
20
298.797349
11
133.937102
21
298.219463
0
LINE
8
Layer 1
10
133.937102
20
298.219463
11
132.606851
21
297.849793
0
LINE
8
Layer 1
10
132.606851
20
297.849793
11
131.045915
21
297.719618
0
LINE
8
Layer 1
10
131.045915
20
297.719618
11
129.300760
21
297.825698
0
LINE
8
Layer 1
10
129.300760
20
297.825698
11
127.807752
21
298.147935
0
LINE
8
Layer 1
10
127.807752
20
298.147935
11
126.560893
21
298.692329
0
LINE
8
Layer 1
10
126.560893
20
298.692329
11
125.554185
21
299.464880
0
LINE
8
Layer 1
10
125.554185
20
299.464880
11
124.781631
21
300.471587
0
LINE
8
Layer 1
10
124.781631
20
300.471587
11
124.237232
21
301.718448
0
LINE
8
Layer 1
10
124.237232
20
301.718448
11
123.914991
21
303.211463
0
LINE
8
Layer 1
10
123.914991
20
303.211463
11
123.808911
21
304.956632
0
LINE
8
Layer 1
10
123.808911
20
304.956632
11
123.808911
21
304.956632
 0 
ENDSEC
 0 
EOF
