999
"DXF R12 Output" (www.mydxf.blogspot.com)
 0 
SECTION
 2 
HEADER
 9 
$ACADVER
 1 
AC1009
 9 
$EXTMIN
 10 
 0 
 20 
 0 
 9 
$EXTMAX
 10 
 8.5 
 20 
 11 
 0 
ENDSEC
 0 
SECTION
 2 
ENTITIES
0
LINE
8
Layer 1
10
105.005341
20
569.644565
11
94.107477
21
569.506929
0
LINE
8
Layer 1
10
94.107477
20
569.506929
11
83.277291
21
569.096231
0
LINE
8
Layer 1
10
83.277291
20
569.096231
11
72.518110
21
568.415787
0
LINE
8
Layer 1
10
72.518110
20
568.415787
11
61.833260
21
567.468914
0
LINE
8
Layer 1
10
61.833260
20
567.468914
11
51.226067
21
566.258927
0
LINE
8
Layer 1
10
51.226067
20
566.258927
11
40.699857
21
564.789142
0
LINE
8
Layer 1
10
40.699857
20
564.789142
11
30.257957
21
563.062875
0
LINE
8
Layer 1
10
30.257957
20
563.062875
11
19.903693
21
561.083442
0
LINE
8
Layer 1
10
19.903693
20
561.083442
11
9.640390
21
558.854159
0
LINE
8
Layer 1
10
9.640390
20
558.854159
11
-0.528624
21
556.378342
0
LINE
8
Layer 1
10
-0.528624
20
556.378342
11
-10.600024
21
553.659307
0
LINE
8
Layer 1
10
-10.600024
20
553.659307
11
-20.570483
21
550.700370
0
LINE
8
Layer 1
10
-20.570483
20
550.700370
11
-30.436676
21
547.504848
0
LINE
8
Layer 1
10
-30.436676
20
547.504848
11
-40.195276
21
544.076055
0
LINE
8
Layer 1
10
-40.195276
20
544.076055
11
-49.842957
21
540.417307
0
LINE
8
Layer 1
10
-49.842957
20
540.417307
11
-59.376393
21
536.531922
0
LINE
8
Layer 1
10
-59.376393
20
536.531922
11
-68.792257
21
532.423215
0
LINE
8
Layer 1
10
-68.792257
20
532.423215
11
-78.087223
21
528.094501
0
LINE
8
Layer 1
10
-78.087223
20
528.094501
11
-87.257966
21
523.549097
0
LINE
8
Layer 1
10
-87.257966
20
523.549097
11
-96.301158
21
518.790319
0
LINE
8
Layer 1
10
-96.301158
20
518.790319
11
-105.213475
21
513.821483
0
LINE
8
Layer 1
10
-105.213475
20
513.821483
11
-113.991588
21
508.645904
0
LINE
8
Layer 1
10
-113.991588
20
508.645904
11
-122.632174
21
503.266899
0
LINE
8
Layer 1
10
-122.632174
20
503.266899
11
-131.131904
21
497.687784
0
LINE
8
Layer 1
10
-131.131904
20
497.687784
11
-139.487454
21
491.911874
0
LINE
8
Layer 1
10
-139.487454
20
491.911874
11
-147.695496
21
485.942486
0
LINE
8
Layer 1
10
-147.695496
20
485.942486
11
-155.752705
21
479.782935
0
LINE
8
Layer 1
10
-155.752705
20
479.782935
11
-163.655754
21
473.436538
0
LINE
8
Layer 1
10
-163.655754
20
473.436538
11
-171.401317
21
466.906610
0
LINE
8
Layer 1
10
-171.401317
20
466.906610
11
-178.986069
21
460.196467
0
LINE
8
Layer 1
10
-178.986069
20
460.196467
11
-186.406682
21
453.309427
0
LINE
8
Layer 1
10
-186.406682
20
453.309427
11
-193.659831
21
446.248803
0
LINE
8
Layer 1
10
-193.659831
20
446.248803
11
-200.742190
21
439.017913
0
LINE
8
Layer 1
10
-200.742190
20
439.017913
11
-207.650431
21
431.620072
0
LINE
8
Layer 1
10
-207.650431
20
431.620072
11
-214.381230
21
424.058596
0
LINE
8
Layer 1
10
-214.381230
20
424.058596
11
-220.931260
21
416.336802
0
LINE
8
Layer 1
10
-220.931260
20
416.336802
11
-227.297194
21
408.458005
0
LINE
8
Layer 1
10
-227.297194
20
408.458005
11
-233.475707
21
400.425521
0
LINE
8
Layer 1
10
-233.475707
20
400.425521
11
-239.463472
21
392.242666
0
LINE
8
Layer 1
10
-239.463472
20
392.242666
11
-245.257163
21
383.912757
0
LINE
8
Layer 1
10
-245.257163
20
383.912757
11
-250.853455
21
375.439108
0
LINE
8
Layer 1
10
-250.853455
20
375.439108
11
-256.249019
21
366.825037
0
LINE
8
Layer 1
10
-256.249019
20
366.825037
11
-261.440532
21
358.073858
0
LINE
8
Layer 1
10
-261.440532
20
358.073858
11
-266.424666
21
349.188889
0
LINE
8
Layer 1
10
-266.424666
20
349.188889
11
-271.198094
21
340.173445
0
LINE
8
Layer 1
10
-271.198094
20
340.173445
11
-275.757492
21
331.030841
0
LINE
8
Layer 1
10
-275.757492
20
331.030841
11
-280.099533
21
321.764395
0
LINE
8
Layer 1
10
-280.099533
20
321.764395
11
-284.220890
21
312.377422
0
LINE
8
Layer 1
10
-284.220890
20
312.377422
11
-288.118238
21
302.873237
0
LINE
8
Layer 1
10
-288.118238
20
302.873237
11
-291.788249
21
293.255157
0
LINE
8
Layer 1
10
-291.788249
20
293.255157
11
-295.227599
21
283.526498
0
LINE
8
Layer 1
10
-295.227599
20
283.526498
11
-298.432960
21
273.690576
0
LINE
8
Layer 1
10
-298.432960
20
273.690576
11
-301.401007
21
263.750707
0
LINE
8
Layer 1
10
-301.401007
20
263.750707
11
-304.128414
21
253.710206
0
LINE
8
Layer 1
10
-304.128414
20
253.710206
11
-306.611854
21
243.572390
0
LINE
8
Layer 1
10
-306.611854
20
243.572390
11
-308.848000
21
233.340574
0
LINE
8
Layer 1
10
-308.848000
20
233.340574
11
-310.833528
21
223.018076
0
LINE
8
Layer 1
10
-310.833528
20
223.018076
11
-312.565110
21
212.608210
0
LINE
8
Layer 1
10
-312.565110
20
212.608210
11
-314.039421
21
202.114292
0
LINE
8
Layer 1
10
-314.039421
20
202.114292
11
-315.253134
21
191.539639
0
LINE
8
Layer 1
10
-315.253134
20
191.539639
11
-316.202923
21
180.887567
0
LINE
8
Layer 1
10
-316.202923
20
180.887567
11
-316.885462
21
170.161391
0
LINE
8
Layer 1
10
-316.885462
20
170.161391
11
-317.297424
21
159.364427
0
LINE
8
Layer 1
10
-317.297424
20
159.364427
11
-317.435484
21
148.499992
0
LINE
8
Layer 1
10
-317.435484
20
148.499992
11
-317.297424
21
137.635556
0
LINE
8
Layer 1
10
-317.297424
20
137.635556
11
-316.885462
21
126.838592
0
LINE
8
Layer 1
10
-316.885462
20
126.838592
11
-316.202923
21
116.112415
0
LINE
8
Layer 1
10
-316.202923
20
116.112415
11
-315.253134
21
105.460342
0
LINE
8
Layer 1
10
-315.253134
20
105.460342
11
-314.039421
21
94.885688
0
LINE
8
Layer 1
10
-314.039421
20
94.885688
11
-312.565110
21
84.391770
0
LINE
8
Layer 1
10
-312.565110
20
84.391770
11
-310.833528
21
73.981904
0
LINE
8
Layer 1
10
-310.833528
20
73.981904
11
-308.848000
21
63.659404
0
LINE
8
Layer 1
10
-308.848000
20
63.659404
11
-306.611854
21
53.427589
0
LINE
8
Layer 1
10
-306.611854
20
53.427589
11
-304.128414
21
43.289773
0
LINE
8
Layer 1
10
-304.128414
20
43.289773
11
-301.401007
21
33.249272
0
LINE
8
Layer 1
10
-301.401007
20
33.249272
11
-298.432960
21
23.309402
0
LINE
8
Layer 1
10
-298.432960
20
23.309402
11
-295.227599
21
13.473480
0
LINE
8
Layer 1
10
-295.227599
20
13.473480
11
-291.788249
21
3.744821
0
LINE
8
Layer 1
10
-291.788249
20
3.744821
11
-288.118238
21
-5.873259
0
LINE
8
Layer 1
10
-288.118238
20
-5.873259
11
-284.220890
21
-15.377443
0
LINE
8
Layer 1
10
-284.220890
20
-15.377443
11
-280.099533
21
-24.764416
0
LINE
8
Layer 1
10
-280.099533
20
-24.764416
11
-275.757492
21
-34.030863
0
LINE
8
Layer 1
10
-275.757492
20
-34.030863
11
-271.198094
21
-43.173466
0
LINE
8
Layer 1
10
-271.198094
20
-43.173466
11
-266.424666
21
-52.188910
0
LINE
8
Layer 1
10
-266.424666
20
-52.188910
11
-261.440532
21
-61.073878
0
LINE
8
Layer 1
10
-261.440532
20
-61.073878
11
-256.249019
21
-69.825056
0
LINE
8
Layer 1
10
-256.249019
20
-69.825056
11
-250.853455
21
-78.439127
0
LINE
8
Layer 1
10
-250.853455
20
-78.439127
11
-245.257163
21
-86.912775
0
LINE
8
Layer 1
10
-245.257163
20
-86.912775
11
-239.463472
21
-95.242684
0
LINE
8
Layer 1
10
-239.463472
20
-95.242684
11
-233.475707
21
-103.425538
0
LINE
8
Layer 1
10
-233.475707
20
-103.425538
11
-227.297194
21
-111.458021
0
LINE
8
Layer 1
10
-227.297194
20
-111.458021
11
-220.931260
21
-119.336818
0
LINE
8
Layer 1
10
-220.931260
20
-119.336818
11
-214.381230
21
-127.058611
0
LINE
8
Layer 1
10
-214.381230
20
-127.058611
11
-207.650431
21
-134.620086
0
LINE
8
Layer 1
10
-207.650431
20
-134.620086
11
-200.742190
21
-142.017926
0
LINE
8
Layer 1
10
-200.742190
20
-142.017926
11
-193.659831
21
-149.248816
0
LINE
8
Layer 1
10
-193.659831
20
-149.248816
11
-186.406682
21
-156.309439
0
LINE
8
Layer 1
10
-186.406682
20
-156.309439
11
-178.986069
21
-163.196479
0
LINE
8
Layer 1
10
-178.986069
20
-163.196479
11
-171.401317
21
-169.906620
0
LINE
8
Layer 1
10
-171.401317
20
-169.906620
11
-163.655754
21
-176.436547
0
LINE
8
Layer 1
10
-163.655754
20
-176.436547
11
-155.752705
21
-182.782944
0
LINE
8
Layer 1
10
-155.752705
20
-182.782944
11
-147.695496
21
-188.942493
0
LINE
8
Layer 1
10
-147.695496
20
-188.942493
11
-139.487454
21
-194.911881
0
LINE
8
Layer 1
10
-139.487454
20
-194.911881
11
-131.131904
21
-200.687790
0
LINE
8
Layer 1
10
-131.131904
20
-200.687790
11
-122.632174
21
-206.266905
0
LINE
8
Layer 1
10
-122.632174
20
-206.266905
11
-113.991588
21
-211.645909
0
LINE
8
Layer 1
10
-113.991588
20
-211.645909
11
-105.213475
21
-216.821487
0
LINE
8
Layer 1
10
-105.213475
20
-216.821487
11
-96.301158
21
-221.790322
0
LINE
8
Layer 1
10
-96.301158
20
-221.790322
11
-87.257966
21
-226.549099
0
LINE
8
Layer 1
10
-87.257966
20
-226.549099
11
-78.087223
21
-231.094503
0
LINE
8
Layer 1
10
-78.087223
20
-231.094503
11
-68.792257
21
-235.423215
0
LINE
8
Layer 1
10
-68.792257
20
-235.423215
11
-59.376393
21
-239.531922
0
LINE
8
Layer 1
10
-59.376393
20
-239.531922
11
-49.842957
21
-243.417307
0
LINE
8
Layer 1
10
-49.842957
20
-243.417307
11
-40.195276
21
-247.076053
0
LINE
8
Layer 1
10
-40.195276
20
-247.076053
11
-30.436676
21
-250.504845
0
LINE
8
Layer 1
10
-30.436676
20
-250.504845
11
-20.570483
21
-253.700367
0
LINE
8
Layer 1
10
-20.570483
20
-253.700367
11
-10.600024
21
-256.659304
0
LINE
8
Layer 1
10
-10.600024
20
-256.659304
11
-0.528624
21
-259.378338
0
LINE
8
Layer 1
10
-0.528624
20
-259.378338
11
9.640390
21
-261.854154
0
LINE
8
Layer 1
10
9.640390
20
-261.854154
11
19.903693
21
-264.083437
0
LINE
8
Layer 1
10
19.903693
20
-264.083437
11
30.257957
21
-266.062869
0
LINE
8
Layer 1
10
30.257957
20
-266.062869
11
40.699857
21
-267.789136
0
LINE
8
Layer 1
10
40.699857
20
-267.789136
11
51.226067
21
-269.258920
0
LINE
8
Layer 1
10
51.226067
20
-269.258920
11
61.833260
21
-270.468907
0
LINE
8
Layer 1
10
61.833260
20
-270.468907
11
72.518110
21
-271.415781
0
LINE
8
Layer 1
10
72.518110
20
-271.415781
11
83.277291
21
-272.096224
0
LINE
8
Layer 1
10
83.277291
20
-272.096224
11
94.107477
21
-272.506922
0
LINE
8
Layer 1
10
94.107477
20
-272.506922
11
105.005341
21
-272.644558
0
LINE
8
Layer 1
10
105.005341
20
-272.644558
11
115.903197
21
-272.506922
0
LINE
8
Layer 1
10
115.903197
20
-272.506922
11
126.733359
21
-272.096224
0
LINE
8
Layer 1
10
126.733359
20
-272.096224
11
137.492502
21
-271.415781
0
LINE
8
Layer 1
10
137.492502
20
-271.415781
11
148.177299
21
-270.468907
0
LINE
8
Layer 1
10
148.177299
20
-270.468907
11
158.784426
21
-269.258920
0
LINE
8
Layer 1
10
158.784426
20
-269.258920
11
169.310555
21
-267.789136
0
LINE
8
Layer 1
10
169.310555
20
-267.789136
11
179.752363
21
-266.062869
0
LINE
8
Layer 1
10
179.752363
20
-266.062869
11
190.106523
21
-264.083437
0
LINE
8
Layer 1
10
190.106523
20
-264.083437
11
200.369709
21
-261.854154
0
LINE
8
Layer 1
10
200.369709
20
-261.854154
11
210.538596
21
-259.378338
0
LINE
8
Layer 1
10
210.538596
20
-259.378338
11
220.609857
21
-256.659304
0
LINE
8
Layer 1
10
220.609857
20
-256.659304
11
230.580168
21
-253.700367
0
LINE
8
Layer 1
10
230.580168
20
-253.700367
11
240.446203
21
-250.504845
0
LINE
8
Layer 1
10
240.446203
20
-250.504845
11
250.204635
21
-247.076053
0
LINE
8
Layer 1
10
250.204635
20
-247.076053
11
259.852139
21
-243.417307
0
LINE
8
Layer 1
10
259.852139
20
-243.417307
11
269.385390
21
-239.531922
0
LINE
8
Layer 1
10
269.385390
20
-239.531922
11
278.801061
21
-235.423215
0
LINE
8
Layer 1
10
278.801061
20
-235.423215
11
288.095828
21
-231.094503
0
LINE
8
Layer 1
10
288.095828
20
-231.094503
11
297.266364
21
-226.549099
0
LINE
8
Layer 1
10
297.266364
20
-226.549099
11
306.309343
21
-221.790322
0
LINE
8
Layer 1
10
306.309343
20
-221.790322
11
315.221440
21
-216.821487
0
LINE
8
Layer 1
10
315.221440
20
-216.821487
11
323.999330
21
-211.645909
0
LINE
8
Layer 1
10
323.999330
20
-211.645909
11
332.639686
21
-206.266905
0
LINE
8
Layer 1
10
332.639686
20
-206.266905
11
341.139183
21
-200.687790
0
LINE
8
Layer 1
10
341.139183
20
-200.687790
11
349.494495
21
-194.911881
0
LINE
8
Layer 1
10
349.494495
20
-194.911881
11
357.702296
21
-188.942493
0
LINE
8
Layer 1
10
357.702296
20
-188.942493
11
365.759261
21
-182.782944
0
LINE
8
Layer 1
10
365.759261
20
-182.782944
11
373.662064
21
-176.436547
0
LINE
8
Layer 1
10
373.662064
20
-176.436547
11
381.407379
21
-169.906620
0
LINE
8
Layer 1
10
381.407379
20
-169.906620
11
388.991881
21
-163.196479
0
LINE
8
Layer 1
10
388.991881
20
-163.196479
11
396.412244
21
-156.309439
0
LINE
8
Layer 1
10
396.412244
20
-156.309439
11
403.665142
21
-149.248816
0
LINE
8
Layer 1
10
403.665142
20
-149.248816
11
410.747250
21
-142.017926
0
LINE
8
Layer 1
10
410.747250
20
-142.017926
11
417.655241
21
-134.620086
0
LINE
8
Layer 1
10
417.655241
20
-134.620086
11
424.385790
21
-127.058611
0
LINE
8
Layer 1
10
424.385790
20
-127.058611
11
430.935572
21
-119.336818
0
LINE
8
Layer 1
10
430.935572
20
-119.336818
11
437.301260
21
-111.458021
0
LINE
8
Layer 1
10
437.301260
20
-111.458021
11
443.479530
21
-103.425538
0
LINE
8
Layer 1
10
443.479530
20
-103.425538
11
449.467055
21
-95.242684
0
LINE
8
Layer 1
10
449.467055
20
-95.242684
11
455.260509
21
-86.912775
0
LINE
8
Layer 1
10
455.260509
20
-86.912775
11
460.856567
21
-78.439127
0
LINE
8
Layer 1
10
460.856567
20
-78.439127
11
466.251903
21
-69.825056
0
LINE
8
Layer 1
10
466.251903
20
-69.825056
11
471.443192
21
-61.073878
0
LINE
8
Layer 1
10
471.443192
20
-61.073878
11
476.427108
21
-52.188910
0
LINE
8
Layer 1
10
476.427108
20
-52.188910
11
481.200324
21
-43.173466
0
LINE
8
Layer 1
10
481.200324
20
-43.173466
11
485.759516
21
-34.030863
0
LINE
8
Layer 1
10
485.759516
20
-34.030863
11
490.101358
21
-24.764416
0
LINE
8
Layer 1
10
490.101358
20
-24.764416
11
494.222523
21
-15.377443
0
LINE
8
Layer 1
10
494.222523
20
-15.377443
11
498.119687
21
-5.873259
0
LINE
8
Layer 1
10
498.119687
20
-5.873259
11
501.789524
21
3.744821
0
LINE
8
Layer 1
10
501.789524
20
3.744821
11
505.228707
21
13.473480
0
LINE
8
Layer 1
10
505.228707
20
13.473480
11
508.433911
21
23.309402
0
LINE
8
Layer 1
10
508.433911
20
23.309402
11
511.401811
21
33.249272
0
LINE
8
Layer 1
10
511.401811
20
33.249272
11
514.129081
21
43.289773
0
LINE
8
Layer 1
10
514.129081
20
43.289773
11
516.612395
21
53.427589
0
LINE
8
Layer 1
10
516.612395
20
53.427589
11
518.848427
21
63.659404
0
LINE
8
Layer 1
10
518.848427
20
63.659404
11
520.833851
21
73.981904
0
LINE
8
Layer 1
10
520.833851
20
73.981904
11
522.565343
21
84.391770
0
LINE
8
Layer 1
10
522.565343
20
84.391770
11
524.039576
21
94.885688
0
LINE
8
Layer 1
10
524.039576
20
94.885688
11
525.253224
21
105.460342
0
LINE
8
Layer 1
10
525.253224
20
105.460342
11
526.202962
21
116.112415
0
LINE
8
Layer 1
10
526.202962
20
116.112415
11
526.885465
21
126.838592
0
LINE
8
Layer 1
10
526.885465
20
126.838592
11
527.297406
21
137.635556
0
LINE
8
Layer 1
10
527.297406
20
137.635556
11
527.435459
21
148.499992
0
LINE
8
Layer 1
10
527.435459
20
148.499992
11
527.297407
21
159.364427
0
LINE
8
Layer 1
10
527.297407
20
159.364427
11
526.885467
21
170.161391
0
LINE
8
Layer 1
10
526.885467
20
170.161391
11
526.202966
21
180.887567
0
LINE
8
Layer 1
10
526.202966
20
180.887567
11
525.253229
21
191.539640
0
LINE
8
Layer 1
10
525.253229
20
191.539640
11
524.039581
21
202.114293
0
LINE
8
Layer 1
10
524.039581
20
202.114293
11
522.565349
21
212.608210
0
LINE
8
Layer 1
10
522.565349
20
212.608210
11
520.833859
21
223.018076
0
LINE
8
Layer 1
10
520.833859
20
223.018076
11
518.848435
21
233.340575
0
LINE
8
Layer 1
10
518.848435
20
233.340575
11
516.612403
21
243.572391
0
LINE
8
Layer 1
10
516.612403
20
243.572391
11
514.129090
21
253.710207
0
LINE
8
Layer 1
10
514.129090
20
253.710207
11
511.401821
21
263.750708
0
LINE
8
Layer 1
10
511.401821
20
263.750708
11
508.433922
21
273.690577
0
LINE
8
Layer 1
10
508.433922
20
273.690577
11
505.228718
21
283.526499
0
LINE
8
Layer 1
10
505.228718
20
283.526499
11
501.789535
21
293.255158
0
LINE
8
Layer 1
10
501.789535
20
293.255158
11
498.119699
21
302.873238
0
LINE
8
Layer 1
10
498.119699
20
302.873238
11
494.222535
21
312.377423
0
LINE
8
Layer 1
10
494.222535
20
312.377423
11
490.101370
21
321.764396
0
LINE
8
Layer 1
10
490.101370
20
321.764396
11
485.759529
21
331.030843
0
LINE
8
Layer 1
10
485.759529
20
331.030843
11
481.200337
21
340.173446
0
LINE
8
Layer 1
10
481.200337
20
340.173446
11
476.427120
21
349.188890
0
LINE
8
Layer 1
10
476.427120
20
349.188890
11
471.443205
21
358.073860
0
LINE
8
Layer 1
10
471.443205
20
358.073860
11
466.251916
21
366.825038
0
LINE
8
Layer 1
10
466.251916
20
366.825038
11
460.856579
21
375.439109
0
LINE
8
Layer 1
10
460.856579
20
375.439109
11
455.260521
21
383.912758
0
LINE
8
Layer 1
10
455.260521
20
383.912758
11
449.467067
21
392.242667
0
LINE
8
Layer 1
10
449.467067
20
392.242667
11
443.479542
21
400.425522
0
LINE
8
Layer 1
10
443.479542
20
400.425522
11
437.301272
21
408.458006
0
LINE
8
Layer 1
10
437.301272
20
408.458006
11
430.935584
21
416.336803
0
LINE
8
Layer 1
10
430.935584
20
416.336803
11
424.385802
21
424.058597
0
LINE
8
Layer 1
10
424.385802
20
424.058597
11
417.655252
21
431.620073
0
LINE
8
Layer 1
10
417.655252
20
431.620073
11
410.747261
21
439.017914
0
LINE
8
Layer 1
10
410.747261
20
439.017914
11
403.665153
21
446.248804
0
LINE
8
Layer 1
10
403.665153
20
446.248804
11
396.412254
21
453.309428
0
LINE
8
Layer 1
10
396.412254
20
453.309428
11
388.991891
21
460.196468
0
LINE
8
Layer 1
10
388.991891
20
460.196468
11
381.407389
21
466.906611
0
LINE
8
Layer 1
10
381.407389
20
466.906611
11
373.662073
21
473.436539
0
LINE
8
Layer 1
10
373.662073
20
473.436539
11
365.759270
21
479.782936
0
LINE
8
Layer 1
10
365.759270
20
479.782936
11
357.702304
21
485.942486
0
LINE
8
Layer 1
10
357.702304
20
485.942486
11
349.494502
21
491.911875
0
LINE
8
Layer 1
10
349.494502
20
491.911875
11
341.139190
21
497.687785
0
LINE
8
Layer 1
10
341.139190
20
497.687785
11
332.639693
21
503.266900
0
LINE
8
Layer 1
10
332.639693
20
503.266900
11
323.999336
21
508.645905
0
LINE
8
Layer 1
10
323.999336
20
508.645905
11
315.221446
21
513.821484
0
LINE
8
Layer 1
10
315.221446
20
513.821484
11
306.309349
21
518.790320
0
LINE
8
Layer 1
10
306.309349
20
518.790320
11
297.266369
21
523.549098
0
LINE
8
Layer 1
10
297.266369
20
523.549098
11
288.095833
21
528.094502
0
LINE
8
Layer 1
10
288.095833
20
528.094502
11
278.801066
21
532.423215
0
LINE
8
Layer 1
10
278.801066
20
532.423215
11
269.385394
21
536.531923
0
LINE
8
Layer 1
10
269.385394
20
536.531923
11
259.852143
21
540.417308
0
LINE
8
Layer 1
10
259.852143
20
540.417308
11
250.204638
21
544.076055
0
LINE
8
Layer 1
10
250.204638
20
544.076055
11
240.446205
21
547.504848
0
LINE
8
Layer 1
10
240.446205
20
547.504848
11
230.580171
21
550.700371
0
LINE
8
Layer 1
10
230.580171
20
550.700371
11
220.609859
21
553.659307
0
LINE
8
Layer 1
10
220.609859
20
553.659307
11
210.538597
21
556.378342
0
LINE
8
Layer 1
10
210.538597
20
556.378342
11
200.369710
21
558.854159
0
LINE
8
Layer 1
10
200.369710
20
558.854159
11
190.106524
21
561.083442
0
LINE
8
Layer 1
10
190.106524
20
561.083442
11
179.752364
21
563.062875
0
LINE
8
Layer 1
10
179.752364
20
563.062875
11
169.310556
21
564.789142
0
LINE
8
Layer 1
10
169.310556
20
564.789142
11
158.784426
21
566.258927
0
LINE
8
Layer 1
10
158.784426
20
566.258927
11
148.177299
21
567.468914
0
LINE
8
Layer 1
10
148.177299
20
567.468914
11
137.492502
21
568.415787
0
LINE
8
Layer 1
10
137.492502
20
568.415787
11
126.733359
21
569.096231
0
LINE
8
Layer 1
10
126.733359
20
569.096231
11
115.903197
21
569.506929
0
LINE
8
Layer 1
10
115.903197
20
569.506929
11
105.005341
21
569.644565
0
LINE
8
Layer 1
10
105.005341
20
569.644565
11
105.005341
21
569.644565
0
LINE
8
Layer 1
10
105.005341
20
535.149107
11
115.010436
21
535.022743
0
LINE
8
Layer 1
10
115.010436
20
535.022743
11
124.953388
21
534.645679
0
LINE
8
Layer 1
10
124.953388
20
534.645679
11
134.831142
21
534.020960
0
LINE
8
Layer 1
10
134.831142
20
534.020960
11
144.640646
21
533.151630
0
LINE
8
Layer 1
10
144.640646
20
533.151630
11
154.378847
21
532.040735
0
LINE
8
Layer 1
10
154.378847
20
532.040735
11
164.042690
21
530.691319
0
LINE
8
Layer 1
10
164.042690
20
530.691319
11
173.629123
21
529.106426
0
LINE
8
Layer 1
10
173.629123
20
529.106426
11
183.135092
21
527.289100
0
LINE
8
Layer 1
10
183.135092
20
527.289100
11
192.557543
21
525.242387
0
LINE
8
Layer 1
10
192.557543
20
525.242387
11
201.893424
21
522.969332
0
LINE
8
Layer 1
10
201.893424
20
522.969332
11
211.139681
21
520.472977
0
LINE
8
Layer 1
10
211.139681
20
520.472977
11
220.293260
21
517.756369
0
LINE
8
Layer 1
10
220.293260
20
517.756369
11
229.351108
21
514.822551
0
LINE
8
Layer 1
10
229.351108
20
514.822551
11
238.310172
21
511.674569
0
LINE
8
Layer 1
10
238.310172
20
511.674569
11
247.167397
21
508.315466
0
LINE
8
Layer 1
10
247.167397
20
508.315466
11
255.919732
21
504.748288
0
LINE
8
Layer 1
10
255.919732
20
504.748288
11
264.564122
21
500.976078
0
LINE
8
Layer 1
10
264.564122
20
500.976078
11
273.097514
21
497.001882
0
LINE
8
Layer 1
10
273.097514
20
497.001882
11
281.516854
21
492.828744
0
LINE
8
Layer 1
10
281.516854
20
492.828744
11
289.819090
21
488.459708
0
LINE
8
Layer 1
10
289.819090
20
488.459708
11
298.001167
21
483.897819
0
LINE
8
Layer 1
10
298.001167
20
483.897819
11
306.060033
21
479.146122
0
LINE
8
Layer 1
10
306.060033
20
479.146122
11
313.992633
21
474.207661
0
LINE
8
Layer 1
10
313.992633
20
474.207661
11
321.795915
21
469.085481
0
LINE
8
Layer 1
10
321.795915
20
469.085481
11
329.466825
21
463.782627
0
LINE
8
Layer 1
10
329.466825
20
463.782627
11
337.002310
21
458.302142
0
LINE
8
Layer 1
10
337.002310
20
458.302142
11
344.399316
21
452.647071
0
LINE
8
Layer 1
10
344.399316
20
452.647071
11
351.654790
21
446.820460
0
LINE
8
Layer 1
10
351.654790
20
446.820460
11
358.765679
21
440.825352
0
LINE
8
Layer 1
10
358.765679
20
440.825352
11
365.728928
21
434.664792
0
LINE
8
Layer 1
10
365.728928
20
434.664792
11
372.541485
21
428.341825
0
LINE
8
Layer 1
10
372.541485
20
428.341825
11
379.200296
21
421.859495
0
LINE
8
Layer 1
10
379.200296
20
421.859495
11
385.702308
21
415.220846
0
LINE
8
Layer 1
10
385.702308
20
415.220846
11
392.044467
21
408.428924
0
LINE
8
Layer 1
10
392.044467
20
408.428924
11
398.223721
21
401.486773
0
LINE
8
Layer 1
10
398.223721
20
401.486773
11
404.237015
21
394.397438
0
LINE
8
Layer 1
10
404.237015
20
394.397438
11
410.081296
21
387.163962
0
LINE
8
Layer 1
10
410.081296
20
387.163962
11
415.753511
21
379.789391
0
LINE
8
Layer 1
10
415.753511
20
379.789391
11
421.250606
21
372.276768
0
LINE
8
Layer 1
10
421.250606
20
372.276768
11
426.569528
21
364.629140
0
LINE
8
Layer 1
10
426.569528
20
364.629140
11
431.707224
21
356.849550
0
LINE
8
Layer 1
10
431.707224
20
356.849550
11
436.660639
21
348.941042
0
LINE
8
Layer 1
10
436.660639
20
348.941042
11
441.426722
21
340.906662
0
LINE
8
Layer 1
10
441.426722
20
340.906662
11
446.002417
21
332.749453
0
LINE
8
Layer 1
10
446.002417
20
332.749453
11
450.384673
21
324.472461
0
LINE
8
Layer 1
10
450.384673
20
324.472461
11
454.570435
21
316.078730
0
LINE
8
Layer 1
10
454.570435
20
316.078730
11
458.556650
21
307.571305
0
LINE
8
Layer 1
10
458.556650
20
307.571305
11
462.340265
21
298.953229
0
LINE
8
Layer 1
10
462.340265
20
298.953229
11
465.918226
21
290.227549
0
LINE
8
Layer 1
10
465.918226
20
290.227549
11
469.287480
21
281.397307
0
LINE
8
Layer 1
10
469.287480
20
281.397307
11
472.444973
21
272.465549
0
LINE
8
Layer 1
10
472.444973
20
272.465549
11
475.387652
21
263.435320
0
LINE
8
Layer 1
10
475.387652
20
263.435320
11
478.112464
21
254.309663
0
LINE
8
Layer 1
10
478.112464
20
254.309663
11
480.616355
21
245.091624
0
LINE
8
Layer 1
10
480.616355
20
245.091624
11
482.896272
21
235.784247
0
LINE
8
Layer 1
10
482.896272
20
235.784247
11
484.949161
21
226.390576
0
LINE
8
Layer 1
10
484.949161
20
226.390576
11
486.771969
21
216.913656
0
LINE
8
Layer 1
10
486.771969
20
216.913656
11
488.361643
21
207.356532
0
LINE
8
Layer 1
10
488.361643
20
207.356532
11
489.715128
21
197.722249
0
LINE
8
Layer 1
10
489.715128
20
197.722249
11
490.829373
21
188.013850
0
LINE
8
Layer 1
10
490.829373
20
188.013850
11
491.701323
21
178.234380
0
LINE
8
Layer 1
10
491.701323
20
178.234380
11
492.327924
21
168.386884
0
LINE
8
Layer 1
10
492.327924
20
168.386884
11
492.706125
21
158.474407
0
LINE
8
Layer 1
10
492.706125
20
158.474407
11
492.832870
21
148.499992
0
LINE
8
Layer 1
10
492.832870
20
148.499992
11
492.706125
21
138.525586
0
LINE
8
Layer 1
10
492.706125
20
138.525586
11
492.327924
21
128.613132
0
LINE
8
Layer 1
10
492.327924
20
128.613132
11
491.701323
21
118.765674
0
LINE
8
Layer 1
10
491.701323
20
118.765674
11
490.829373
21
108.986257
0
LINE
8
Layer 1
10
490.829373
20
108.986257
11
489.715129
21
99.277924
0
LINE
8
Layer 1
10
489.715129
20
99.277924
11
488.361643
21
89.643720
0
LINE
8
Layer 1
10
488.361643
20
89.643720
11
486.771970
21
80.086688
0
LINE
8
Layer 1
10
486.771970
20
80.086688
11
484.949162
21
70.609873
0
LINE
8
Layer 1
10
484.949162
20
70.609873
11
482.896273
21
61.216318
0
LINE
8
Layer 1
10
482.896273
20
61.216318
11
480.616357
21
51.909068
0
LINE
8
Layer 1
10
480.616357
20
51.909068
11
478.112466
21
42.691167
0
LINE
8
Layer 1
10
478.112466
20
42.691167
11
475.387655
21
33.565659
0
LINE
8
Layer 1
10
475.387655
20
33.565659
11
472.444976
21
24.535588
0
LINE
8
Layer 1
10
472.444976
20
24.535588
11
469.287483
21
15.603998
0
LINE
8
Layer 1
10
469.287483
20
15.603998
11
465.918229
21
6.773933
0
LINE
8
Layer 1
10
465.918229
20
6.773933
11
462.340269
21
-1.951562
0
LINE
8
Layer 1
10
462.340269
20
-1.951562
11
458.556655
21
-10.569445
0
LINE
8
Layer 1
10
458.556655
20
-10.569445
11
454.570440
21
-19.076670
0
LINE
8
Layer 1
10
454.570440
20
-19.076670
11
450.384678
21
-27.470194
0
LINE
8
Layer 1
10
450.384678
20
-27.470194
11
446.002423
21
-35.746973
0
LINE
8
Layer 1
10
446.002423
20
-35.746973
11
441.426728
21
-43.903962
0
LINE
8
Layer 1
10
441.426728
20
-43.903962
11
436.660646
21
-51.938117
0
LINE
8
Layer 1
10
436.660646
20
-51.938117
11
431.707231
21
-59.846395
0
LINE
8
Layer 1
10
431.707231
20
-59.846395
11
426.569535
21
-67.625751
0
LINE
8
Layer 1
10
426.569535
20
-67.625751
11
421.250614
21
-75.273142
0
LINE
8
Layer 1
10
421.250614
20
-75.273142
11
415.753519
21
-82.785523
0
LINE
8
Layer 1
10
415.753519
20
-82.785523
11
410.081305
21
-90.159849
0
LINE
8
Layer 1
10
410.081305
20
-90.159849
11
404.237024
21
-97.393078
0
LINE
8
Layer 1
10
404.237024
20
-97.393078
11
398.223730
21
-104.482165
0
LINE
8
Layer 1
10
398.223730
20
-104.482165
11
392.044477
21
-111.424066
0
LINE
8
Layer 1
10
392.044477
20
-111.424066
11
385.702318
21
-118.215737
0
LINE
8
Layer 1
10
385.702318
20
-118.215737
11
379.200307
21
-124.854134
0
LINE
8
Layer 1
10
379.200307
20
-124.854134
11
372.541496
21
-131.336212
0
LINE
8
Layer 1
10
372.541496
20
-131.336212
11
365.728939
21
-137.658928
0
LINE
8
Layer 1
10
365.728939
20
-137.658928
11
358.765690
21
-143.819238
0
LINE
8
Layer 1
10
358.765690
20
-143.819238
11
351.654802
21
-149.814097
0
LINE
8
Layer 1
10
351.654802
20
-149.814097
11
344.399328
21
-155.640462
0
LINE
8
Layer 1
10
344.399328
20
-155.640462
11
337.002322
21
-161.295288
0
LINE
8
Layer 1
10
337.002322
20
-161.295288
11
329.466838
21
-166.775531
0
LINE
8
Layer 1
10
329.466838
20
-166.775531
11
321.795928
21
-172.078148
0
LINE
8
Layer 1
10
321.795928
20
-172.078148
11
313.992646
21
-177.200094
0
LINE
8
Layer 1
10
313.992646
20
-177.200094
11
306.060045
21
-182.138326
0
LINE
8
Layer 1
10
306.060045
20
-182.138326
11
298.001180
21
-186.889798
0
LINE
8
Layer 1
10
298.001180
20
-186.889798
11
289.819102
21
-191.451467
0
LINE
8
Layer 1
10
289.819102
20
-191.451467
11
281.516867
21
-195.820290
0
LINE
8
Layer 1
10
281.516867
20
-195.820290
11
273.097526
21
-199.993221
0
LINE
8
Layer 1
10
273.097526
20
-199.993221
11
264.564134
21
-203.967217
0
LINE
8
Layer 1
10
264.564134
20
-203.967217
11
255.919744
21
-207.739234
0
LINE
8
Layer 1
10
255.919744
20
-207.739234
11
247.167409
21
-211.306228
0
LINE
8
Layer 1
10
247.167409
20
-211.306228
11
238.310183
21
-214.665154
0
LINE
8
Layer 1
10
238.310183
20
-214.665154
11
229.351119
21
-217.812969
0
LINE
8
Layer 1
10
229.351119
20
-217.812969
11
220.293270
21
-220.746629
0
LINE
8
Layer 1
10
220.293270
20
-220.746629
11
211.139691
21
-223.463088
0
LINE
8
Layer 1
10
211.139691
20
-223.463088
11
201.893434
21
-225.959305
0
LINE
8
Layer 1
10
201.893434
20
-225.959305
11
192.557552
21
-228.232233
0
LINE
8
Layer 1
10
192.557552
20
-228.232233
11
183.135100
21
-230.278830
0
LINE
8
Layer 1
10
183.135100
20
-230.278830
11
173.629130
21
-232.096052
0
LINE
8
Layer 1
10
173.629130
20
-232.096052
11
164.042697
21
-233.680853
0
LINE
8
Layer 1
10
164.042697
20
-233.680853
11
154.378852
21
-235.030190
0
LINE
8
Layer 1
10
154.378852
20
-235.030190
11
144.640651
21
-236.141020
0
LINE
8
Layer 1
10
144.640651
20
-236.141020
11
134.831146
21
-237.010297
0
LINE
8
Layer 1
10
134.831146
20
-237.010297
11
124.953390
21
-237.634978
0
LINE
8
Layer 1
10
124.953390
20
-237.634978
11
115.010437
21
-238.012019
0
LINE
8
Layer 1
10
115.010437
20
-238.012019
11
105.005341
21
-238.138376
0
LINE
8
Layer 1
10
105.005341
20
-238.138376
11
95.000236
21
-238.012019
0
LINE
8
Layer 1
10
95.000236
20
-238.012019
11
85.057260
21
-237.634978
0
LINE
8
Layer 1
10
85.057260
20
-237.634978
11
75.179466
21
-237.010297
0
LINE
8
Layer 1
10
75.179466
20
-237.010297
11
65.369908
21
-236.141020
0
LINE
8
Layer 1
10
65.369908
20
-236.141020
11
55.631640
21
-235.030190
0
LINE
8
Layer 1
10
55.631640
20
-235.030190
11
45.967717
21
-233.680853
0
LINE
8
Layer 1
10
45.967717
20
-233.680853
11
36.381191
21
-232.096052
0
LINE
8
Layer 1
10
36.381191
20
-232.096052
11
26.875117
21
-230.278830
0
LINE
8
Layer 1
10
26.875117
20
-230.278830
11
17.452549
21
-228.232233
0
LINE
8
Layer 1
10
17.452549
20
-228.232233
11
8.116540
21
-225.959305
0
LINE
8
Layer 1
10
8.116540
20
-225.959305
11
-1.129855
21
-223.463088
0
LINE
8
Layer 1
10
-1.129855
20
-223.463088
11
-10.283583
21
-220.746629
0
LINE
8
Layer 1
10
-10.283583
20
-220.746629
11
-19.341590
21
-217.812969
0
LINE
8
Layer 1
10
-19.341590
20
-217.812969
11
-28.300821
21
-214.665154
0
LINE
8
Layer 1
10
-28.300821
20
-214.665154
11
-37.158223
21
-211.306228
0
LINE
8
Layer 1
10
-37.158223
20
-211.306228
11
-45.910743
21
-207.739234
0
LINE
8
Layer 1
10
-45.910743
20
-207.739234
11
-54.555325
21
-203.967217
0
LINE
8
Layer 1
10
-54.555325
20
-203.967217
11
-63.088917
21
-199.993221
0
LINE
8
Layer 1
10
-63.088917
20
-199.993221
11
-71.508464
21
-195.820290
0
LINE
8
Layer 1
10
-71.508464
20
-195.820290
11
-79.810912
21
-191.451467
0
LINE
8
Layer 1
10
-79.810912
20
-191.451467
11
-87.993208
21
-186.889798
0
LINE
8
Layer 1
10
-87.993208
20
-186.889798
11
-96.052297
21
-182.138326
0
LINE
8
Layer 1
10
-96.052297
20
-182.138326
11
-103.985127
21
-177.200094
0
LINE
8
Layer 1
10
-103.985127
20
-177.200094
11
-111.788642
21
-172.078148
0
LINE
8
Layer 1
10
-111.788642
20
-172.078148
11
-119.459789
21
-166.775531
0
LINE
8
Layer 1
10
-119.459789
20
-166.775531
11
-126.995514
21
-161.295288
0
LINE
8
Layer 1
10
-126.995514
20
-161.295288
11
-134.392763
21
-155.640462
0
LINE
8
Layer 1
10
-134.392763
20
-155.640462
11
-141.648483
21
-149.814097
0
LINE
8
Layer 1
10
-141.648483
20
-149.814097
11
-148.759618
21
-143.819238
0
LINE
8
Layer 1
10
-148.759618
20
-143.819238
11
-155.723117
21
-137.658928
0
LINE
8
Layer 1
10
-155.723117
20
-137.658928
11
-162.535924
21
-131.336212
0
LINE
8
Layer 1
10
-162.535924
20
-131.336212
11
-169.194985
21
-124.854134
0
LINE
8
Layer 1
10
-169.194985
20
-124.854134
11
-175.697247
21
-118.215737
0
LINE
8
Layer 1
10
-175.697247
20
-118.215737
11
-182.039657
21
-111.424066
0
LINE
8
Layer 1
10
-182.039657
20
-111.424066
11
-188.219159
21
-104.482165
0
LINE
8
Layer 1
10
-188.219159
20
-104.482165
11
-194.232700
21
-97.393078
0
LINE
8
Layer 1
10
-194.232700
20
-97.393078
11
-200.077226
21
-90.159849
0
LINE
8
Layer 1
10
-200.077226
20
-90.159849
11
-205.749684
21
-82.785523
0
LINE
8
Layer 1
10
-205.749684
20
-82.785523
11
-211.247019
21
-75.273142
0
LINE
8
Layer 1
10
-211.247019
20
-75.273142
11
-216.566178
21
-67.625751
0
LINE
8
Layer 1
10
-216.566178
20
-67.625751
11
-221.704106
21
-59.846395
0
LINE
8
Layer 1
10
-221.704106
20
-59.846395
11
-226.657749
21
-51.938117
0
LINE
8
Layer 1
10
-226.657749
20
-51.938117
11
-231.424055
21
-43.903962
0
LINE
8
Layer 1
10
-231.424055
20
-43.903962
11
-235.999969
21
-35.746973
0
LINE
8
Layer 1
10
-235.999969
20
-35.746973
11
-240.382436
21
-27.470194
0
LINE
8
Layer 1
10
-240.382436
20
-27.470194
11
-244.568404
21
-19.076670
0
LINE
8
Layer 1
10
-244.568404
20
-19.076670
11
-248.554817
21
-10.569445
0
LINE
8
Layer 1
10
-248.554817
20
-10.569445
11
-252.338623
21
-1.951562
0
LINE
8
Layer 1
10
-252.338623
20
-1.951562
11
-255.916768
21
6.773933
0
LINE
8
Layer 1
10
-255.916768
20
6.773933
11
-259.286197
21
15.603998
0
LINE
8
Layer 1
10
-259.286197
20
15.603998
11
-262.443857
21
24.535588
0
LINE
8
Layer 1
10
-262.443857
20
24.535588
11
-265.386693
21
33.565659
0
LINE
8
Layer 1
10
-265.386693
20
33.565659
11
-268.111652
21
42.691167
0
LINE
8
Layer 1
10
-268.111652
20
42.691167
11
-270.615680
21
51.909068
0
LINE
8
Layer 1
10
-270.615680
20
51.909068
11
-272.895723
21
61.216318
0
LINE
8
Layer 1
10
-272.895723
20
61.216318
11
-274.948728
21
70.609873
0
LINE
8
Layer 1
10
-274.948728
20
70.609873
11
-276.771639
21
80.086688
0
LINE
8
Layer 1
10
-276.771639
20
80.086688
11
-278.361404
21
89.643720
0
LINE
8
Layer 1
10
-278.361404
20
89.643720
11
-279.714968
21
99.277924
0
LINE
8
Layer 1
10
-279.714968
20
99.277924
11
-280.829278
21
108.986257
0
LINE
8
Layer 1
10
-280.829278
20
108.986257
11
-281.701279
21
118.765674
0
LINE
8
Layer 1
10
-281.701279
20
118.765674
11
-282.327919
21
128.613132
0
LINE
8
Layer 1
10
-282.327919
20
128.613132
11
-282.706142
21
138.525586
0
LINE
8
Layer 1
10
-282.706142
20
138.525586
11
-282.832895
21
148.499992
0
LINE
8
Layer 1
10
-282.832895
20
148.499992
11
-282.706142
21
158.474407
0
LINE
8
Layer 1
10
-282.706142
20
158.474407
11
-282.327919
21
168.386884
0
LINE
8
Layer 1
10
-282.327919
20
168.386884
11
-281.701279
21
178.234380
0
LINE
8
Layer 1
10
-281.701279
20
178.234380
11
-280.829278
21
188.013849
0
LINE
8
Layer 1
10
-280.829278
20
188.013849
11
-279.714968
21
197.722248
0
LINE
8
Layer 1
10
-279.714968
20
197.722248
11
-278.361404
21
207.356532
0
LINE
8
Layer 1
10
-278.361404
20
207.356532
11
-276.771639
21
216.913656
0
LINE
8
Layer 1
10
-276.771639
20
216.913656
11
-274.948728
21
226.390575
0
LINE
8
Layer 1
10
-274.948728
20
226.390575
11
-272.895723
21
235.784246
0
LINE
8
Layer 1
10
-272.895723
20
235.784246
11
-270.615680
21
245.091623
0
LINE
8
Layer 1
10
-270.615680
20
245.091623
11
-268.111652
21
254.309662
0
LINE
8
Layer 1
10
-268.111652
20
254.309662
11
-265.386693
21
263.435319
0
LINE
8
Layer 1
10
-265.386693
20
263.435319
11
-262.443856
21
272.465548
0
LINE
8
Layer 1
10
-262.443856
20
272.465548
11
-259.286197
21
281.397306
0
LINE
8
Layer 1
10
-259.286197
20
281.397306
11
-255.916768
21
290.227548
0
LINE
8
Layer 1
10
-255.916768
20
290.227548
11
-252.338623
21
298.953228
0
LINE
8
Layer 1
10
-252.338623
20
298.953228
11
-248.554817
21
307.571304
0
LINE
8
Layer 1
10
-248.554817
20
307.571304
11
-244.568403
21
316.078729
0
LINE
8
Layer 1
10
-244.568403
20
316.078729
11
-240.382435
21
324.472460
0
LINE
8
Layer 1
10
-240.382435
20
324.472460
11
-235.999968
21
332.749452
0
LINE
8
Layer 1
10
-235.999968
20
332.749452
11
-231.424054
21
340.906660
0
LINE
8
Layer 1
10
-231.424054
20
340.906660
11
-226.657749
21
348.941041
0
LINE
8
Layer 1
10
-226.657749
20
348.941041
11
-221.704105
21
356.849548
0
LINE
8
Layer 1
10
-221.704105
20
356.849548
11
-216.566177
21
364.629139
0
LINE
8
Layer 1
10
-216.566177
20
364.629139
11
-211.247018
21
372.276767
0
LINE
8
Layer 1
10
-211.247018
20
372.276767
11
-205.749683
21
379.789389
0
LINE
8
Layer 1
10
-205.749683
20
379.789389
11
-200.077225
21
387.163961
0
LINE
8
Layer 1
10
-200.077225
20
387.163961
11
-194.232699
21
394.397436
0
LINE
8
Layer 1
10
-194.232699
20
394.397436
11
-188.219158
21
401.486772
0
LINE
8
Layer 1
10
-188.219158
20
401.486772
11
-182.039656
21
408.428923
0
LINE
8
Layer 1
10
-182.039656
20
408.428923
11
-175.697246
21
415.220845
0
LINE
8
Layer 1
10
-175.697246
20
415.220845
11
-169.194984
21
421.859494
0
LINE
8
Layer 1
10
-169.194984
20
421.859494
11
-162.535923
21
428.341824
0
LINE
8
Layer 1
10
-162.535923
20
428.341824
11
-155.723116
21
434.664791
0
LINE
8
Layer 1
10
-155.723116
20
434.664791
11
-148.759617
21
440.825351
0
LINE
8
Layer 1
10
-148.759617
20
440.825351
11
-141.648481
21
446.820459
0
LINE
8
Layer 1
10
-141.648481
20
446.820459
11
-134.392762
21
452.647071
0
LINE
8
Layer 1
10
-134.392762
20
452.647071
11
-126.995513
21
458.302141
0
LINE
8
Layer 1
10
-126.995513
20
458.302141
11
-119.459788
21
463.782626
0
LINE
8
Layer 1
10
-119.459788
20
463.782626
11
-111.788641
21
469.085481
0
LINE
8
Layer 1
10
-111.788641
20
469.085481
11
-103.985125
21
474.207661
0
LINE
8
Layer 1
10
-103.985125
20
474.207661
11
-96.052296
21
479.146122
0
LINE
8
Layer 1
10
-96.052296
20
479.146122
11
-87.993207
21
483.897819
0
LINE
8
Layer 1
10
-87.993207
20
483.897819
11
-79.810911
21
488.459707
0
LINE
8
Layer 1
10
-79.810911
20
488.459707
11
-71.508462
21
492.828743
0
LINE
8
Layer 1
10
-71.508462
20
492.828743
11
-63.088915
21
497.001881
0
LINE
8
Layer 1
10
-63.088915
20
497.001881
11
-54.555324
21
500.976077
0
LINE
8
Layer 1
10
-54.555324
20
500.976077
11
-45.910741
21
504.748287
0
LINE
8
Layer 1
10
-45.910741
20
504.748287
11
-37.158222
21
508.315466
0
LINE
8
Layer 1
10
-37.158222
20
508.315466
11
-28.300820
21
511.674568
0
LINE
8
Layer 1
10
-28.300820
20
511.674568
11
-19.341589
21
514.822551
0
LINE
8
Layer 1
10
-19.341589
20
514.822551
11
-10.283582
21
517.756369
0
LINE
8
Layer 1
10
-10.283582
20
517.756369
11
-1.129854
21
520.472977
0
LINE
8
Layer 1
10
-1.129854
20
520.472977
11
8.116541
21
522.969331
0
LINE
8
Layer 1
10
8.116541
20
522.969331
11
17.452549
21
525.242387
0
LINE
8
Layer 1
10
17.452549
20
525.242387
11
26.875118
21
527.289100
0
LINE
8
Layer 1
10
26.875118
20
527.289100
11
36.381192
21
529.106426
0
LINE
8
Layer 1
10
36.381192
20
529.106426
11
45.967717
21
530.691319
0
LINE
8
Layer 1
10
45.967717
20
530.691319
11
55.631641
21
532.040735
0
LINE
8
Layer 1
10
55.631641
20
532.040735
11
65.369909
21
533.151630
0
LINE
8
Layer 1
10
65.369909
20
533.151630
11
75.179466
21
534.020960
0
LINE
8
Layer 1
10
75.179466
20
534.020960
11
85.057260
21
534.645679
0
LINE
8
Layer 1
10
85.057260
20
534.645679
11
95.000237
21
535.022743
0
LINE
8
Layer 1
10
95.000237
20
535.022743
11
105.005341
21
535.149107
0
LINE
8
Layer 1
10
105.005341
20
535.149107
11
105.005341
21
535.149107
0
LINE
8
Layer 1
10
105.026768
20
453.849089
11
104.662529
21
453.784813
0
LINE
8
Layer 1
10
104.662529
20
453.784813
11
102.098672
21
452.329770
0
LINE
8
Layer 1
10
102.098672
20
452.329770
11
99.710329
21
450.751836
0
LINE
8
Layer 1
10
99.710329
20
450.751836
11
97.491886
21
449.056714
0
LINE
8
Layer 1
10
97.491886
20
449.056714
11
95.437726
21
447.250107
0
LINE
8
Layer 1
10
95.437726
20
447.250107
11
93.542235
21
445.337715
0
LINE
8
Layer 1
10
93.542235
20
445.337715
11
91.799798
21
443.325241
0
LINE
8
Layer 1
10
91.799798
20
443.325241
11
90.204799
21
441.218388
0
LINE
8
Layer 1
10
90.204799
20
441.218388
11
88.751624
21
439.022857
0
LINE
8
Layer 1
10
88.751624
20
439.022857
11
87.434656
21
436.744351
0
LINE
8
Layer 1
10
87.434656
20
436.744351
11
86.248280
21
434.388571
0
LINE
8
Layer 1
10
86.248280
20
434.388571
11
84.244846
21
429.468001
0
LINE
8
Layer 1
10
84.244846
20
429.468001
11
82.696398
21
424.306763
0
LINE
8
Layer 1
10
82.696398
20
424.306763
11
81.558016
21
418.950474
0
LINE
8
Layer 1
10
81.558016
20
418.950474
11
80.784778
21
413.444752
0
LINE
8
Layer 1
10
80.784778
20
413.444752
11
80.331761
21
407.835213
0
LINE
8
Layer 1
10
80.331761
20
407.835213
11
80.154043
21
402.167475
0
LINE
8
Layer 1
10
80.154043
20
402.167475
11
80.206702
21
396.487154
0
LINE
8
Layer 1
10
80.206702
20
396.487154
11
80.444818
21
390.839867
0
LINE
8
Layer 1
10
80.444818
20
390.839867
11
80.823466
21
385.271232
0
LINE
8
Layer 1
10
80.823466
20
385.271232
11
81.822677
21
374.552383
0
LINE
8
Layer 1
10
81.822677
20
374.552383
11
83.876967
21
361.941201
0
LINE
8
Layer 1
10
83.876967
20
361.941201
11
86.392150
21
349.530118
0
LINE
8
Layer 1
10
86.392150
20
349.530118
11
89.238965
21
337.658235
0
LINE
8
Layer 1
10
89.238965
20
337.658235
11
92.288148
21
326.664651
0
LINE
8
Layer 1
10
92.288148
20
326.664651
11
95.410439
21
316.888464
0
LINE
8
Layer 1
10
95.410439
20
316.888464
11
98.476576
21
308.668775
0
LINE
8
Layer 1
10
98.476576
20
308.668775
11
99.948193
21
305.248585
0
LINE
8
Layer 1
10
99.948193
20
305.248585
11
101.357297
21
302.344682
0
LINE
8
Layer 1
10
101.357297
20
302.344682
11
102.687733
21
299.999453
0
LINE
8
Layer 1
10
102.687733
20
299.999453
11
103.923341
21
298.255285
0
LINE
8
Layer 1
10
103.923341
20
298.255285
11
104.455730
21
297.817644
0
LINE
8
Layer 1
10
104.455730
20
297.817644
11
105.011915
21
297.675902
0
LINE
8
Layer 1
10
105.011915
20
297.675902
11
105.570170
21
297.823851
0
LINE
8
Layer 1
10
105.570170
20
297.823851
11
106.108768
21
298.255285
0
LINE
8
Layer 1
10
106.108768
20
298.255285
11
107.344085
21
299.999452
0
LINE
8
Layer 1
10
107.344085
20
299.999452
11
108.674054
21
302.344681
0
LINE
8
Layer 1
10
108.674054
20
302.344681
11
110.082543
21
305.248584
0
LINE
8
Layer 1
10
110.082543
20
305.248584
11
111.553422
21
308.668774
0
LINE
8
Layer 1
10
111.553422
20
308.668774
11
114.617824
21
316.888463
0
LINE
8
Layer 1
10
114.617824
20
316.888463
11
117.738215
21
326.664650
0
LINE
8
Layer 1
10
117.738215
20
326.664650
11
120.785547
21
337.658234
0
LINE
8
Layer 1
10
120.785547
20
337.658234
11
123.630772
21
349.530118
0
LINE
8
Layer 1
10
123.630772
20
349.530118
11
126.144845
21
361.941200
0
LINE
8
Layer 1
10
126.144845
20
361.941200
11
128.198716
21
374.552383
0
LINE
8
Layer 1
10
128.198716
20
374.552383
11
129.199366
21
385.274146
0
LINE
8
Layer 1
10
129.199366
20
385.274146
11
129.579377
21
390.843941
0
LINE
8
Layer 1
10
129.579377
20
390.843941
11
129.819117
21
396.492187
0
LINE
8
Layer 1
10
129.819117
20
396.492187
11
129.873545
21
402.173263
0
LINE
8
Layer 1
10
129.873545
20
402.173263
11
129.697614
21
407.841552
0
LINE
8
Layer 1
10
129.697614
20
407.841552
11
129.246281
21
413.451432
0
LINE
8
Layer 1
10
129.246281
20
413.451432
11
128.474502
21
418.957286
0
LINE
8
Layer 1
10
128.474502
20
418.957286
11
127.337232
21
424.313493
0
LINE
8
Layer 1
10
127.337232
20
424.313493
11
125.789426
21
429.474434
0
LINE
8
Layer 1
10
125.789426
20
429.474434
11
123.786041
21
434.394490
0
LINE
8
Layer 1
10
123.786041
20
434.394490
11
122.599430
21
436.749930
0
LINE
8
Layer 1
10
122.599430
20
436.749930
11
121.282032
21
439.028041
0
LINE
8
Layer 1
10
121.282032
20
439.028041
11
119.828217
21
441.223122
0
LINE
8
Layer 1
10
119.828217
20
441.223122
11
118.232354
21
443.329469
0
LINE
8
Layer 1
10
118.232354
20
443.329469
11
116.488813
21
445.341380
0
LINE
8
Layer 1
10
116.488813
20
445.341380
11
114.591963
21
447.253153
0
LINE
8
Layer 1
10
114.591963
20
447.253153
11
112.536175
21
449.059085
0
LINE
8
Layer 1
10
112.536175
20
449.059085
11
110.315816
21
450.753474
0
LINE
8
Layer 1
10
110.315816
20
450.753474
11
107.925257
21
452.330618
0
LINE
8
Layer 1
10
107.925257
20
452.330618
11
105.358867
21
453.784813
0
LINE
8
Layer 1
10
105.358867
20
453.784813
11
105.026768
21
453.849089
0
LINE
8
Layer 1
10
105.026768
20
453.849089
11
105.026768
21
453.849089
0
LINE
8
Layer 1
10
22.237663
20
372.377669
11
20.219813
21
372.193210
0
LINE
8
Layer 1
10
20.219813
20
372.193210
11
18.412273
21
371.726227
0
LINE
8
Layer 1
10
18.412273
20
371.726227
11
16.809915
21
370.989598
0
LINE
8
Layer 1
10
16.809915
20
370.989598
11
15.407610
21
369.996201
0
LINE
8
Layer 1
10
15.407610
20
369.996201
11
14.200230
21
368.758914
0
LINE
8
Layer 1
10
14.200230
20
368.758914
11
13.182649
21
367.290615
0
LINE
8
Layer 1
10
13.182649
20
367.290615
11
12.349736
21
365.604183
0
LINE
8
Layer 1
10
12.349736
20
365.604183
11
11.696366
21
363.712494
0
LINE
8
Layer 1
10
11.696366
20
363.712494
11
11.217409
21
361.628428
0
LINE
8
Layer 1
10
11.217409
20
361.628428
11
10.907737
21
359.364862
0
LINE
8
Layer 1
10
10.907737
20
359.364862
11
10.762224
21
356.934674
0
LINE
8
Layer 1
10
10.762224
20
356.934674
11
10.775740
21
354.350743
0
LINE
8
Layer 1
10
10.775740
20
354.350743
11
11.259349
21
348.773161
0
LINE
8
Layer 1
10
11.259349
20
348.773161
11
12.317541
21
342.735141
0
LINE
8
Layer 1
10
12.317541
20
342.735141
11
13.533175
21
337.705245
0
LINE
8
Layer 1
10
13.533175
20
337.705245
11
15.061469
21
332.502818
0
LINE
8
Layer 1
10
15.061469
20
332.502818
11
16.882091
21
327.178667
0
LINE
8
Layer 1
10
16.882091
20
327.178667
11
18.974707
21
321.783601
0
LINE
8
Layer 1
10
18.974707
20
321.783601
11
21.318986
21
316.368428
0
LINE
8
Layer 1
10
21.318986
20
316.368428
11
23.894596
21
310.983954
0
LINE
8
Layer 1
10
23.894596
20
310.983954
11
26.681204
21
305.680988
0
LINE
8
Layer 1
10
26.681204
20
305.680988
11
29.658479
21
300.510338
0
LINE
8
Layer 1
10
29.658479
20
300.510338
11
32.806089
21
295.522811
0
LINE
8
Layer 1
10
32.806089
20
295.522811
11
36.103701
21
290.769215
0
LINE
8
Layer 1
10
36.103701
20
290.769215
11
39.530983
21
286.300359
0
LINE
8
Layer 1
10
39.530983
20
286.300359
11
43.067604
21
282.167049
0
LINE
8
Layer 1
10
43.067604
20
282.167049
11
46.693231
21
278.420093
0
LINE
8
Layer 1
10
46.693231
20
278.420093
11
50.387532
21
275.110300
0
LINE
8
Layer 1
10
50.387532
20
275.110300
11
54.130174
21
272.288478
0
LINE
8
Layer 1
10
54.130174
20
272.288478
11
57.900827
21
270.005433
0
LINE
8
Layer 1
10
57.900827
20
270.005433
11
61.451651
21
268.699369
0
LINE
8
Layer 1
10
61.451651
20
268.699369
11
65.384157
21
267.717748
0
LINE
8
Layer 1
10
65.384157
20
267.717748
11
69.552153
21
267.095251
0
LINE
8
Layer 1
10
69.552153
20
267.095251
11
73.809448
21
266.866558
0
LINE
8
Layer 1
10
73.809448
20
266.866558
11
78.556281
21
267.127736
0
LINE
8
Layer 1
10
78.556281
20
267.127736
11
80.834391
21
267.480993
0
LINE
8
Layer 1
10
80.834391
20
267.480993
11
83.013239
21
267.991238
0
LINE
8
Layer 1
10
83.013239
20
267.991238
11
85.066031
21
268.664876
0
LINE
8
Layer 1
10
85.066031
20
268.664876
11
86.965976
21
269.508313
0
LINE
8
Layer 1
10
86.965976
20
269.508313
11
88.686279
21
270.527954
0
LINE
8
Layer 1
10
88.686279
20
270.527954
11
90.200147
21
271.730205
0
LINE
8
Layer 1
10
90.200147
20
271.730205
11
91.263287
21
273.105985
0
LINE
8
Layer 1
10
91.263287
20
273.105985
11
92.182402
21
274.543736
0
LINE
8
Layer 1
10
92.182402
20
274.543736
11
93.605429
21
277.593455
0
LINE
8
Layer 1
10
93.605429
20
277.593455
11
94.502966
21
280.855952
0
LINE
8
Layer 1
10
94.502966
20
280.855952
11
94.908752
21
284.307820
0
LINE
8
Layer 1
10
94.908752
20
284.307820
11
94.856526
21
287.925650
0
LINE
8
Layer 1
10
94.856526
20
287.925650
11
94.380025
21
291.686033
0
LINE
8
Layer 1
10
94.380025
20
291.686033
11
93.512990
21
295.565563
0
LINE
8
Layer 1
10
93.512990
20
295.565563
11
92.289159
21
299.540830
0
LINE
8
Layer 1
10
92.289159
20
299.540830
11
90.547135
21
304.053737
0
LINE
8
Layer 1
10
90.547135
20
304.053737
11
88.451561
21
308.624283
0
LINE
8
Layer 1
10
88.451561
20
308.624283
11
86.049230
21
313.220178
0
LINE
8
Layer 1
10
86.049230
20
313.220178
11
83.386935
21
317.809135
0
LINE
8
Layer 1
10
83.386935
20
317.809135
11
80.511470
21
322.358868
0
LINE
8
Layer 1
10
80.511470
20
322.358868
11
77.469627
21
326.837087
0
LINE
8
Layer 1
10
77.469627
20
326.837087
11
71.073983
21
335.449837
0
LINE
8
Layer 1
10
71.073983
20
335.449837
11
64.574349
21
343.389083
0
LINE
8
Layer 1
10
64.574349
20
343.389083
11
58.345070
21
350.396526
0
LINE
8
Layer 1
10
58.345070
20
350.396526
11
52.760492
21
356.213862
0
LINE
8
Layer 1
10
52.760492
20
356.213862
11
48.194962
21
360.582793
0
LINE
8
Layer 1
10
48.194962
20
360.582793
11
43.000881
21
364.019050
0
LINE
8
Layer 1
10
43.000881
20
364.019050
11
37.463524
21
367.106531
0
LINE
8
Layer 1
10
37.463524
20
367.106531
11
31.571210
21
369.824620
0
LINE
8
Layer 1
10
31.571210
20
369.824620
11
25.312260
21
372.152699
0
LINE
8
Layer 1
10
25.312260
20
372.152699
11
22.237663
21
372.377669
0
LINE
8
Layer 1
10
22.237663
20
372.377669
11
22.237663
21
372.377669
0
LINE
8
Layer 1
10
187.215949
20
372.377669
11
184.719849
21
372.152699
0
LINE
8
Layer 1
10
184.719849
20
372.152699
11
178.460906
21
369.824638
0
LINE
8
Layer 1
10
178.460906
20
369.824638
11
172.568570
21
367.106549
0
LINE
8
Layer 1
10
172.568570
20
367.106549
11
167.031199
21
364.019058
0
LINE
8
Layer 1
10
167.031199
20
364.019058
11
161.837147
21
360.582793
0
LINE
8
Layer 1
10
161.837147
20
360.582793
11
157.271600
21
356.213862
0
LINE
8
Layer 1
10
157.271600
20
356.213862
11
151.687010
21
350.396524
0
LINE
8
Layer 1
10
151.687010
20
350.396524
11
145.457725
21
343.389082
0
LINE
8
Layer 1
10
145.457725
20
343.389082
11
138.958089
21
335.449836
0
LINE
8
Layer 1
10
138.958089
20
335.449836
11
132.562447
21
326.837087
0
LINE
8
Layer 1
10
132.562447
20
326.837087
11
129.520608
21
322.358867
0
LINE
8
Layer 1
10
129.520608
20
322.358867
11
126.645147
21
317.809135
0
LINE
8
Layer 1
10
126.645147
20
317.809135
11
123.982857
21
313.220178
0
LINE
8
Layer 1
10
123.982857
20
313.220178
11
121.580533
21
308.624282
0
LINE
8
Layer 1
10
121.580533
20
308.624282
11
119.484966
21
304.053737
0
LINE
8
Layer 1
10
119.484966
20
304.053737
11
117.742950
21
299.540830
0
LINE
8
Layer 1
10
117.742950
20
299.540830
11
116.518659
21
295.565551
0
LINE
8
Layer 1
10
116.518659
20
295.565551
11
115.650410
21
291.686016
0
LINE
8
Layer 1
10
115.650410
20
291.686016
11
115.172194
21
287.925631
0
LINE
8
Layer 1
10
115.172194
20
287.925631
11
115.118000
21
284.307804
0
LINE
8
Layer 1
10
115.118000
20
284.307804
11
115.521819
21
280.855941
0
LINE
8
Layer 1
10
115.521819
20
280.855941
11
116.417640
21
277.593449
0
LINE
8
Layer 1
10
116.417640
20
277.593449
11
117.839453
21
274.543735
0
LINE
8
Layer 1
10
117.839453
20
274.543735
11
118.758229
21
273.105984
0
LINE
8
Layer 1
10
118.758229
20
273.105984
11
119.821249
21
271.730205
0
LINE
8
Layer 1
10
119.821249
20
271.730205
11
121.335117
21
270.527952
0
LINE
8
Layer 1
10
121.335117
20
270.527952
11
123.055419
21
269.508307
0
LINE
8
Layer 1
10
123.055419
20
269.508307
11
124.955364
21
268.664866
0
LINE
8
Layer 1
10
124.955364
20
268.664866
11
127.008157
21
267.991224
0
LINE
8
Layer 1
10
127.008157
20
267.991224
11
129.187005
21
267.480976
0
LINE
8
Layer 1
10
129.187005
20
267.480976
11
131.465115
21
267.127719
0
LINE
8
Layer 1
10
131.465115
20
267.127719
11
136.211948
21
266.866558
0
LINE
8
Layer 1
10
136.211948
20
266.866558
11
140.470928
21
267.095251
0
LINE
8
Layer 1
10
140.470928
20
267.095251
11
144.642596
21
267.717748
0
LINE
8
Layer 1
10
144.642596
20
267.717748
11
148.578772
21
268.699369
0
LINE
8
Layer 1
10
148.578772
20
268.699369
11
152.131282
21
270.005433
0
LINE
8
Layer 1
10
152.131282
20
270.005433
11
155.901808
21
272.288478
0
LINE
8
Layer 1
10
155.901808
20
272.288478
11
159.644105
21
275.110300
0
LINE
8
Layer 1
10
159.644105
20
275.110300
11
163.337872
21
278.420093
0
LINE
8
Layer 1
10
163.337872
20
278.420093
11
166.962810
21
282.167049
0
LINE
8
Layer 1
10
166.962810
20
282.167049
11
170.498616
21
286.300359
0
LINE
8
Layer 1
10
170.498616
20
286.300359
11
173.924991
21
290.769215
0
LINE
8
Layer 1
10
173.924991
20
290.769215
11
177.221634
21
295.522811
0
LINE
8
Layer 1
10
177.221634
20
295.522811
11
180.368243
21
300.510338
0
LINE
8
Layer 1
10
180.368243
20
300.510338
11
183.344520
21
305.680988
0
LINE
8
Layer 1
10
183.344520
20
305.680988
11
186.130162
21
310.983954
0
LINE
8
Layer 1
10
186.130162
20
310.983954
11
188.704868
21
316.368428
0
LINE
8
Layer 1
10
188.704868
20
316.368428
11
191.048340
21
321.783601
0
LINE
8
Layer 1
10
191.048340
20
321.783601
11
193.140275
21
327.178667
0
LINE
8
Layer 1
10
193.140275
20
327.178667
11
194.960373
21
332.502818
0
LINE
8
Layer 1
10
194.960373
20
332.502818
11
196.488333
21
337.705245
0
LINE
8
Layer 1
10
196.488333
20
337.705245
11
197.703855
21
342.735141
0
LINE
8
Layer 1
10
197.703855
20
342.735141
11
198.775816
21
348.871845
0
LINE
8
Layer 1
10
198.775816
20
348.871845
11
199.253953
21
354.530577
0
LINE
8
Layer 1
10
199.253953
20
354.530577
11
199.256742
21
357.146842
0
LINE
8
Layer 1
10
199.256742
20
357.146842
11
199.094758
21
359.602982
0
LINE
8
Layer 1
10
199.094758
20
359.602982
11
198.762564
21
361.885451
0
LINE
8
Layer 1
10
198.762564
20
361.885451
11
198.254721
21
363.980705
0
LINE
8
Layer 1
10
198.254721
20
363.980705
11
197.565789
21
365.875199
0
LINE
8
Layer 1
10
197.565789
20
365.875199
11
196.690330
21
367.555390
0
LINE
8
Layer 1
10
196.690330
20
367.555390
11
195.622907
21
369.007732
0
LINE
8
Layer 1
10
195.622907
20
369.007732
11
194.358078
21
370.218683
0
LINE
8
Layer 1
10
194.358078
20
370.218683
11
192.890407
21
371.174696
0
LINE
8
Layer 1
10
192.890407
20
371.174696
11
191.214455
21
371.862227
0
LINE
8
Layer 1
10
191.214455
20
371.862227
11
189.324781
21
372.267733
0
LINE
8
Layer 1
10
189.324781
20
372.267733
11
187.215949
21
372.377669
0
LINE
8
Layer 1
10
187.215949
20
372.377669
11
187.215949
21
372.377669
0
LINE
8
Layer 1
10
36.185828
20
349.055739
11
37.740526
21
348.932975
0
LINE
8
Layer 1
10
37.740526
20
348.932975
11
39.468469
21
348.509810
0
LINE
8
Layer 1
10
39.468469
20
348.509810
11
41.351719
21
347.799775
0
LINE
8
Layer 1
10
41.351719
20
347.799775
11
43.372342
21
346.816400
0
LINE
8
Layer 1
10
43.372342
20
346.816400
11
45.512400
21
345.573216
0
LINE
8
Layer 1
10
45.512400
20
345.573216
11
47.753958
21
344.083753
0
LINE
8
Layer 1
10
47.753958
20
344.083753
11
52.469832
21
340.420111
0
LINE
8
Layer 1
10
52.469832
20
340.420111
11
57.376474
21
335.933718
0
LINE
8
Layer 1
10
57.376474
20
335.933718
11
62.330397
21
330.732817
0
LINE
8
Layer 1
10
62.330397
20
330.732817
11
67.188115
21
324.925651
0
LINE
8
Layer 1
10
67.188115
20
324.925651
11
71.806139
21
318.620463
0
LINE
8
Layer 1
10
71.806139
20
318.620463
11
74.573942
21
314.371109
0
LINE
8
Layer 1
10
74.573942
20
314.371109
11
76.947521
21
310.326130
0
LINE
8
Layer 1
10
76.947521
20
310.326130
11
78.939140
21
306.494674
0
LINE
8
Layer 1
10
78.939140
20
306.494674
11
80.561064
21
302.885890
0
LINE
8
Layer 1
10
80.561064
20
302.885890
11
81.825557
21
299.508926
0
LINE
8
Layer 1
10
81.825557
20
299.508926
11
82.744883
21
296.372933
0
LINE
8
Layer 1
10
82.744883
20
296.372933
11
83.331306
21
293.487057
0
LINE
8
Layer 1
10
83.331306
20
293.487057
11
83.597090
21
290.860450
0
LINE
8
Layer 1
10
83.597090
20
290.860450
11
83.554499
21
288.502259
0
LINE
8
Layer 1
10
83.554499
20
288.502259
11
83.215798
21
286.421632
0
LINE
8
Layer 1
10
83.215798
20
286.421632
11
82.593250
21
284.627720
0
LINE
8
Layer 1
10
82.593250
20
284.627720
11
81.699120
21
283.129671
0
LINE
8
Layer 1
10
81.699120
20
283.129671
11
80.545673
21
281.936634
0
LINE
8
Layer 1
10
80.545673
20
281.936634
11
79.145171
21
281.057757
0
LINE
8
Layer 1
10
79.145171
20
281.057757
11
77.509880
21
280.502190
0
LINE
8
Layer 1
10
77.509880
20
280.502190
11
75.652063
21
280.279081
0
LINE
8
Layer 1
10
75.652063
20
280.279081
11
75.148556
21
280.279081
0
LINE
8
Layer 1
10
75.148556
20
280.279081
11
72.445029
21
280.597237
0
LINE
8
Layer 1
10
72.445029
20
280.597237
11
69.437049
21
281.480098
0
LINE
8
Layer 1
10
69.437049
20
281.480098
11
66.149225
21
282.945926
0
LINE
8
Layer 1
10
66.149225
20
282.945926
11
62.606168
21
285.012980
0
LINE
8
Layer 1
10
62.606168
20
285.012980
11
58.832484
21
287.699521
0
LINE
8
Layer 1
10
58.832484
20
287.699521
11
54.852785
21
291.023809
0
LINE
8
Layer 1
10
54.852785
20
291.023809
11
50.691678
21
295.004106
0
LINE
8
Layer 1
10
50.691678
20
295.004106
11
46.373773
21
299.658671
0
LINE
8
Layer 1
10
46.373773
20
299.658671
11
43.517378
21
303.082758
0
LINE
8
Layer 1
10
43.517378
20
303.082758
11
40.899502
21
306.565729
0
LINE
8
Layer 1
10
40.899502
20
306.565729
11
38.526887
21
310.083202
0
LINE
8
Layer 1
10
38.526887
20
310.083202
11
36.406272
21
313.610794
0
LINE
8
Layer 1
10
36.406272
20
313.610794
11
34.544399
21
317.124123
0
LINE
8
Layer 1
10
34.544399
20
317.124123
11
32.948006
21
320.598805
0
LINE
8
Layer 1
10
32.948006
20
320.598805
11
31.623835
21
324.010458
0
LINE
8
Layer 1
10
31.623835
20
324.010458
11
30.578625
21
327.334700
0
LINE
8
Layer 1
10
30.578625
20
327.334700
11
29.819116
21
330.547147
0
LINE
8
Layer 1
10
29.819116
20
330.547147
11
29.352050
21
333.623418
0
LINE
8
Layer 1
10
29.352050
20
333.623418
11
29.184165
21
336.539129
0
LINE
8
Layer 1
10
29.184165
20
336.539129
11
29.322203
21
339.269897
0
LINE
8
Layer 1
10
29.322203
20
339.269897
11
29.772904
21
341.791341
0
LINE
8
Layer 1
10
29.772904
20
341.791341
11
30.543007
21
344.079078
0
LINE
8
Layer 1
10
30.543007
20
344.079078
11
31.639252
21
346.108724
0
LINE
8
Layer 1
10
31.639252
20
346.108724
11
33.068381
21
347.855897
0
LINE
8
Layer 1
10
33.068381
20
347.855897
11
33.707507
21
348.370948
0
LINE
8
Layer 1
10
33.707507
20
348.370948
11
34.443235
21
348.740025
0
LINE
8
Layer 1
10
34.443235
20
348.740025
11
35.270898
21
348.966998
0
LINE
8
Layer 1
10
35.270898
20
348.966998
11
36.185828
21
349.055739
0
LINE
8
Layer 1
10
36.185828
20
349.055739
11
36.185828
21
349.055739
0
LINE
8
Layer 1
10
173.460616
20
349.055739
11
173.824855
21
349.055739
0
LINE
8
Layer 1
10
173.824855
20
349.055739
11
174.741456
21
348.966993
0
LINE
8
Layer 1
10
174.741456
20
348.966993
11
175.572791
21
348.740010
0
LINE
8
Layer 1
10
175.572791
20
348.740010
11
176.312199
21
348.370931
0
LINE
8
Layer 1
10
176.312199
20
348.370931
11
176.953014
21
347.855897
0
LINE
8
Layer 1
10
176.953014
20
347.855897
11
178.382144
21
346.108724
0
LINE
8
Layer 1
10
178.382144
20
346.108724
11
179.478390
21
344.079078
0
LINE
8
Layer 1
10
179.478390
20
344.079078
11
180.248493
21
341.791342
0
LINE
8
Layer 1
10
180.248493
20
341.791342
11
180.699194
21
339.269898
0
LINE
8
Layer 1
10
180.699194
20
339.269898
11
180.837232
21
336.539129
0
LINE
8
Layer 1
10
180.837232
20
336.539129
11
180.669348
21
333.623418
0
LINE
8
Layer 1
10
180.669348
20
333.623418
11
180.202281
21
330.547148
0
LINE
8
Layer 1
10
180.202281
20
330.547148
11
179.442773
21
327.334701
0
LINE
8
Layer 1
10
179.442773
20
327.334701
11
178.397563
21
324.010459
0
LINE
8
Layer 1
10
178.397563
20
324.010459
11
177.073392
21
320.598806
0
LINE
8
Layer 1
10
177.073392
20
320.598806
11
175.476999
21
317.124124
0
LINE
8
Layer 1
10
175.476999
20
317.124124
11
173.615125
21
313.610795
0
LINE
8
Layer 1
10
173.615125
20
313.610795
11
171.494510
21
310.083203
0
LINE
8
Layer 1
10
171.494510
20
310.083203
11
169.121895
21
306.565730
0
LINE
8
Layer 1
10
169.121895
20
306.565730
11
166.504019
21
303.082759
0
LINE
8
Layer 1
10
166.504019
20
303.082759
11
163.647622
21
299.658671
0
LINE
8
Layer 1
10
163.647622
20
299.658671
11
159.329717
21
295.004105
0
LINE
8
Layer 1
10
159.329717
20
295.004105
11
155.168606
21
291.023808
0
LINE
8
Layer 1
10
155.168606
20
291.023808
11
151.188901
21
287.699520
0
LINE
8
Layer 1
10
151.188901
20
287.699520
11
147.415212
21
285.012979
0
LINE
8
Layer 1
10
147.415212
20
285.012979
11
143.872151
21
282.945925
0
LINE
8
Layer 1
10
143.872151
20
282.945925
11
140.584328
21
281.480098
0
LINE
8
Layer 1
10
140.584328
20
281.480098
11
137.576354
21
280.597237
0
LINE
8
Layer 1
10
137.576354
20
280.597237
11
134.872840
21
280.279081
0
LINE
8
Layer 1
10
134.872840
20
280.279081
11
132.931860
21
280.421147
0
LINE
8
Layer 1
10
132.931860
20
280.421147
11
131.217561
21
280.908510
0
LINE
8
Layer 1
10
131.217561
20
280.908510
11
129.742794
21
281.731584
0
LINE
8
Layer 1
10
129.742794
20
281.731584
11
128.520410
21
282.880786
0
LINE
8
Layer 1
10
128.520410
20
282.880786
11
127.563259
21
284.346531
0
LINE
8
Layer 1
10
127.563259
20
284.346531
11
126.884192
21
286.119235
0
LINE
8
Layer 1
10
126.884192
20
286.119235
11
126.496060
21
288.189313
0
LINE
8
Layer 1
10
126.496060
20
288.189313
11
126.411712
21
290.547182
0
LINE
8
Layer 1
10
126.411712
20
290.547182
11
126.644000
21
293.183257
0
LINE
8
Layer 1
10
126.644000
20
293.183257
11
127.205774
21
296.087953
0
LINE
8
Layer 1
10
127.205774
20
296.087953
11
128.109885
21
299.251687
0
LINE
8
Layer 1
10
128.109885
20
299.251687
11
129.369183
21
302.664873
0
LINE
8
Layer 1
10
129.369183
20
302.664873
11
130.996518
21
306.317929
0
LINE
8
Layer 1
10
130.996518
20
306.317929
11
133.004742
21
310.201268
0
LINE
8
Layer 1
10
133.004742
20
310.201268
11
135.406705
21
314.305308
0
LINE
8
Layer 1
10
135.406705
20
314.305308
11
138.215257
21
318.620463
0
LINE
8
Layer 1
10
138.215257
20
318.620463
11
142.758753
21
324.830758
0
LINE
8
Layer 1
10
142.758753
20
324.830758
11
147.536455
21
330.560237
0
LINE
8
Layer 1
10
147.536455
20
330.560237
11
152.411570
21
335.705610
0
LINE
8
Layer 1
10
152.411570
20
335.705610
11
157.247306
21
340.163587
0
LINE
8
Layer 1
10
157.247306
20
340.163587
11
161.906871
21
343.830878
0
LINE
8
Layer 1
10
161.906871
20
343.830878
11
166.253473
21
346.604194
0
LINE
8
Layer 1
10
166.253473
20
346.604194
11
168.266664
21
347.623333
0
LINE
8
Layer 1
10
168.266664
20
347.623333
11
170.150318
21
348.380245
0
LINE
8
Layer 1
10
170.150318
20
348.380245
11
171.887335
21
348.862017
0
LINE
8
Layer 1
10
171.887335
20
348.862017
11
173.460616
21
349.055739
0
LINE
8
Layer 1
10
173.460616
20
349.055739
11
173.460616
21
349.055739
0
LINE
8
Layer 1
10
105.069617
20
263.770535
11
103.184153
21
263.566990
0
LINE
8
Layer 1
10
103.184153
20
263.566990
11
99.736542
21
262.623029
0
LINE
8
Layer 1
10
99.736542
20
262.623029
11
96.580704
21
261.445039
0
LINE
8
Layer 1
10
96.580704
20
261.445039
11
93.710701
21
260.046525
0
LINE
8
Layer 1
10
93.710701
20
260.046525
11
91.120591
21
258.440991
0
LINE
8
Layer 1
10
91.120591
20
258.440991
11
88.804438
21
256.641942
0
LINE
8
Layer 1
10
88.804438
20
256.641942
11
86.756301
21
254.662882
0
LINE
8
Layer 1
10
86.756301
20
254.662882
11
84.970242
21
252.517316
0
LINE
8
Layer 1
10
84.970242
20
252.517316
11
83.440321
21
250.218748
0
LINE
8
Layer 1
10
83.440321
20
250.218748
11
82.146092
21
247.749819
0
LINE
8
Layer 1
10
82.146092
20
247.749819
11
81.101305
21
245.151742
0
LINE
8
Layer 1
10
81.101305
20
245.151742
11
80.299605
21
242.438524
0
LINE
8
Layer 1
10
80.299605
20
242.438524
11
79.734638
21
239.624167
0
LINE
8
Layer 1
10
79.734638
20
239.624167
11
79.400052
21
236.722676
0
LINE
8
Layer 1
10
79.400052
20
236.722676
11
79.289491
21
233.748056
0
LINE
8
Layer 1
10
79.289491
20
233.748056
11
79.396602
21
230.714311
0
LINE
8
Layer 1
10
79.396602
20
230.714311
11
79.715031
21
227.635444
0
LINE
8
Layer 1
10
79.715031
20
227.635444
11
80.238424
21
224.525461
0
LINE
8
Layer 1
10
80.238424
20
224.525461
11
80.960426
21
221.398366
0
LINE
8
Layer 1
10
80.960426
20
221.398366
11
81.874685
21
218.268162
0
LINE
8
Layer 1
10
81.874685
20
218.268162
11
82.974846
21
215.148854
0
LINE
8
Layer 1
10
82.974846
20
215.148854
11
84.254556
21
212.054446
0
LINE
8
Layer 1
10
84.254556
20
212.054446
11
85.707459
21
208.998943
0
LINE
8
Layer 1
10
85.707459
20
208.998943
11
87.327203
21
205.996349
0
LINE
8
Layer 1
10
87.327203
20
205.996349
11
89.107433
21
203.060668
0
LINE
8
Layer 1
10
89.107433
20
203.060668
11
90.575328
21
199.169167
0
LINE
8
Layer 1
10
90.575328
20
199.169167
11
91.778970
21
194.833345
0
LINE
8
Layer 1
10
91.778970
20
194.833345
11
92.921677
21
190.326035
0
LINE
8
Layer 1
10
92.921677
20
190.326035
11
94.206763
21
185.920068
0
LINE
8
Layer 1
10
94.206763
20
185.920068
11
94.899883
21
184.481714
0
LINE
8
Layer 1
10
94.899883
20
184.481714
11
95.944484
21
183.100050
0
LINE
8
Layer 1
10
95.944484
20
183.100050
11
97.254240
21
181.785778
0
LINE
8
Layer 1
10
97.254240
20
181.785778
11
98.742826
21
180.549601
0
LINE
8
Layer 1
10
98.742826
20
180.549601
11
101.911181
21
178.354334
0
LINE
8
Layer 1
10
101.911181
20
178.354334
11
104.758944
21
176.599865
0
LINE
8
Layer 1
10
104.758944
20
176.599865
11
105.262451
21
176.599865
0
LINE
8
Layer 1
10
105.262451
20
176.599865
11
108.111892
21
178.354334
0
LINE
8
Layer 1
10
108.111892
20
178.354334
11
111.283941
21
180.549602
0
LINE
8
Layer 1
10
111.283941
20
180.549602
11
112.774496
21
181.785780
0
LINE
8
Layer 1
10
112.774496
20
181.785780
11
114.085968
21
183.100052
0
LINE
8
Layer 1
10
114.085968
20
183.100052
11
115.131777
21
184.481715
0
LINE
8
Layer 1
10
115.131777
20
184.481715
11
115.825346
21
185.920068
0
LINE
8
Layer 1
10
115.825346
20
185.920068
11
117.108758
21
190.326016
0
LINE
8
Layer 1
10
117.108758
20
190.326016
11
118.247782
21
194.833330
0
LINE
8
Layer 1
10
118.247782
20
194.833330
11
119.447742
21
199.169162
0
LINE
8
Layer 1
10
119.447742
20
199.169162
11
120.913962
21
203.060668
0
LINE
8
Layer 1
10
120.913962
20
203.060668
11
122.694186
21
205.996355
0
LINE
8
Layer 1
10
122.694186
20
205.996355
11
124.313926
21
208.998954
0
LINE
8
Layer 1
10
124.313926
20
208.998954
11
125.766828
21
212.054460
0
LINE
8
Layer 1
10
125.766828
20
212.054460
11
127.046537
21
215.148869
0
LINE
8
Layer 1
10
127.046537
20
215.148869
11
128.146700
21
218.268177
0
LINE
8
Layer 1
10
128.146700
20
218.268177
11
129.060961
21
221.398381
0
LINE
8
Layer 1
10
129.060961
20
221.398381
11
129.782967
21
224.525476
0
LINE
8
Layer 1
10
129.782967
20
224.525476
11
130.306364
21
227.635457
0
LINE
8
Layer 1
10
130.306364
20
227.635457
11
130.624796
21
230.714322
0
LINE
8
Layer 1
10
130.624796
20
230.714322
11
130.731910
21
233.748065
0
LINE
8
Layer 1
10
130.731910
20
233.748065
11
130.621352
21
236.722683
0
LINE
8
Layer 1
10
130.621352
20
236.722683
11
130.286767
21
239.624171
0
LINE
8
Layer 1
10
130.286767
20
239.624171
11
129.721801
21
242.438526
0
LINE
8
Layer 1
10
129.721801
20
242.438526
11
128.920099
21
245.151743
0
LINE
8
Layer 1
10
128.920099
20
245.151743
11
127.875308
21
247.749819
0
LINE
8
Layer 1
10
127.875308
20
247.749819
11
126.581072
21
250.218748
0
LINE
8
Layer 1
10
126.581072
20
250.218748
11
125.051164
21
252.517317
0
LINE
8
Layer 1
10
125.051164
20
252.517317
11
123.265111
21
254.662883
0
LINE
8
Layer 1
10
123.265111
20
254.662883
11
121.216975
21
256.641943
0
LINE
8
Layer 1
10
121.216975
20
256.641943
11
118.900819
21
258.440992
0
LINE
8
Layer 1
10
118.900819
20
258.440992
11
116.310705
21
260.046525
0
LINE
8
Layer 1
10
116.310705
20
260.046525
11
113.440696
21
261.445039
0
LINE
8
Layer 1
10
113.440696
20
261.445039
11
110.284855
21
262.623029
0
LINE
8
Layer 1
10
110.284855
20
262.623029
11
106.837243
21
263.566990
0
LINE
8
Layer 1
10
106.837243
20
263.566990
11
105.069617
21
263.770535
0
LINE
8
Layer 1
10
105.069617
20
263.770535
11
105.069617
21
263.770535
0
LINE
8
Layer 1
10
71.077664
20
259.656790
11
69.948320
21
259.580735
0
LINE
8
Layer 1
10
69.948320
20
259.580735
11
68.783746
21
259.334853
0
LINE
8
Layer 1
10
68.783746
20
259.334853
11
67.607365
21
258.919844
0
LINE
8
Layer 1
10
67.607365
20
258.919844
11
66.442597
21
258.336412
0
LINE
8
Layer 1
10
66.442597
20
258.336412
11
65.312865
21
257.585259
0
LINE
8
Layer 1
10
65.312865
20
257.585259
11
64.241589
21
256.667087
0
LINE
8
Layer 1
10
64.241589
20
256.667087
11
63.252192
21
255.582597
0
LINE
8
Layer 1
10
63.252192
20
255.582597
11
62.368094
21
254.332493
0
LINE
8
Layer 1
10
62.368094
20
254.332493
11
61.402372
21
253.232835
0
LINE
8
Layer 1
10
61.402372
20
253.232835
11
59.948329
21
252.206947
0
LINE
8
Layer 1
10
59.948329
20
252.206947
11
58.077223
21
251.277282
0
LINE
8
Layer 1
10
58.077223
20
251.277282
11
55.860309
21
250.466295
0
LINE
8
Layer 1
10
55.860309
20
250.466295
11
53.368841
21
249.796440
0
LINE
8
Layer 1
10
53.368841
20
249.796440
11
50.674075
21
249.290171
0
LINE
8
Layer 1
10
50.674075
20
249.290171
11
47.847268
21
248.969944
0
LINE
8
Layer 1
10
47.847268
20
248.969944
11
44.959674
21
248.858212
0
LINE
8
Layer 1
10
44.959674
20
248.858212
11
41.010231
21
248.790081
0
LINE
8
Layer 1
10
41.010231
20
248.790081
11
38.021543
21
248.551352
0
LINE
8
Layer 1
10
38.021543
20
248.551352
11
35.948500
21
248.090522
0
LINE
8
Layer 1
10
35.948500
20
248.090522
11
35.241250
21
247.760723
0
LINE
8
Layer 1
10
35.241250
20
247.760723
11
34.745996
21
247.356084
0
LINE
8
Layer 1
10
34.745996
20
247.356084
11
34.457099
21
246.870167
0
LINE
8
Layer 1
10
34.457099
20
246.870167
11
34.368921
21
246.296533
0
LINE
8
Layer 1
10
34.368921
20
246.296533
11
34.475823
21
245.628745
0
LINE
8
Layer 1
10
34.475823
20
245.628745
11
34.772168
21
244.860364
0
LINE
8
Layer 1
10
34.772168
20
244.860364
11
35.910629
21
242.996071
0
LINE
8
Layer 1
10
35.910629
20
242.996071
11
37.739196
21
240.652149
0
LINE
8
Layer 1
10
37.739196
20
240.652149
11
39.253823
21
239.002428
0
LINE
8
Layer 1
10
39.253823
20
239.002428
11
40.948508
21
237.462987
0
LINE
8
Layer 1
10
40.948508
20
237.462987
11
42.766112
21
236.067632
0
LINE
8
Layer 1
10
42.766112
20
236.067632
11
44.649498
21
234.850169
0
LINE
8
Layer 1
10
44.649498
20
234.850169
11
46.541525
21
233.844406
0
LINE
8
Layer 1
10
46.541525
20
233.844406
11
48.385055
21
233.084147
0
LINE
8
Layer 1
10
48.385055
20
233.084147
11
50.122950
21
232.603201
0
LINE
8
Layer 1
10
50.122950
20
232.603201
11
51.698071
21
232.435373
0
LINE
8
Layer 1
10
51.698071
20
232.435373
11
53.327647
21
232.603012
0
LINE
8
Layer 1
10
53.327647
20
232.603012
11
55.107272
21
233.084445
0
LINE
8
Layer 1
10
55.107272
20
233.084445
11
57.001735
21
233.847451
0
LINE
8
Layer 1
10
57.001735
20
233.847451
11
58.975825
21
234.859809
0
LINE
8
Layer 1
10
58.975825
20
234.859809
11
60.994331
21
236.089297
0
LINE
8
Layer 1
10
60.994331
20
236.089297
11
63.022043
21
237.503693
0
LINE
8
Layer 1
10
63.022043
20
237.503693
11
66.964242
21
240.758324
0
LINE
8
Layer 1
10
66.964242
20
240.758324
11
70.520738
21
244.365930
0
LINE
8
Layer 1
10
70.520738
20
244.365930
11
72.066320
21
246.221545
0
LINE
8
Layer 1
10
72.066320
20
246.221545
11
73.409844
21
248.068738
0
LINE
8
Layer 1
10
73.409844
20
248.068738
11
74.516100
21
249.875289
0
LINE
8
Layer 1
10
74.516100
20
249.875289
11
75.349877
21
251.608975
0
LINE
8
Layer 1
10
75.349877
20
251.608975
11
75.875964
21
253.237575
0
LINE
8
Layer 1
10
75.875964
20
253.237575
11
76.059151
21
254.728868
0
LINE
8
Layer 1
10
76.059151
20
254.728868
11
75.958526
21
255.881243
0
LINE
8
Layer 1
10
75.958526
20
255.881243
11
75.669672
21
256.879171
0
LINE
8
Layer 1
10
75.669672
20
256.879171
11
75.212124
21
257.723250
0
LINE
8
Layer 1
10
75.212124
20
257.723250
11
74.605414
21
258.414077
0
LINE
8
Layer 1
10
74.605414
20
258.414077
11
73.869080
21
258.952248
0
LINE
8
Layer 1
10
73.869080
20
258.952248
11
73.022653
21
259.338359
0
LINE
8
Layer 1
10
73.022653
20
259.338359
11
72.085670
21
259.573008
0
LINE
8
Layer 1
10
72.085670
20
259.573008
11
71.077664
21
259.656790
0
LINE
8
Layer 1
10
71.077664
20
259.656790
11
71.077664
21
259.656790
0
LINE
8
Layer 1
10
138.943732
20
259.656790
11
137.935725
21
259.573008
0
LINE
8
Layer 1
10
137.935725
20
259.573008
11
136.998742
21
259.338359
0
LINE
8
Layer 1
10
136.998742
20
259.338359
11
136.152316
21
258.952248
0
LINE
8
Layer 1
10
136.152316
20
258.952248
11
135.415981
21
258.414077
0
LINE
8
Layer 1
10
135.415981
20
258.414077
11
134.809273
21
257.723250
0
LINE
8
Layer 1
10
134.809273
20
257.723250
11
134.351724
21
256.879171
0
LINE
8
Layer 1
10
134.351724
20
256.879171
11
134.062870
21
255.881243
0
LINE
8
Layer 1
10
134.062870
20
255.881243
11
133.962244
21
254.728868
0
LINE
8
Layer 1
10
133.962244
20
254.728868
11
134.145430
21
253.237575
0
LINE
8
Layer 1
10
134.145430
20
253.237575
11
134.671516
21
251.608975
0
LINE
8
Layer 1
10
134.671516
20
251.608975
11
135.505291
21
249.875289
0
LINE
8
Layer 1
10
135.505291
20
249.875289
11
136.611544
21
248.068738
0
LINE
8
Layer 1
10
136.611544
20
248.068738
11
137.955066
21
246.221544
0
LINE
8
Layer 1
10
137.955066
20
246.221544
11
139.500645
21
244.365930
0
LINE
8
Layer 1
10
139.500645
20
244.365930
11
143.057135
21
240.758323
0
LINE
8
Layer 1
10
143.057135
20
240.758323
11
146.999332
21
237.503692
0
LINE
8
Layer 1
10
146.999332
20
237.503692
11
149.027044
21
236.089296
0
LINE
8
Layer 1
10
149.027044
20
236.089296
11
151.045551
21
234.859808
0
LINE
8
Layer 1
10
151.045551
20
234.859808
11
153.019642
21
233.847450
0
LINE
8
Layer 1
10
153.019642
20
233.847450
11
154.914109
21
233.084444
0
LINE
8
Layer 1
10
154.914109
20
233.084444
11
156.693739
21
232.603011
0
LINE
8
Layer 1
10
156.693739
20
232.603011
11
158.323322
21
232.435373
0
LINE
8
Layer 1
10
158.323322
20
232.435373
11
159.898443
21
232.603202
0
LINE
8
Layer 1
10
159.898443
20
232.603202
11
161.636338
21
233.084148
0
LINE
8
Layer 1
10
161.636338
20
233.084148
11
163.479869
21
233.844406
0
LINE
8
Layer 1
10
163.479869
20
233.844406
11
165.371896
21
234.850169
0
LINE
8
Layer 1
10
165.371896
20
234.850169
11
167.255281
21
236.067632
0
LINE
8
Layer 1
10
167.255281
20
236.067632
11
169.072886
21
237.462986
0
LINE
8
Layer 1
10
169.072886
20
237.462986
11
170.767572
21
239.002428
0
LINE
8
Layer 1
10
170.767572
20
239.002428
11
172.282200
21
240.652149
0
LINE
8
Layer 1
10
172.282200
20
240.652149
11
174.110762
21
242.996072
0
LINE
8
Layer 1
10
174.110762
20
242.996072
11
175.249214
21
244.860365
0
LINE
8
Layer 1
10
175.249214
20
244.860365
11
175.545553
21
245.628747
0
LINE
8
Layer 1
10
175.545553
20
245.628747
11
175.652450
21
246.296535
0
LINE
8
Layer 1
10
175.652450
20
246.296535
11
175.564267
21
246.870169
0
LINE
8
Layer 1
10
175.564267
20
246.870169
11
175.275366
21
247.356086
0
LINE
8
Layer 1
10
175.275366
20
247.356086
11
174.780109
21
247.760725
0
LINE
8
Layer 1
10
174.780109
20
247.760725
11
174.072857
21
248.090524
0
LINE
8
Layer 1
10
174.072857
20
248.090524
11
171.999816
21
248.551354
0
LINE
8
Layer 1
10
171.999816
20
248.551354
11
169.011140
21
248.790081
0
LINE
8
Layer 1
10
169.011140
20
248.790081
11
165.061722
21
248.858212
0
LINE
8
Layer 1
10
165.061722
20
248.858212
11
162.174116
21
248.969943
0
LINE
8
Layer 1
10
162.174116
20
248.969943
11
159.347299
21
249.290170
0
LINE
8
Layer 1
10
159.347299
20
249.290170
11
156.652527
21
249.796439
0
LINE
8
Layer 1
10
156.652527
20
249.796439
11
154.161057
21
250.466294
0
LINE
8
Layer 1
10
154.161057
20
250.466294
11
151.944143
21
251.277281
0
LINE
8
Layer 1
10
151.944143
20
251.277281
11
150.073042
21
252.206946
0
LINE
8
Layer 1
10
150.073042
20
252.206946
11
148.619009
21
253.232835
0
LINE
8
Layer 1
10
148.619009
20
253.232835
11
147.653299
21
254.332493
0
LINE
8
Layer 1
10
147.653299
20
254.332493
11
146.769201
21
255.582597
0
LINE
8
Layer 1
10
146.769201
20
255.582597
11
145.779804
21
256.667087
0
LINE
8
Layer 1
10
145.779804
20
256.667087
11
144.708529
21
257.585259
0
LINE
8
Layer 1
10
144.708529
20
257.585259
11
143.578797
21
258.336412
0
LINE
8
Layer 1
10
143.578797
20
258.336412
11
142.414030
21
258.919844
0
LINE
8
Layer 1
10
142.414030
20
258.919844
11
141.237649
21
259.334853
0
LINE
8
Layer 1
10
141.237649
20
259.334853
11
140.073076
21
259.580735
0
LINE
8
Layer 1
10
140.073076
20
259.580735
11
138.943732
21
259.656790
0
LINE
8
Layer 1
10
138.943732
20
259.656790
11
138.943732
21
259.656790
0
LINE
8
Layer 1
10
105.016054
20
252.500591
11
106.542566
21
252.226918
0
LINE
8
Layer 1
10
106.542566
20
252.226918
11
108.232319
21
251.727036
0
LINE
8
Layer 1
10
108.232319
20
251.727036
11
110.003511
21
251.000488
0
LINE
8
Layer 1
10
110.003511
20
251.000488
11
111.774340
21
250.046815
0
LINE
8
Layer 1
10
111.774340
20
250.046815
11
113.463007
21
248.865560
0
LINE
8
Layer 1
10
113.463007
20
248.865560
11
114.987710
21
247.456263
0
LINE
8
Layer 1
10
114.987710
20
247.456263
11
116.266648
21
245.818468
0
LINE
8
Layer 1
10
116.266648
20
245.818468
11
117.218020
21
243.951716
0
LINE
8
Layer 1
10
117.218020
20
243.951716
11
117.807573
21
241.926746
0
LINE
8
Layer 1
10
117.807573
20
241.926746
11
118.104961
21
239.753083
0
LINE
8
Layer 1
10
118.104961
20
239.753083
11
118.134156
21
237.469004
0
LINE
8
Layer 1
10
118.134156
20
237.469004
11
117.919132
21
235.112788
0
LINE
8
Layer 1
10
117.919132
20
235.112788
11
117.483862
21
232.722714
0
LINE
8
Layer 1
10
117.483862
20
232.722714
11
116.852320
21
230.337059
0
LINE
8
Layer 1
10
116.852320
20
230.337059
11
116.048478
21
227.994102
0
LINE
8
Layer 1
10
116.048478
20
227.994102
11
115.096311
21
225.732121
0
LINE
8
Layer 1
10
115.096311
20
225.732121
11
114.019792
21
223.589394
0
LINE
8
Layer 1
10
114.019792
20
223.589394
11
112.842893
21
221.604199
0
LINE
8
Layer 1
10
112.842893
20
221.604199
11
111.589589
21
219.814815
0
LINE
8
Layer 1
10
111.589589
20
219.814815
11
110.283853
21
218.259520
0
LINE
8
Layer 1
10
110.283853
20
218.259520
11
108.949658
21
216.976592
0
LINE
8
Layer 1
10
108.949658
20
216.976592
11
107.610978
21
216.004309
0
LINE
8
Layer 1
10
107.610978
20
216.004309
11
106.291785
21
215.380949
0
LINE
8
Layer 1
10
106.291785
20
215.380949
11
105.016054
21
215.144792
0
LINE
8
Layer 1
10
105.016054
20
215.144792
11
103.740210
21
215.380950
0
LINE
8
Layer 1
10
103.740210
20
215.380950
11
102.420682
21
216.004309
0
LINE
8
Layer 1
10
102.420682
20
216.004309
11
101.081477
21
216.976593
0
LINE
8
Layer 1
10
101.081477
20
216.976593
11
99.746598
21
218.259521
0
LINE
8
Layer 1
10
99.746598
20
218.259521
11
98.440052
21
219.814816
0
LINE
8
Layer 1
10
98.440052
20
219.814816
11
97.185843
21
221.604200
0
LINE
8
Layer 1
10
97.185843
20
221.604200
11
96.007975
21
223.589395
0
LINE
8
Layer 1
10
96.007975
20
223.589395
11
94.930455
21
225.732122
0
LINE
8
Layer 1
10
94.930455
20
225.732122
11
93.977286
21
227.994103
0
LINE
8
Layer 1
10
93.977286
20
227.994103
11
93.172475
21
230.337060
0
LINE
8
Layer 1
10
93.172475
20
230.337060
11
92.540025
21
232.722715
0
LINE
8
Layer 1
10
92.540025
20
232.722715
11
92.103942
21
235.112789
0
LINE
8
Layer 1
10
92.103942
20
235.112789
11
91.888230
21
237.469004
0
LINE
8
Layer 1
10
91.888230
20
237.469004
11
91.916896
21
239.753083
0
LINE
8
Layer 1
10
91.916896
20
239.753083
11
92.213943
21
241.926746
0
LINE
8
Layer 1
10
92.213943
20
241.926746
11
92.803376
21
243.951716
0
LINE
8
Layer 1
10
92.803376
20
243.951716
11
93.755169
21
245.818350
0
LINE
8
Layer 1
10
93.755169
20
245.818350
11
95.035296
21
247.456066
0
LINE
8
Layer 1
10
95.035296
20
247.456066
11
96.561702
21
248.865320
0
LINE
8
Layer 1
10
96.561702
20
248.865320
11
98.252335
21
250.046568
0
LINE
8
Layer 1
10
98.252335
20
250.046568
11
100.025140
21
251.000263
0
LINE
8
Layer 1
10
100.025140
20
251.000263
11
101.798064
21
251.726862
0
LINE
8
Layer 1
10
101.798064
20
251.726862
11
103.489054
21
252.226819
0
LINE
8
Layer 1
10
103.489054
20
252.226819
11
105.016054
21
252.500591
0
LINE
8
Layer 1
10
105.016054
20
252.500591
11
105.016054
21
252.500591
0
LINE
8
Layer 1
10
286.749264
20
242.859003
11
283.695820
21
242.760699
0
LINE
8
Layer 1
10
283.695820
20
242.760699
11
280.466542
21
242.462640
0
LINE
8
Layer 1
10
280.466542
20
242.462640
11
277.079063
21
241.971742
0
LINE
8
Layer 1
10
277.079063
20
241.971742
11
273.551015
21
241.294921
0
LINE
8
Layer 1
10
273.551015
20
241.294921
11
268.520999
21
240.079280
0
LINE
8
Layer 1
10
268.520999
20
240.079280
11
263.318233
21
238.550980
0
LINE
8
Layer 1
10
263.318233
20
238.550980
11
257.993556
21
236.730354
0
LINE
8
Layer 1
10
257.993556
20
236.730354
11
252.597807
21
234.637734
0
LINE
8
Layer 1
10
252.597807
20
234.637734
11
247.181825
21
232.293452
0
LINE
8
Layer 1
10
247.181825
20
232.293452
11
241.796449
21
229.717840
0
LINE
8
Layer 1
10
241.796449
20
229.717840
11
236.492518
21
226.931230
0
LINE
8
Layer 1
10
236.492518
20
226.931230
11
231.320870
21
223.953954
0
LINE
8
Layer 1
10
231.320870
20
223.953954
11
226.332346
21
220.806345
0
LINE
8
Layer 1
10
226.332346
20
220.806345
11
221.577783
21
217.508734
0
LINE
8
Layer 1
10
221.577783
20
217.508734
11
217.108021
21
214.081454
0
LINE
8
Layer 1
10
217.108021
20
214.081454
11
212.973899
21
210.544836
0
LINE
8
Layer 1
10
212.973899
20
210.544836
11
209.226256
21
206.919214
0
LINE
8
Layer 1
10
209.226256
20
206.919214
11
205.915930
21
203.224918
0
LINE
8
Layer 1
10
205.915930
20
203.224918
11
203.093761
21
199.482281
0
LINE
8
Layer 1
10
203.093761
20
199.482281
11
200.810588
21
195.711635
0
LINE
8
Layer 1
10
200.810588
20
195.711635
11
199.504544
21
192.159118
0
LINE
8
Layer 1
10
199.504544
20
192.159118
11
198.522912
21
188.222931
0
LINE
8
Layer 1
10
198.522912
20
188.222931
11
197.900400
21
184.051263
0
LINE
8
Layer 1
10
197.900400
20
184.051263
11
197.671715
21
179.792304
0
LINE
8
Layer 1
10
197.671715
20
179.792304
11
197.932897
21
175.045469
0
LINE
8
Layer 1
10
197.932897
20
175.045469
11
198.286155
21
172.767359
0
LINE
8
Layer 1
10
198.286155
20
172.767359
11
198.796400
21
170.588512
0
LINE
8
Layer 1
10
198.796400
20
170.588512
11
199.470038
21
168.535719
0
LINE
8
Layer 1
10
199.470038
20
168.535719
11
200.313473
21
166.635775
0
LINE
8
Layer 1
10
200.313473
20
166.635775
11
201.333112
21
164.915471
0
LINE
8
Layer 1
10
201.333112
20
164.915471
11
202.535361
21
163.401602
0
LINE
8
Layer 1
10
202.535361
20
163.401602
11
204.087474
21
162.215855
0
LINE
8
Layer 1
10
204.087474
20
162.215855
11
205.717458
21
161.211838
0
LINE
8
Layer 1
10
205.717458
20
161.211838
11
207.421184
21
160.383524
0
LINE
8
Layer 1
10
207.421184
20
160.383524
11
209.194519
21
159.724885
0
LINE
8
Layer 1
10
209.194519
20
159.724885
11
211.033332
21
159.229892
0
LINE
8
Layer 1
10
211.033332
20
159.229892
11
212.933492
21
158.892518
0
LINE
8
Layer 1
10
212.933492
20
158.892518
11
214.890867
21
158.706733
0
LINE
8
Layer 1
10
214.890867
20
158.706733
11
216.901327
21
158.666512
0
LINE
8
Layer 1
10
216.901327
20
158.666512
11
220.124457
21
158.880136
0
LINE
8
Layer 1
10
220.124457
20
158.880136
11
223.450199
21
159.410096
0
LINE
8
Layer 1
10
223.450199
20
159.410096
11
226.862670
21
160.232462
0
LINE
8
Layer 1
10
226.862670
20
160.232462
11
230.345988
21
161.323306
0
LINE
8
Layer 1
10
230.345988
20
161.323306
11
234.858895
21
163.065330
0
LINE
8
Layer 1
10
234.858895
20
163.065330
11
239.429442
21
165.160903
0
LINE
8
Layer 1
10
239.429442
20
165.160903
11
244.025339
21
167.563234
0
LINE
8
Layer 1
10
244.025339
20
167.563234
11
248.614300
21
170.225528
0
LINE
8
Layer 1
10
248.614300
20
170.225528
11
253.164035
21
173.100994
0
LINE
8
Layer 1
10
253.164035
20
173.100994
11
257.642258
21
176.142836
0
LINE
8
Layer 1
10
257.642258
20
176.142836
11
266.255014
21
182.538480
0
LINE
8
Layer 1
10
266.255014
20
182.538480
11
274.194265
21
189.038115
0
LINE
8
Layer 1
10
274.194265
20
189.038115
11
281.201707
21
195.267394
0
LINE
8
Layer 1
10
281.201707
20
195.267394
11
287.019037
21
200.851971
0
LINE
8
Layer 1
10
287.019037
20
200.851971
11
291.387953
21
205.417500
0
LINE
8
Layer 1
10
291.387953
20
205.417500
11
294.824199
21
210.609890
0
LINE
8
Layer 1
10
294.824199
20
210.609890
11
297.911682
21
216.143568
0
LINE
8
Layer 1
10
297.911682
20
216.143568
11
300.629775
21
222.032210
0
LINE
8
Layer 1
10
300.629775
20
222.032210
11
302.957851
21
228.289492
0
LINE
8
Layer 1
10
302.957851
20
228.289492
11
303.157105
21
230.148454
0
LINE
8
Layer 1
10
303.157105
20
230.148454
11
303.164330
21
231.868871
0
LINE
8
Layer 1
10
303.164330
20
231.868871
11
302.986038
21
233.453336
0
LINE
8
Layer 1
10
302.986038
20
233.453336
11
302.628741
21
234.904440
0
LINE
8
Layer 1
10
302.628741
20
234.904440
11
302.098952
21
236.224776
0
LINE
8
Layer 1
10
302.098952
20
236.224776
11
301.403182
21
237.416935
0
LINE
8
Layer 1
10
301.403182
20
237.416935
11
300.547945
21
238.483509
0
LINE
8
Layer 1
10
300.547945
20
238.483509
11
299.539752
21
239.427090
0
LINE
8
Layer 1
10
299.539752
20
239.427090
11
298.385115
21
240.250269
0
LINE
8
Layer 1
10
298.385115
20
240.250269
11
297.090547
21
240.955639
0
LINE
8
Layer 1
10
297.090547
20
240.955639
11
295.662560
21
241.545791
0
LINE
8
Layer 1
10
295.662560
20
241.545791
11
294.107665
21
242.023318
0
LINE
8
Layer 1
10
294.107665
20
242.023318
11
290.643205
21
242.650861
0
LINE
8
Layer 1
10
290.643205
20
242.650861
11
286.749264
21
242.859003
0
LINE
8
Layer 1
10
286.749264
20
242.859003
11
286.749264
21
242.859003
0
LINE
8
Layer 1
10
-76.760022
20
242.676882
11
-80.653509
21
242.469203
0
LINE
8
Layer 1
10
-80.653509
20
242.469203
11
-84.116756
21
241.841874
0
LINE
8
Layer 1
10
-84.116756
20
241.841874
11
-85.670838
21
241.364380
0
LINE
8
Layer 1
10
-85.670838
20
241.364380
11
-87.097918
21
240.774219
0
LINE
8
Layer 1
10
-87.097918
20
240.774219
11
-88.391516
21
240.068807
0
LINE
8
Layer 1
10
-88.391516
20
240.068807
11
-89.545150
21
239.245560
0
LINE
8
Layer 1
10
-89.545150
20
239.245560
11
-90.552341
21
238.301894
0
LINE
8
Layer 1
10
-90.552341
20
238.301894
11
-91.406608
21
237.235223
0
LINE
8
Layer 1
10
-91.406608
20
237.235223
11
-92.101470
21
236.042963
0
LINE
8
Layer 1
10
-92.101470
20
236.042963
11
-92.630447
21
234.722530
0
LINE
8
Layer 1
10
-92.630447
20
234.722530
11
-92.987058
21
233.271338
0
LINE
8
Layer 1
10
-92.987058
20
233.271338
11
-93.164822
21
231.686804
0
LINE
8
Layer 1
10
-93.164822
20
231.686804
11
-93.157260
21
229.966344
0
LINE
8
Layer 1
10
-93.157260
20
229.966344
11
-92.957890
21
228.107371
0
LINE
8
Layer 1
10
-92.957890
20
228.107371
11
-90.629810
21
221.850090
0
LINE
8
Layer 1
10
-90.629810
20
221.850090
11
-87.911722
21
215.961449
0
LINE
8
Layer 1
10
-87.911722
20
215.961449
11
-84.824242
21
210.427772
0
LINE
8
Layer 1
10
-84.824242
20
210.427772
11
-81.387984
21
205.235382
0
LINE
8
Layer 1
10
-81.387984
20
205.235382
11
-77.019064
21
200.669381
0
LINE
8
Layer 1
10
-77.019064
20
200.669381
11
-71.201731
21
195.083588
0
LINE
8
Layer 1
10
-71.201731
20
195.083588
11
-64.194289
21
188.852597
0
LINE
8
Layer 1
10
-64.194289
20
188.852597
11
-56.255040
21
182.351002
0
LINE
8
Layer 1
10
-56.255040
20
182.351002
11
-47.642285
21
175.953398
0
LINE
8
Layer 1
10
-47.642285
20
175.953398
11
-43.164063
21
172.910654
0
LINE
8
Layer 1
10
-43.164063
20
172.910654
11
-38.614328
21
170.034379
0
LINE
8
Layer 1
10
-38.614328
20
170.034379
11
-34.025369
21
167.371400
0
LINE
8
Layer 1
10
-34.025369
20
167.371400
11
-29.429472
21
164.968539
0
LINE
8
Layer 1
10
-29.429472
20
164.968539
11
-24.858926
21
162.872622
0
LINE
8
Layer 1
10
-24.858926
20
162.872622
11
-20.346018
21
161.130472
0
LINE
8
Layer 1
10
-20.346018
20
161.130472
11
-16.370741
21
159.906643
0
LINE
8
Layer 1
10
-16.370741
20
159.906643
11
-12.491211
21
159.039613
0
LINE
8
Layer 1
10
-12.491211
20
159.039613
11
-8.730832
21
158.563118
0
LINE
8
Layer 1
10
-8.730832
20
158.563118
11
-5.113009
21
158.510896
0
LINE
8
Layer 1
10
-5.113009
20
158.510896
11
-1.661149
21
158.916684
0
LINE
8
Layer 1
10
-1.661149
20
158.916684
11
1.601343
21
159.814220
0
LINE
8
Layer 1
10
1.601343
20
159.814220
11
4.651063
21
161.237241
0
LINE
8
Layer 1
10
4.651063
20
161.237241
11
6.088819
21
162.156351
0
LINE
8
Layer 1
10
6.088819
20
162.156351
11
7.464605
21
163.219484
0
LINE
8
Layer 1
10
7.464605
20
163.219484
11
8.666843
21
164.733353
0
LINE
8
Layer 1
10
8.666843
20
164.733353
11
9.686478
21
166.453655
0
LINE
8
Layer 1
10
9.686478
20
166.453655
11
10.529913
21
168.353600
0
LINE
8
Layer 1
10
10.529913
20
168.353600
11
11.203554
21
170.406392
0
LINE
8
Layer 1
10
11.203554
20
170.406392
11
11.713804
21
172.585240
0
LINE
8
Layer 1
10
11.713804
20
172.585240
11
12.067068
21
174.863350
0
LINE
8
Layer 1
10
12.067068
20
174.863350
11
12.328254
21
179.610183
0
LINE
8
Layer 1
10
12.328254
20
179.610183
11
12.099571
21
183.869143
0
LINE
8
Layer 1
10
12.099571
20
183.869143
11
11.477061
21
188.040813
0
LINE
8
Layer 1
10
11.477061
20
188.040813
11
10.495429
21
191.977001
0
LINE
8
Layer 1
10
10.495429
20
191.977001
11
9.189378
21
195.529517
0
LINE
8
Layer 1
10
9.189378
20
195.529517
11
6.906206
21
199.300036
0
LINE
8
Layer 1
10
6.906206
20
199.300036
11
4.084038
21
203.042327
0
LINE
8
Layer 1
10
4.084038
20
203.042327
11
0.773714
21
206.736091
0
LINE
8
Layer 1
10
0.773714
20
206.736091
11
-2.973929
21
210.361027
0
LINE
8
Layer 1
10
-2.973929
20
210.361027
11
-7.108050
21
213.896832
0
LINE
8
Layer 1
10
-7.108050
20
213.896832
11
-11.577812
21
217.323208
0
LINE
8
Layer 1
10
-11.577812
20
217.323208
11
-16.332374
21
220.619852
0
LINE
8
Layer 1
10
-16.332374
20
220.619852
11
-21.320898
21
223.766464
0
LINE
8
Layer 1
10
-21.320898
20
223.766464
11
-26.492545
21
226.742743
0
LINE
8
Layer 1
10
-26.492545
20
226.742743
11
-31.796476
21
229.528387
0
LINE
8
Layer 1
10
-31.796476
20
229.528387
11
-37.181853
21
232.103097
0
LINE
8
Layer 1
10
-37.181853
20
232.103097
11
-42.597835
21
234.446571
0
LINE
8
Layer 1
10
-42.597835
20
234.446571
11
-47.993584
21
236.538508
0
LINE
8
Layer 1
10
-47.993584
20
236.538508
11
-53.318262
21
238.358608
0
LINE
8
Layer 1
10
-53.318262
20
238.358608
11
-58.521029
21
239.886569
0
LINE
8
Layer 1
10
-58.521029
20
239.886569
11
-63.551046
21
241.102090
0
LINE
8
Layer 1
10
-63.551046
20
241.102090
11
-67.080750
21
241.780501
0
LINE
8
Layer 1
10
-67.080750
20
241.780501
11
-70.471918
21
242.274946
0
LINE
8
Layer 1
10
-70.471918
20
242.274946
11
-73.704895
21
242.576660
0
LINE
8
Layer 1
10
-73.704895
20
242.576660
11
-76.760022
21
242.676882
0
LINE
8
Layer 1
10
-76.760022
20
242.676882
11
-76.760022
21
242.676882
0
LINE
8
Layer 1
10
267.348259
20
224.411428
11
270.731280
21
224.191299
0
LINE
8
Layer 1
10
270.731280
20
224.191299
11
273.778694
21
223.481104
0
LINE
8
Layer 1
10
273.778694
20
223.481104
11
275.161319
21
222.937767
0
LINE
8
Layer 1
10
275.161319
20
222.937767
11
276.441768
21
222.266556
0
LINE
8
Layer 1
10
276.441768
20
222.266556
11
277.613949
21
221.465685
0
LINE
8
Layer 1
10
277.613949
20
221.465685
11
278.671771
21
220.533368
0
LINE
8
Layer 1
10
278.671771
20
220.533368
11
279.486448
21
219.329250
0
LINE
8
Layer 1
10
279.486448
20
219.329250
11
279.849371
21
217.831040
0
LINE
8
Layer 1
10
279.849371
20
217.831040
11
279.781861
21
216.066987
0
LINE
8
Layer 1
10
279.781861
20
216.066987
11
279.305240
21
214.065338
0
LINE
8
Layer 1
10
279.305240
20
214.065338
11
278.440830
21
211.854343
0
LINE
8
Layer 1
10
278.440830
20
211.854343
11
277.209954
21
209.462250
0
LINE
8
Layer 1
10
277.209954
20
209.462250
11
275.633932
21
206.917307
0
LINE
8
Layer 1
10
275.633932
20
206.917307
11
273.734087
21
204.247763
0
LINE
8
Layer 1
10
273.734087
20
204.247763
11
271.531741
21
201.481867
0
LINE
8
Layer 1
10
271.531741
20
201.481867
11
269.048216
21
198.647868
0
LINE
8
Layer 1
10
269.048216
20
198.647868
11
266.304834
21
195.774013
0
LINE
8
Layer 1
10
266.304834
20
195.774013
11
263.322916
21
192.888551
0
LINE
8
Layer 1
10
263.322916
20
192.888551
11
260.123785
21
190.019732
0
LINE
8
Layer 1
10
260.123785
20
190.019732
11
256.728763
21
187.195803
0
LINE
8
Layer 1
10
256.728763
20
187.195803
11
253.159171
21
184.445013
0
LINE
8
Layer 1
10
253.159171
20
184.445013
11
249.436331
21
181.795610
0
LINE
8
Layer 1
10
249.436331
20
181.795610
11
245.057368
21
178.947872
0
LINE
8
Layer 1
10
245.057368
20
178.947872
11
240.895920
21
176.519205
0
LINE
8
Layer 1
10
240.895920
20
176.519205
11
236.962039
21
174.496079
0
LINE
8
Layer 1
10
236.962039
20
174.496079
11
233.265775
21
172.864964
0
LINE
8
Layer 1
10
233.265775
20
172.864964
11
229.817181
21
171.612331
0
LINE
8
Layer 1
10
229.817181
20
171.612331
11
226.626307
21
170.724649
0
LINE
8
Layer 1
10
226.626307
20
170.724649
11
223.703205
21
170.188389
0
LINE
8
Layer 1
10
223.703205
20
170.188389
11
221.057924
21
169.990021
0
LINE
8
Layer 1
10
221.057924
20
169.990021
11
218.834838
21
170.099445
0
LINE
8
Layer 1
10
218.834838
20
170.099445
11
216.873853
21
170.484038
0
LINE
8
Layer 1
10
216.873853
20
170.484038
11
215.183402
21
171.132720
0
LINE
8
Layer 1
10
215.183402
20
171.132720
11
213.771915
21
172.034412
0
LINE
8
Layer 1
10
213.771915
20
172.034412
11
212.647823
21
173.178034
0
LINE
8
Layer 1
10
212.647823
20
173.178034
11
211.819559
21
174.552507
0
LINE
8
Layer 1
10
211.819559
20
174.552507
11
211.295553
21
176.146752
0
LINE
8
Layer 1
10
211.295553
20
176.146752
11
211.084236
21
177.949689
0
LINE
8
Layer 1
10
211.084236
20
177.949689
11
211.084236
21
178.453193
0
LINE
8
Layer 1
10
211.084236
20
178.453193
11
211.402406
21
181.156706
0
LINE
8
Layer 1
10
211.402406
20
181.156706
11
212.285274
21
184.164675
0
LINE
8
Layer 1
10
212.285274
20
184.164675
11
213.751103
21
187.452493
0
LINE
8
Layer 1
10
213.751103
20
187.452493
11
215.818155
21
190.995549
0
LINE
8
Layer 1
10
215.818155
20
190.995549
11
218.504692
21
194.769235
0
LINE
8
Layer 1
10
218.504692
20
194.769235
11
221.828975
21
198.748941
0
LINE
8
Layer 1
10
221.828975
20
198.748941
11
225.809267
21
202.910059
0
LINE
8
Layer 1
10
225.809267
20
202.910059
11
230.463829
21
207.227978
0
LINE
8
Layer 1
10
230.463829
20
207.227978
11
235.188557
21
211.094110
0
LINE
8
Layer 1
10
235.188557
20
211.094110
11
240.007526
21
214.504074
0
LINE
8
Layer 1
10
240.007526
20
214.504074
11
244.857304
21
217.440496
0
LINE
8
Layer 1
10
244.857304
20
217.440496
11
249.674462
21
219.886003
0
LINE
8
Layer 1
10
249.674462
20
219.886003
11
254.395567
21
221.823223
0
LINE
8
Layer 1
10
254.395567
20
221.823223
11
258.957189
21
223.234783
0
LINE
8
Layer 1
10
258.957189
20
223.234783
11
263.295897
21
224.103309
0
LINE
8
Layer 1
10
263.295897
20
224.103309
11
267.348259
21
224.411428
0
LINE
8
Layer 1
10
267.348259
20
224.411428
11
267.348259
21
224.411428
0
LINE
8
Layer 1
10
-57.359002
20
224.240024
11
-53.306180
21
223.931434
0
LINE
8
Layer 1
10
-53.306180
20
223.931434
11
-48.966256
21
223.061689
0
LINE
8
Layer 1
10
-48.966256
20
223.061689
11
-44.402914
21
221.648412
0
LINE
8
Layer 1
10
-44.402914
20
221.648412
11
-39.679838
21
219.709227
0
LINE
8
Layer 1
10
-39.679838
20
219.709227
11
-34.860712
21
217.261755
0
LINE
8
Layer 1
10
-34.860712
20
217.261755
11
-30.009218
21
214.323621
0
LINE
8
Layer 1
10
-30.009218
20
214.323621
11
-25.189039
21
210.912448
0
LINE
8
Layer 1
10
-25.189039
20
210.912448
11
-20.463860
21
207.045858
0
LINE
8
Layer 1
10
-20.463860
20
207.045858
11
-15.809295
21
202.727941
0
LINE
8
Layer 1
10
-15.809295
20
202.727941
11
-11.828998
21
198.566829
0
LINE
8
Layer 1
10
-11.828998
20
198.566829
11
-8.504709
21
194.587128
0
LINE
8
Layer 1
10
-8.504709
20
194.587128
11
-5.818168
21
190.813446
0
LINE
8
Layer 1
10
-5.818168
20
190.813446
11
-3.751114
21
187.270393
0
LINE
8
Layer 1
10
-3.751114
20
187.270393
11
-2.285287
21
183.982574
0
LINE
8
Layer 1
10
-2.285287
20
183.982574
11
-1.402426
21
180.974599
0
LINE
8
Layer 1
10
-1.402426
20
180.974599
11
-1.084270
21
178.271075
0
LINE
8
Layer 1
10
-1.084270
20
178.271075
11
-1.226464
21
176.330094
0
LINE
8
Layer 1
10
-1.226464
20
176.330094
11
-1.714173
21
174.615795
0
LINE
8
Layer 1
10
-1.714173
20
174.615795
11
-2.537781
21
173.141028
0
LINE
8
Layer 1
10
-2.537781
20
173.141028
11
-3.687672
21
171.918643
0
LINE
8
Layer 1
10
-3.687672
20
171.918643
11
-5.154231
21
170.961492
0
LINE
8
Layer 1
10
-5.154231
20
170.961492
11
-6.927843
21
170.282425
0
LINE
8
Layer 1
10
-6.927843
20
170.282425
11
-8.998891
21
169.894292
0
LINE
8
Layer 1
10
-8.998891
20
169.894292
11
-11.357759
21
169.809944
0
LINE
8
Layer 1
10
-11.357759
20
169.809944
11
-13.994832
21
170.042232
0
LINE
8
Layer 1
10
-13.994832
20
170.042232
11
-16.900495
21
170.604006
0
LINE
8
Layer 1
10
-16.900495
20
170.604006
11
-20.065131
21
171.508117
0
LINE
8
Layer 1
10
-20.065131
20
171.508117
11
-23.479125
21
172.767415
0
LINE
8
Layer 1
10
-23.479125
20
172.767415
11
-27.132861
21
174.394751
0
LINE
8
Layer 1
10
-27.132861
20
174.394751
11
-31.016723
21
176.402976
0
LINE
8
Layer 1
10
-31.016723
20
176.402976
11
-35.121097
21
178.804939
0
LINE
8
Layer 1
10
-35.121097
20
178.804939
11
-39.436365
21
181.613492
0
LINE
8
Layer 1
10
-39.436365
20
181.613492
11
-43.159211
21
184.262888
0
LINE
8
Layer 1
10
-43.159211
20
184.262888
11
-46.728807
21
187.013673
0
LINE
8
Layer 1
10
-46.728807
20
187.013673
11
-50.123831
21
189.837598
0
LINE
8
Layer 1
10
-50.123831
20
189.837598
11
-53.322962
21
192.706415
0
LINE
8
Layer 1
10
-53.322962
20
192.706415
11
-56.304879
21
195.591876
0
LINE
8
Layer 1
10
-56.304879
20
195.591876
11
-59.048258
21
198.465730
0
LINE
8
Layer 1
10
-59.048258
20
198.465730
11
-61.531780
21
201.299731
0
LINE
8
Layer 1
10
-61.531780
20
201.299731
11
-63.734122
21
204.065628
0
LINE
8
Layer 1
10
-63.734122
20
204.065628
11
-65.633963
21
206.735174
0
LINE
8
Layer 1
10
-65.633963
20
206.735174
11
-67.209981
21
209.280119
0
LINE
8
Layer 1
10
-67.209981
20
209.280119
11
-68.440855
21
211.672215
0
LINE
8
Layer 1
10
-68.440855
20
211.672215
11
-69.305263
21
213.883213
0
LINE
8
Layer 1
10
-69.305263
20
213.883213
11
-69.781883
21
215.884864
0
LINE
8
Layer 1
10
-69.781883
20
215.884864
11
-69.849394
21
217.648920
0
LINE
8
Layer 1
10
-69.849394
20
217.648920
11
-69.486474
21
219.147131
0
LINE
8
Layer 1
10
-69.486474
20
219.147131
11
-68.671801
21
220.351250
0
LINE
8
Layer 1
10
-68.671801
20
220.351250
11
-67.614430
21
221.284013
0
LINE
8
Layer 1
10
-67.614430
20
221.284013
11
-66.443454
21
222.086087
0
LINE
8
Layer 1
10
-66.443454
20
222.086087
11
-65.164715
21
222.759008
0
LINE
8
Layer 1
10
-65.164715
20
222.759008
11
-63.784053
21
223.304310
0
LINE
8
Layer 1
10
-63.784053
20
223.304310
11
-60.740327
21
224.018196
0
LINE
8
Layer 1
10
-60.740327
20
224.018196
11
-57.359002
21
224.240024
0
LINE
8
Layer 1
10
-57.359002
20
224.240024
11
-57.359002
21
224.240024
0
LINE
8
Layer 1
10
177.092283
20
219.237110
11
176.054582
21
219.004487
0
LINE
8
Layer 1
10
176.054582
20
219.004487
11
174.785262
21
218.351394
0
LINE
8
Layer 1
10
174.785262
20
218.351394
11
171.457310
21
215.862556
0
LINE
8
Layer 1
10
171.457310
20
215.862556
11
169.807599
21
214.347928
0
LINE
8
Layer 1
10
169.807599
20
214.347928
11
168.268162
21
212.653242
0
LINE
8
Layer 1
10
168.268162
20
212.653242
11
166.872808
21
210.835637
0
LINE
8
Layer 1
10
166.872808
20
210.835637
11
165.655343
21
208.952252
0
LINE
8
Layer 1
10
165.655343
20
208.952252
11
164.649575
21
207.060225
0
LINE
8
Layer 1
10
164.649575
20
207.060225
11
163.889313
21
205.216695
0
LINE
8
Layer 1
10
163.889313
20
205.216695
11
163.408363
21
203.478800
0
LINE
8
Layer 1
10
163.408363
20
203.478800
11
163.240534
21
201.903678
0
LINE
8
Layer 1
10
163.240534
20
201.903678
11
163.408171
21
200.274101
0
LINE
8
Layer 1
10
163.408171
20
200.274101
11
163.889604
21
198.494476
0
LINE
8
Layer 1
10
163.889604
20
198.494476
11
164.652610
21
196.600013
0
LINE
8
Layer 1
10
164.652610
20
196.600013
11
165.664967
21
194.625923
0
LINE
8
Layer 1
10
165.664967
20
194.625923
11
166.894455
21
192.607417
0
LINE
8
Layer 1
10
166.894455
20
192.607417
11
168.308851
21
190.579705
0
LINE
8
Layer 1
10
168.308851
20
190.579705
11
171.563483
21
186.637506
0
LINE
8
Layer 1
10
171.563483
20
186.637506
11
175.171090
21
183.081011
0
LINE
8
Layer 1
10
175.171090
20
183.081011
11
177.026704
21
181.535429
0
LINE
8
Layer 1
10
177.026704
20
181.535429
11
178.873898
21
180.191905
0
LINE
8
Layer 1
10
178.873898
20
180.191905
11
180.680449
21
179.085649
0
LINE
8
Layer 1
10
180.680449
20
179.085649
11
182.414135
21
178.251872
0
LINE
8
Layer 1
10
182.414135
20
178.251872
11
184.042736
21
177.725785
0
LINE
8
Layer 1
10
184.042736
20
177.725785
11
185.534029
21
177.542598
0
LINE
8
Layer 1
10
185.534029
20
177.542598
11
186.721040
21
177.649557
0
LINE
8
Layer 1
10
186.721040
20
177.649557
11
187.743557
21
177.956174
0
LINE
8
Layer 1
10
187.743557
20
177.956174
11
188.602206
21
178.441058
0
LINE
8
Layer 1
10
188.602206
20
178.441058
11
189.297614
21
179.082817
0
LINE
8
Layer 1
10
189.297614
20
179.082817
11
189.830406
21
179.860060
0
LINE
8
Layer 1
10
189.830406
20
179.860060
11
190.201210
21
180.751394
0
LINE
8
Layer 1
10
190.201210
20
180.751394
11
190.410651
21
181.735429
0
LINE
8
Layer 1
10
190.410651
20
181.735429
11
190.459356
21
182.790773
0
LINE
8
Layer 1
10
190.459356
20
182.790773
11
190.347952
21
183.896034
0
LINE
8
Layer 1
10
190.347952
20
183.896034
11
190.077063
21
185.029821
0
LINE
8
Layer 1
10
190.077063
20
185.029821
11
189.647318
21
186.170742
0
LINE
8
Layer 1
10
189.647318
20
186.170742
11
189.059341
21
187.297406
0
LINE
8
Layer 1
10
189.059341
20
187.297406
11
188.313760
21
188.388420
0
LINE
8
Layer 1
10
188.313760
20
188.388420
11
187.411200
21
189.422395
0
LINE
8
Layer 1
10
187.411200
20
189.422395
11
186.352288
21
190.377937
0
LINE
8
Layer 1
10
186.352288
20
190.377937
11
185.137651
21
191.233655
0
LINE
8
Layer 1
10
185.137651
20
191.233655
11
184.037994
21
192.199835
0
LINE
8
Layer 1
10
184.037994
20
192.199835
11
183.012106
21
193.655086
0
LINE
8
Layer 1
10
183.012106
20
193.655086
11
182.082442
21
195.527903
0
LINE
8
Layer 1
10
182.082442
20
195.527903
11
181.271455
21
197.746780
0
LINE
8
Layer 1
10
181.271455
20
197.746780
11
180.601600
21
200.240213
0
LINE
8
Layer 1
10
180.601600
20
200.240213
11
180.095332
21
202.936695
0
LINE
8
Layer 1
10
180.095332
20
202.936695
11
179.775105
21
205.764722
0
LINE
8
Layer 1
10
179.775105
20
205.764722
11
179.663372
21
208.652789
0
LINE
8
Layer 1
10
179.663372
20
208.652789
11
179.552188
21
213.436805
0
LINE
8
Layer 1
10
179.552188
20
213.436805
11
179.152625
21
216.736134
0
LINE
8
Layer 1
10
179.152625
20
216.736134
11
178.813757
21
217.856883
0
LINE
8
Layer 1
10
178.813757
20
217.856883
11
178.365662
21
218.639871
0
LINE
8
Layer 1
10
178.365662
20
218.639871
11
177.795963
21
219.096234
0
LINE
8
Layer 1
10
177.795963
20
219.096234
11
177.092283
21
219.237110
0
LINE
8
Layer 1
10
177.092283
20
219.237110
11
177.092283
21
219.237110
0
LINE
8
Layer 1
10
32.746995
20
219.054992
11
32.086817
21
218.860148
0
LINE
8
Layer 1
10
32.086817
20
218.860148
11
31.552500
21
218.362569
0
LINE
8
Layer 1
10
31.552500
20
218.362569
11
31.132382
21
217.552262
0
LINE
8
Layer 1
10
31.132382
20
217.552262
11
30.814801
21
216.419231
0
LINE
8
Layer 1
10
30.814801
20
216.419231
11
30.440599
21
213.145014
0
LINE
8
Layer 1
10
30.440599
20
213.145014
11
30.336597
21
208.459958
0
LINE
8
Layer 1
10
30.336597
20
208.459958
11
30.224854
21
205.572352
0
LINE
8
Layer 1
10
30.224854
20
205.572352
11
29.904622
21
202.745539
0
LINE
8
Layer 1
10
29.904622
20
202.745539
11
29.398353
21
200.050772
0
LINE
8
Layer 1
10
29.398353
20
200.050772
11
28.728501
21
197.559306
0
LINE
8
Layer 1
10
28.728501
20
197.559306
11
27.917518
21
195.342395
0
LINE
8
Layer 1
10
27.917518
20
195.342395
11
26.987858
21
193.471294
0
LINE
8
Layer 1
10
26.987858
20
193.471294
11
25.961974
21
192.017255
0
LINE
8
Layer 1
10
25.961974
20
192.017255
11
24.862318
21
191.051534
0
LINE
8
Layer 1
10
24.862318
20
191.051534
11
23.647681
21
190.195810
0
LINE
8
Layer 1
10
23.647681
20
190.195810
11
22.588769
21
189.240264
0
LINE
8
Layer 1
10
22.588769
20
189.240264
11
21.686208
21
188.206288
0
LINE
8
Layer 1
10
21.686208
20
188.206288
11
20.940626
21
187.115272
0
LINE
8
Layer 1
10
20.940626
20
187.115272
11
20.352649
21
185.988608
0
LINE
8
Layer 1
10
20.352649
20
185.988608
11
19.922902
21
184.847687
0
LINE
8
Layer 1
10
19.922902
20
184.847687
11
19.652013
21
183.713902
0
LINE
8
Layer 1
10
19.652013
20
183.713902
11
19.540607
21
182.608642
0
LINE
8
Layer 1
10
19.540607
20
182.608642
11
19.589312
21
181.553300
0
LINE
8
Layer 1
10
19.589312
20
181.553300
11
19.798753
21
180.569268
0
LINE
8
Layer 1
10
19.798753
20
180.569268
11
20.169557
21
179.677936
0
LINE
8
Layer 1
10
20.169557
20
179.677936
11
20.702350
21
178.900695
0
LINE
8
Layer 1
10
20.702350
20
178.900695
11
21.397758
21
178.258938
0
LINE
8
Layer 1
10
21.397758
20
178.258938
11
22.256408
21
177.774055
0
LINE
8
Layer 1
10
22.256408
20
177.774055
11
23.278927
21
177.467439
0
LINE
8
Layer 1
10
23.278927
20
177.467439
11
24.465940
21
177.360480
0
LINE
8
Layer 1
10
24.465940
20
177.360480
11
25.957233
21
177.543666
0
LINE
8
Layer 1
10
25.957233
20
177.543666
11
27.585833
21
178.069753
0
LINE
8
Layer 1
10
27.585833
20
178.069753
11
29.319519
21
178.903530
0
LINE
8
Layer 1
10
29.319519
20
178.903530
11
31.126070
21
180.009786
0
LINE
8
Layer 1
10
31.126070
20
180.009786
11
32.973263
21
181.353310
0
LINE
8
Layer 1
10
32.973263
20
181.353310
11
34.828878
21
182.898892
0
LINE
8
Layer 1
10
34.828878
20
182.898892
11
38.436484
21
186.455388
0
LINE
8
Layer 1
10
38.436484
20
186.455388
11
41.691116
21
190.397587
0
LINE
8
Layer 1
10
41.691116
20
190.397587
11
43.105513
21
192.425299
0
LINE
8
Layer 1
10
43.105513
20
192.425299
11
44.335001
21
194.443805
0
LINE
8
Layer 1
10
44.335001
20
194.443805
11
45.347359
21
196.417895
0
LINE
8
Layer 1
10
45.347359
20
196.417895
11
46.110365
21
198.312357
0
LINE
8
Layer 1
10
46.110365
20
198.312357
11
46.591798
21
200.091981
0
LINE
8
Layer 1
10
46.591798
20
200.091981
11
46.759436
21
201.721558
0
LINE
8
Layer 1
10
46.759436
20
201.721558
11
46.591606
21
203.296694
0
LINE
8
Layer 1
10
46.591606
20
203.296694
11
46.110655
21
205.034600
0
LINE
8
Layer 1
10
46.110655
20
205.034600
11
45.350392
21
206.878137
0
LINE
8
Layer 1
10
45.350392
20
206.878137
11
44.344624
21
208.770166
0
LINE
8
Layer 1
10
44.344624
20
208.770166
11
43.127158
21
210.653549
0
LINE
8
Layer 1
10
43.127158
20
210.653549
11
41.731804
21
212.471147
0
LINE
8
Layer 1
10
41.731804
20
212.471147
11
40.192368
21
214.165822
0
LINE
8
Layer 1
10
40.192368
20
214.165822
11
38.542660
21
215.680435
0
LINE
8
Layer 1
10
38.542660
20
215.680435
11
36.668863
21
217.167569
0
LINE
8
Layer 1
10
36.668863
20
217.167569
11
35.094860
21
218.240925
0
LINE
8
Layer 1
10
35.094860
20
218.240925
11
33.795841
21
218.877676
0
LINE
8
Layer 1
10
33.795841
20
218.877676
11
32.746995
21
219.054992
0
LINE
8
Layer 1
10
32.746995
20
219.054992
11
32.746995
21
219.054992
0
LINE
8
Layer 1
10
164.558218
20
174.318023
11
160.759094
21
174.151714
0
LINE
8
Layer 1
10
160.759094
20
174.151714
11
156.895124
21
173.657712
0
LINE
8
Layer 1
10
156.895124
20
173.657712
11
152.993574
21
172.848391
0
LINE
8
Layer 1
10
152.993574
20
172.848391
11
149.081714
21
171.736122
0
LINE
8
Layer 1
10
149.081714
20
171.736122
11
145.186813
21
170.333279
0
LINE
8
Layer 1
10
145.186813
20
170.333279
11
141.336138
21
168.652234
0
LINE
8
Layer 1
10
141.336138
20
168.652234
11
137.556958
21
166.705360
0
LINE
8
Layer 1
10
137.556958
20
166.705360
11
133.876542
21
164.505029
0
LINE
8
Layer 1
10
133.876542
20
164.505029
11
129.983375
21
163.037135
0
LINE
8
Layer 1
10
129.983375
20
163.037135
11
125.643879
21
161.833492
0
LINE
8
Layer 1
10
125.643879
20
161.833492
11
121.132886
21
160.690785
0
LINE
8
Layer 1
10
121.132886
20
160.690785
11
116.725226
21
159.405700
0
LINE
8
Layer 1
10
116.725226
20
159.405700
11
115.286886
21
158.712130
0
LINE
8
Layer 1
10
115.286886
20
158.712130
11
113.905230
21
157.666317
0
LINE
8
Layer 1
10
113.905230
20
157.666317
11
112.590959
21
156.354841
0
LINE
8
Layer 1
10
112.590959
20
156.354841
11
111.354779
21
154.864281
0
LINE
8
Layer 1
10
111.354779
20
154.864281
11
109.159502
21
151.692231
0
LINE
8
Layer 1
10
109.159502
20
151.692231
11
107.405026
21
148.842805
0
LINE
8
Layer 1
10
107.405026
20
148.842805
11
107.331236
21
148.610654
0
LINE
8
Layer 1
10
107.331236
20
148.610654
11
107.405026
21
148.350014
0
LINE
8
Layer 1
10
107.405026
20
148.350014
11
109.159502
21
145.500572
0
LINE
8
Layer 1
10
109.159502
20
145.500572
11
111.354779
21
142.328533
0
LINE
8
Layer 1
10
111.354779
20
142.328533
11
112.590959
21
140.837981
0
LINE
8
Layer 1
10
112.590959
20
140.837981
11
113.905230
21
139.526510
0
LINE
8
Layer 1
10
113.905230
20
139.526510
11
115.286886
21
138.480696
0
LINE
8
Layer 1
10
115.286886
20
138.480696
11
116.725226
21
137.787116
0
LINE
8
Layer 1
10
116.725226
20
137.787116
11
121.132885
21
136.502043
0
LINE
8
Layer 1
10
121.132885
20
136.502043
11
125.643878
21
135.359335
0
LINE
8
Layer 1
10
125.643878
20
135.359335
11
129.983374
21
134.155685
0
LINE
8
Layer 1
10
129.983374
20
134.155685
11
133.876542
21
132.687789
0
LINE
8
Layer 1
10
133.876542
20
132.687789
11
137.556959
21
130.487066
0
LINE
8
Layer 1
10
137.556959
20
130.487066
11
141.336139
21
128.539145
0
LINE
8
Layer 1
10
141.336139
20
128.539145
11
145.186814
21
126.856593
0
LINE
8
Layer 1
10
145.186814
20
126.856593
11
149.081715
21
125.451972
0
LINE
8
Layer 1
10
149.081715
20
125.451972
11
152.993575
21
124.337847
0
LINE
8
Layer 1
10
152.993575
20
124.337847
11
156.895124
21
123.526780
0
LINE
8
Layer 1
10
156.895124
20
123.526780
11
160.759095
21
123.031337
0
LINE
8
Layer 1
10
160.759095
20
123.031337
11
164.558218
21
122.864080
0
LINE
8
Layer 1
10
164.558218
20
122.864080
11
168.992450
21
123.114558
0
LINE
8
Layer 1
10
168.992450
20
123.114558
11
173.245859
21
123.877197
0
LINE
8
Layer 1
10
173.245859
20
123.877197
11
177.271869
21
125.172426
0
LINE
8
Layer 1
10
177.271869
20
125.172426
11
179.185045
21
126.026147
0
LINE
8
Layer 1
10
179.185045
20
126.026147
11
181.023906
21
127.020677
0
LINE
8
Layer 1
10
181.023906
20
127.020677
11
183.322486
21
128.550598
0
LINE
8
Layer 1
10
183.322486
20
128.550598
11
185.468061
21
130.336657
0
LINE
8
Layer 1
10
185.468061
20
130.336657
11
187.447127
21
132.384793
0
LINE
8
Layer 1
10
187.447127
20
132.384793
11
189.246180
21
134.700946
0
LINE
8
Layer 1
10
189.246180
20
134.700946
11
190.851713
21
137.291055
0
LINE
8
Layer 1
10
190.851713
20
137.291055
11
192.250223
21
140.161058
0
LINE
8
Layer 1
10
192.250223
20
140.161058
11
193.428204
21
143.316896
0
LINE
8
Layer 1
10
193.428204
20
143.316896
11
194.372151
21
146.764506
0
LINE
8
Layer 1
10
194.372151
20
146.764506
11
194.614253
21
148.572983
0
LINE
8
Layer 1
10
194.614253
20
148.572983
11
194.372151
21
150.428309
0
LINE
8
Layer 1
10
194.372151
20
150.428309
11
193.428206
21
153.875457
0
LINE
8
Layer 1
10
193.428206
20
153.875457
11
192.250226
21
157.030076
0
LINE
8
Layer 1
10
192.250226
20
157.030076
11
190.851718
21
159.898359
0
LINE
8
Layer 1
10
190.851718
20
159.898359
11
189.246185
21
162.486497
0
LINE
8
Layer 1
10
189.246185
20
162.486497
11
187.447133
21
164.800682
0
LINE
8
Layer 1
10
187.447133
20
164.800682
11
185.468065
21
166.847104
0
LINE
8
Layer 1
10
185.468065
20
166.847104
11
183.322488
21
168.631956
0
LINE
8
Layer 1
10
183.322488
20
168.631956
11
181.023906
21
170.161428
0
LINE
8
Layer 1
10
181.023906
20
170.161428
11
179.185045
21
171.155927
0
LINE
8
Layer 1
10
179.185045
20
171.155927
11
177.271872
21
172.009550
0
LINE
8
Layer 1
10
177.271872
20
172.009550
11
173.245871
21
173.304533
0
LINE
8
Layer 1
10
173.245871
20
173.304533
11
168.992466
21
174.067112
0
LINE
8
Layer 1
10
168.992466
20
174.067112
11
164.558218
21
174.318023
0
LINE
8
Layer 1
10
164.558218
20
174.318023
11
164.558218
21
174.318023
0
LINE
8
Layer 1
10
45.441751
20
174.135905
11
41.007501
21
173.885413
0
LINE
8
Layer 1
10
41.007501
20
173.885413
11
36.754094
21
173.122787
0
LINE
8
Layer 1
10
36.754094
20
173.122787
11
32.728093
21
171.827570
0
LINE
8
Layer 1
10
32.728093
20
171.827570
11
30.814921
21
170.973848
0
LINE
8
Layer 1
10
30.814921
20
170.973848
11
28.976063
21
169.979307
0
LINE
8
Layer 1
10
28.976063
20
169.979307
11
26.677480
21
168.449388
0
LINE
8
Layer 1
10
26.677480
20
168.449388
11
24.531904
21
166.663330
0
LINE
8
Layer 1
10
24.531904
20
166.663330
11
22.552838
21
164.615194
0
LINE
8
Layer 1
10
22.552838
20
164.615194
11
20.753786
21
162.299040
0
LINE
8
Layer 1
10
20.753786
20
162.299040
11
19.148254
21
159.708931
0
LINE
8
Layer 1
10
19.148254
20
159.708931
11
17.749746
21
156.838927
0
LINE
8
Layer 1
10
17.749746
20
156.838927
11
16.571766
21
153.683089
0
LINE
8
Layer 1
10
16.571766
20
153.683089
11
15.627818
21
150.235478
0
LINE
8
Layer 1
10
15.627818
20
150.235478
11
15.402632
21
148.431462
0
LINE
8
Layer 1
10
15.402632
20
148.431462
11
15.627818
21
146.582388
0
LINE
8
Layer 1
10
15.627818
20
146.582388
11
16.571766
21
143.134777
0
LINE
8
Layer 1
10
16.571766
20
143.134777
11
17.749746
21
139.978943
0
LINE
8
Layer 1
10
17.749746
20
139.978943
11
19.148255
21
137.108944
0
LINE
8
Layer 1
10
19.148255
20
137.108944
11
20.753787
21
134.518840
0
LINE
8
Layer 1
10
20.753787
20
134.518840
11
22.552839
21
132.202690
0
LINE
8
Layer 1
10
22.552839
20
132.202690
11
24.531905
21
130.154554
0
LINE
8
Layer 1
10
24.531905
20
130.154554
11
26.677481
21
128.368490
0
LINE
8
Layer 1
10
26.677481
20
128.368490
11
28.976063
21
126.838559
0
LINE
8
Layer 1
10
28.976063
20
126.838559
11
31.444985
21
125.544331
0
LINE
8
Layer 1
10
31.444985
20
125.544331
11
34.043056
21
124.499544
0
LINE
8
Layer 1
10
34.043056
20
124.499544
11
36.756271
21
123.697845
0
LINE
8
Layer 1
10
36.756271
20
123.697845
11
39.570625
21
123.132879
0
LINE
8
Layer 1
10
39.570625
20
123.132879
11
42.472115
21
122.798292
0
LINE
8
Layer 1
10
42.472115
20
122.798292
11
45.446735
21
122.687731
0
LINE
8
Layer 1
10
45.446735
20
122.687731
11
48.480481
21
122.794841
0
LINE
8
Layer 1
10
48.480481
20
122.794841
11
51.559349
21
123.113270
0
LINE
8
Layer 1
10
51.559349
20
123.113270
11
54.669334
21
123.636662
0
LINE
8
Layer 1
10
54.669334
20
123.636662
11
57.796432
21
124.358664
0
LINE
8
Layer 1
10
57.796432
20
124.358664
11
60.926639
21
125.272922
0
LINE
8
Layer 1
10
60.926639
20
125.272922
11
64.045949
21
126.373083
0
LINE
8
Layer 1
10
64.045949
20
126.373083
11
67.140359
21
127.652792
0
LINE
8
Layer 1
10
67.140359
20
127.652792
11
70.195864
21
129.105695
0
LINE
8
Layer 1
10
70.195864
20
129.105695
11
73.198459
21
130.725438
0
LINE
8
Layer 1
10
73.198459
20
130.725438
11
76.134141
21
132.505669
0
LINE
8
Layer 1
10
76.134141
20
132.505669
11
80.025642
21
133.973562
0
LINE
8
Layer 1
10
80.025642
20
133.973562
11
84.361463
21
135.177205
0
LINE
8
Layer 1
10
84.361463
20
135.177205
11
88.868774
21
136.319912
0
LINE
8
Layer 1
10
88.868774
20
136.319912
11
93.274741
21
137.604998
0
LINE
8
Layer 1
10
93.274741
20
137.604998
11
94.713097
21
138.298107
0
LINE
8
Layer 1
10
94.713097
20
138.298107
11
96.094764
21
139.342705
0
LINE
8
Layer 1
10
96.094764
20
139.342705
11
97.409041
21
140.652466
0
LINE
8
Layer 1
10
97.409041
20
140.652466
11
98.645223
21
142.141059
0
LINE
8
Layer 1
10
98.645223
20
142.141059
11
100.840491
21
145.309427
0
LINE
8
Layer 1
10
100.840491
20
145.309427
11
102.594943
21
148.157180
0
LINE
8
Layer 1
10
102.594943
20
148.157180
11
102.594943
21
148.660687
0
LINE
8
Layer 1
10
102.594943
20
148.660687
11
100.840493
21
151.510104
0
LINE
8
Layer 1
10
100.840493
20
151.510104
11
98.645224
21
154.682145
0
LINE
8
Layer 1
10
98.645224
20
154.682145
11
97.409041
21
156.172703
0
LINE
8
Layer 1
10
97.409041
20
156.172703
11
96.094764
21
157.484180
0
LINE
8
Layer 1
10
96.094764
20
157.484180
11
94.713096
21
158.529999
0
LINE
8
Layer 1
10
94.713096
20
158.529999
11
93.274741
21
159.223582
0
LINE
8
Layer 1
10
93.274741
20
159.223582
11
88.868776
21
160.506975
0
LINE
8
Layer 1
10
88.868776
20
160.506975
11
84.361464
21
161.646001
0
LINE
8
Layer 1
10
84.361464
20
161.646001
11
80.025641
21
162.845972
0
LINE
8
Layer 1
10
80.025641
20
162.845972
11
76.134141
21
164.312198
0
LINE
8
Layer 1
10
76.134141
20
164.312198
11
72.453263
21
166.512922
0
LINE
8
Layer 1
10
72.453263
20
166.512922
11
68.672866
21
168.460845
0
LINE
8
Layer 1
10
68.672866
20
168.460845
11
64.820470
21
170.143402
0
LINE
8
Layer 1
10
64.820470
20
170.143402
11
60.923597
21
171.548027
0
LINE
8
Layer 1
10
60.923597
20
171.548027
11
57.009767
21
172.662156
0
LINE
8
Layer 1
10
57.009767
20
172.662156
11
53.106502
21
173.473222
0
LINE
8
Layer 1
10
53.106502
20
173.473222
11
49.241323
21
173.968660
0
LINE
8
Layer 1
10
49.241323
20
173.968660
11
45.441751
21
174.135905
0
LINE
8
Layer 1
10
45.441751
20
174.135905
11
45.441751
21
174.135905
0
LINE
8
Layer 1
10
331.550518
20
173.460993
11
324.813605
21
173.316663
0
LINE
8
Layer 1
10
324.813605
20
173.316663
11
318.151743
21
172.937226
0
LINE
8
Layer 1
10
318.151743
20
172.937226
11
305.357530
21
171.779072
0
LINE
8
Layer 1
10
305.357530
20
171.779072
11
292.746347
21
169.724771
0
LINE
8
Layer 1
10
292.746347
20
169.724771
11
280.335265
21
167.209584
0
LINE
8
Layer 1
10
280.335265
20
167.209584
11
268.463383
21
164.362769
0
LINE
8
Layer 1
10
268.463383
20
164.362769
11
257.469801
21
161.313588
0
LINE
8
Layer 1
10
257.469801
20
161.313588
11
247.693617
21
158.191301
0
LINE
8
Layer 1
10
247.693617
20
158.191301
11
239.473930
21
155.125169
0
LINE
8
Layer 1
10
239.473930
20
155.125169
11
236.053741
21
153.653554
0
LINE
8
Layer 1
10
236.053741
20
153.653554
11
233.149839
21
152.244451
0
LINE
8
Layer 1
10
233.149839
20
152.244451
11
230.804610
21
150.914016
0
LINE
8
Layer 1
10
230.804610
20
150.914016
11
229.060443
21
149.678408
0
LINE
8
Layer 1
10
229.060443
20
149.678408
11
228.714634
21
149.179848
0
LINE
8
Layer 1
10
228.714634
20
149.179848
11
228.596695
21
148.628366
0
LINE
8
Layer 1
10
228.596695
20
148.628366
11
228.710630
21
148.058226
0
LINE
8
Layer 1
10
228.710630
20
148.058226
11
229.060443
21
147.503694
0
LINE
8
Layer 1
10
229.060443
20
147.503694
11
230.804611
21
146.268257
0
LINE
8
Layer 1
10
230.804611
20
146.268257
11
233.149840
21
144.937949
0
LINE
8
Layer 1
10
233.149840
20
144.937949
11
236.053741
21
143.528932
0
LINE
8
Layer 1
10
236.053741
20
143.528932
11
239.473928
21
142.057368
0
LINE
8
Layer 1
10
239.473928
20
142.057368
11
247.693610
21
138.991249
0
LINE
8
Layer 1
10
247.693610
20
138.991249
11
257.469789
21
135.868891
0
LINE
8
Layer 1
10
257.469789
20
135.868891
11
268.463368
21
132.819593
0
LINE
8
Layer 1
10
268.463368
20
132.819593
11
280.335249
21
129.972651
0
LINE
8
Layer 1
10
280.335249
20
129.972651
11
292.746336
21
127.457365
0
LINE
8
Layer 1
10
292.746336
20
127.457365
11
305.357530
21
125.403033
0
LINE
8
Layer 1
10
305.357530
20
125.403033
11
318.152304
21
124.245809
0
LINE
8
Layer 1
10
318.152304
20
124.245809
11
324.813497
21
123.866581
0
LINE
8
Layer 1
10
324.813497
20
123.866581
11
331.550518
21
123.721113
0
LINE
8
Layer 1
10
331.550518
20
123.721113
11
339.521641
21
123.954621
0
LINE
8
Layer 1
10
339.521641
20
123.954621
11
343.466704
21
124.273004
0
LINE
8
Layer 1
10
343.466704
20
124.273004
11
347.363597
21
124.746681
0
LINE
8
Layer 1
10
347.363597
20
124.746681
11
351.196444
21
125.391310
0
LINE
8
Layer 1
10
351.196444
20
125.391310
11
354.949369
21
126.222548
0
LINE
8
Layer 1
10
354.949369
20
126.222548
11
358.606495
21
127.256051
0
LINE
8
Layer 1
10
358.606495
20
127.256051
11
362.151944
21
128.507476
0
LINE
8
Layer 1
10
362.151944
20
128.507476
11
365.569841
21
129.992480
0
LINE
8
Layer 1
10
365.569841
20
129.992480
11
368.844307
21
131.726719
0
LINE
8
Layer 1
10
368.844307
20
131.726719
11
371.959467
21
133.725851
0
LINE
8
Layer 1
10
371.959467
20
133.725851
11
374.899444
21
136.005532
0
LINE
8
Layer 1
10
374.899444
20
136.005532
11
377.648360
21
138.581420
0
LINE
8
Layer 1
10
377.648360
20
138.581420
11
380.190340
21
141.469169
0
LINE
8
Layer 1
10
380.190340
20
141.469169
11
382.509505
21
144.684439
0
LINE
8
Layer 1
10
382.509505
20
144.684439
11
384.589980
21
148.242885
0
LINE
8
Layer 1
10
384.589980
20
148.242885
11
384.589980
21
148.939220
0
LINE
8
Layer 1
10
384.589980
20
148.939220
11
382.508387
21
152.494266
0
LINE
8
Layer 1
10
382.508387
20
152.494266
11
380.188332
21
155.706865
0
LINE
8
Layer 1
10
380.188332
20
155.706865
11
377.645676
21
158.592614
0
LINE
8
Layer 1
10
377.645676
20
158.592614
11
374.896277
21
161.167111
0
LINE
8
Layer 1
10
374.896277
20
161.167111
11
371.955995
21
163.445954
0
LINE
8
Layer 1
10
371.955995
20
163.445954
11
368.840691
21
165.444740
0
LINE
8
Layer 1
10
368.840691
20
165.444740
11
365.566223
21
167.179067
0
LINE
8
Layer 1
10
365.566223
20
167.179067
11
362.148452
21
168.664534
0
LINE
8
Layer 1
10
362.148452
20
168.664534
11
358.603236
21
169.916737
0
LINE
8
Layer 1
10
358.603236
20
169.916737
11
354.946437
21
170.951274
0
LINE
8
Layer 1
10
354.946437
20
170.951274
11
351.193913
21
171.783743
0
LINE
8
Layer 1
10
351.193913
20
171.783743
11
347.361525
21
172.429743
0
LINE
8
Layer 1
10
347.361525
20
172.429743
11
343.465132
21
172.904870
0
LINE
8
Layer 1
10
343.465132
20
172.904870
11
339.520593
21
173.224722
0
LINE
8
Layer 1
10
339.520593
20
173.224722
11
331.550518
21
173.460993
0
LINE
8
Layer 1
10
331.550518
20
173.460993
11
331.550518
21
173.460993
0
LINE
8
Layer 1
10
-121.550554
20
173.278875
11
-129.521664
21
173.045370
0
LINE
8
Layer 1
10
-129.521664
20
173.045370
11
-133.466721
21
172.726989
0
LINE
8
Layer 1
10
-133.466721
20
172.726989
11
-137.363611
21
172.253314
0
LINE
8
Layer 1
10
-137.363611
20
172.253314
11
-141.196456
21
171.608687
0
LINE
8
Layer 1
10
-141.196456
20
171.608687
11
-144.949379
21
170.777452
0
LINE
8
Layer 1
10
-144.949379
20
170.777452
11
-148.606504
21
169.743951
0
LINE
8
Layer 1
10
-148.606504
20
169.743951
11
-152.151954
21
168.492528
0
LINE
8
Layer 1
10
-152.151954
20
168.492528
11
-155.569851
21
167.007525
0
LINE
8
Layer 1
10
-155.569851
20
167.007525
11
-158.844319
21
165.273287
0
LINE
8
Layer 1
10
-158.844319
20
165.273287
11
-161.959480
21
163.274155
0
LINE
8
Layer 1
10
-161.959480
20
163.274155
11
-164.899458
21
160.994472
0
LINE
8
Layer 1
10
-164.899458
20
160.994472
11
-167.648376
21
158.418583
0
LINE
8
Layer 1
10
-167.648376
20
158.418583
11
-170.190357
21
155.530829
0
LINE
8
Layer 1
10
-170.190357
20
155.530829
11
-172.509523
21
152.315555
0
LINE
8
Layer 1
10
-172.509523
20
152.315555
11
-174.589999
21
148.757102
0
LINE
8
Layer 1
10
-174.589999
20
148.757102
11
-174.589999
21
148.060764
0
LINE
8
Layer 1
10
-174.589999
20
148.060764
11
-173.134956
21
145.496907
0
LINE
8
Layer 1
10
-173.134956
20
145.496907
11
-171.557022
21
143.108564
0
LINE
8
Layer 1
10
-171.557022
20
143.108564
11
-169.861900
21
140.890121
0
LINE
8
Layer 1
10
-169.861900
20
140.890121
11
-168.055291
21
138.835962
0
LINE
8
Layer 1
10
-168.055291
20
138.835962
11
-166.142898
21
136.940472
0
LINE
8
Layer 1
10
-166.142898
20
136.940472
11
-164.130423
21
135.198036
0
LINE
8
Layer 1
10
-164.130423
20
135.198036
11
-162.023568
21
133.603038
0
LINE
8
Layer 1
10
-162.023568
20
133.603038
11
-159.828035
21
132.149864
0
LINE
8
Layer 1
10
-159.828035
20
132.149864
11
-157.549527
21
130.832897
0
LINE
8
Layer 1
10
-157.549527
20
130.832897
11
-155.193745
21
129.646523
0
LINE
8
Layer 1
10
-155.193745
20
129.646523
11
-150.273170
21
127.643091
0
LINE
8
Layer 1
10
-150.273170
20
127.643091
11
-145.111928
21
126.094646
0
LINE
8
Layer 1
10
-145.111928
20
126.094646
11
-139.755635
21
124.956267
0
LINE
8
Layer 1
10
-139.755635
20
124.956267
11
-134.249910
21
124.183030
0
LINE
8
Layer 1
10
-134.249910
20
124.183030
11
-128.640369
21
123.730014
0
LINE
8
Layer 1
10
-128.640369
20
123.730014
11
-122.972631
21
123.552297
0
LINE
8
Layer 1
10
-122.972631
20
123.552297
11
-117.292311
21
123.604956
0
LINE
8
Layer 1
10
-117.292311
20
123.604956
11
-111.645029
21
123.843070
0
LINE
8
Layer 1
10
-111.645029
20
123.843070
11
-106.076400
21
124.221715
0
LINE
8
Layer 1
10
-106.076400
20
124.221715
11
-95.357575
21
125.220915
0
LINE
8
Layer 1
10
-95.357575
20
125.220915
11
-82.746380
21
127.275205
0
LINE
8
Layer 1
10
-82.746380
20
127.275205
11
-70.335292
21
129.790388
0
LINE
8
Layer 1
10
-70.335292
20
129.790388
11
-58.463408
21
132.637202
0
LINE
8
Layer 1
10
-58.463408
20
132.637202
11
-47.469826
21
135.686385
0
LINE
8
Layer 1
10
-47.469826
20
135.686385
11
-37.693643
21
138.808676
0
LINE
8
Layer 1
10
-37.693643
20
138.808676
11
-29.473959
21
141.874812
0
LINE
8
Layer 1
10
-29.473959
20
141.874812
11
-26.053771
21
143.346428
0
LINE
8
Layer 1
10
-26.053771
20
143.346428
11
-23.149869
21
144.755533
0
LINE
8
Layer 1
10
-23.149869
20
144.755533
11
-20.804641
21
146.085968
0
LINE
8
Layer 1
10
-20.804641
20
146.085968
11
-19.060474
21
147.321576
0
LINE
8
Layer 1
10
-19.060474
20
147.321576
11
-18.722330
21
147.825179
0
LINE
8
Layer 1
10
-18.722330
20
147.825179
11
-18.604434
21
148.383196
0
LINE
8
Layer 1
10
-18.604434
20
148.383196
11
-18.714557
21
148.956760
0
LINE
8
Layer 1
10
-18.714557
20
148.956760
11
-19.060474
21
149.507003
0
LINE
8
Layer 1
10
-19.060474
20
149.507003
11
-20.804641
21
150.742322
0
LINE
8
Layer 1
10
-20.804641
20
150.742322
11
-23.149868
21
152.072292
0
LINE
8
Layer 1
10
-23.149868
20
152.072292
11
-26.053767
21
153.480781
0
LINE
8
Layer 1
10
-26.053767
20
153.480781
11
-29.473953
21
154.951660
0
LINE
8
Layer 1
10
-29.473953
20
154.951660
11
-37.693632
21
158.016063
0
LINE
8
Layer 1
10
-37.693632
20
158.016063
11
-47.469810
21
161.136454
0
LINE
8
Layer 1
10
-47.469810
20
161.136454
11
-58.463389
21
164.183784
0
LINE
8
Layer 1
10
-58.463389
20
164.183784
11
-70.335274
21
167.029009
0
LINE
8
Layer 1
10
-70.335274
20
167.029009
11
-82.746368
21
169.543080
0
LINE
8
Layer 1
10
-82.746368
20
169.543080
11
-95.357575
21
171.596952
0
LINE
8
Layer 1
10
-95.357575
20
171.596952
11
-108.152340
21
172.754191
0
LINE
8
Layer 1
10
-108.152340
20
172.754191
11
-114.813535
21
173.133422
0
LINE
8
Layer 1
10
-114.813535
20
173.133422
11
-121.550554
21
173.278875
0
LINE
8
Layer 1
10
-121.550554
20
173.278875
11
-121.550554
21
173.278875
0
LINE
8
Layer 1
10
168.854080
20
161.741108
11
171.932375
21
161.542968
0
LINE
8
Layer 1
10
171.932375
20
161.542968
11
173.382541
21
161.246888
0
LINE
8
Layer 1
10
173.382541
20
161.246888
11
174.756874
21
160.809086
0
LINE
8
Layer 1
10
174.756874
20
160.809086
11
176.623505
21
159.857294
0
LINE
8
Layer 1
10
176.623505
20
159.857294
11
178.261221
21
158.577168
0
LINE
8
Layer 1
10
178.261221
20
158.577168
11
179.670475
21
157.050761
0
LINE
8
Layer 1
10
179.670475
20
157.050761
11
180.851722
21
155.360128
0
LINE
8
Layer 1
10
180.851722
20
155.360128
11
181.805418
21
153.587322
0
LINE
8
Layer 1
10
181.805418
20
153.587322
11
182.532018
21
151.814397
0
LINE
8
Layer 1
10
182.532018
20
151.814397
11
183.031977
21
150.123408
0
LINE
8
Layer 1
10
183.031977
20
150.123408
11
183.305749
21
148.596408
0
LINE
8
Layer 1
10
183.305749
20
148.596408
11
183.032074
21
147.069434
0
LINE
8
Layer 1
10
183.032074
20
147.069434
11
182.532192
21
145.378468
0
LINE
8
Layer 1
10
182.532192
20
145.378468
11
181.805644
21
143.605561
0
LINE
8
Layer 1
10
181.805644
20
143.605561
11
180.851972
21
141.832765
0
LINE
8
Layer 1
10
180.851972
20
141.832765
11
179.670717
21
140.142132
0
LINE
8
Layer 1
10
179.670717
20
140.142132
11
178.261421
21
138.615714
0
LINE
8
Layer 1
10
178.261421
20
138.615714
11
176.623627
21
137.335563
0
LINE
8
Layer 1
10
176.623627
20
137.335563
11
174.756874
21
136.383729
0
LINE
8
Layer 1
10
174.756874
20
136.383729
11
172.203345
21
135.694005
0
LINE
8
Layer 1
10
172.203345
20
135.694005
11
169.432577
21
135.451710
0
LINE
8
Layer 1
10
169.432577
20
135.451710
11
167.475523
21
135.517153
0
LINE
8
Layer 1
10
167.475523
20
135.517153
11
165.476329
21
135.750695
0
LINE
8
Layer 1
10
165.476329
20
135.750695
11
161.443571
21
136.664402
0
LINE
8
Layer 1
10
161.443571
20
136.664402
11
157.518402
21
138.077486
0
LINE
8
Layer 1
10
157.518402
20
138.077486
11
153.884925
21
139.874599
0
LINE
8
Layer 1
10
153.884925
20
139.874599
11
150.727241
21
141.940394
0
LINE
8
Layer 1
10
150.727241
20
141.940394
11
148.229449
21
144.159526
0
LINE
8
Layer 1
10
148.229449
20
144.159526
11
147.285545
21
145.290546
0
LINE
8
Layer 1
10
147.285545
20
145.290546
11
146.575653
21
146.416646
0
LINE
8
Layer 1
10
146.575653
20
146.416646
11
146.122784
21
147.523406
0
LINE
8
Layer 1
10
146.122784
20
147.523406
11
145.949952
21
148.596408
0
LINE
8
Layer 1
10
145.949952
20
148.596408
11
146.116921
21
149.649203
0
LINE
8
Layer 1
10
146.116921
20
149.649203
11
146.553979
21
150.734794
0
LINE
8
Layer 1
10
146.553979
20
150.734794
11
147.239378
21
151.839546
0
LINE
8
Layer 1
10
147.239378
20
151.839546
11
148.151372
21
152.949824
0
LINE
8
Layer 1
10
148.151372
20
152.949824
11
150.568163
21
155.132421
0
LINE
8
Layer 1
10
150.568163
20
155.132421
11
153.630379
21
157.173504
0
LINE
8
Layer 1
10
153.630379
20
157.173504
11
157.164050
21
158.963993
0
LINE
8
Layer 1
10
157.164050
20
158.963993
11
160.995204
21
160.394810
0
LINE
8
Layer 1
10
160.995204
20
160.394810
11
164.949871
21
161.356875
0
LINE
8
Layer 1
10
164.949871
20
161.356875
11
166.919156
21
161.628038
0
LINE
8
Layer 1
10
166.919156
20
161.628038
11
168.854080
21
161.741108
0
LINE
8
Layer 1
10
168.854080
20
161.741108
11
168.854080
21
161.741108
0
LINE
8
Layer 1
10
40.578106
20
161.548274
11
42.535047
21
161.482945
0
LINE
8
Layer 1
10
42.535047
20
161.482945
11
44.533906
21
161.249738
0
LINE
8
Layer 1
10
44.533906
20
161.249738
11
48.565454
21
160.337239
0
LINE
8
Layer 1
10
48.565454
20
160.337239
11
52.488903
21
158.925870
0
LINE
8
Layer 1
10
52.488903
20
158.925870
11
56.120406
21
157.130727
0
LINE
8
Layer 1
10
56.120406
20
157.130727
11
59.276116
21
155.066904
0
LINE
8
Layer 1
10
59.276116
20
155.066904
11
61.772186
21
152.849493
0
LINE
8
Layer 1
10
61.772186
20
152.849493
11
62.715403
21
151.719160
0
LINE
8
Layer 1
10
62.715403
20
151.719160
11
63.424768
21
150.593591
0
LINE
8
Layer 1
10
63.424768
20
150.593591
11
63.877300
21
149.487172
0
LINE
8
Layer 1
10
63.877300
20
149.487172
11
64.050017
21
148.414290
0
LINE
8
Layer 1
10
64.050017
20
148.414290
11
63.813861
21
147.138438
0
LINE
8
Layer 1
10
63.813861
20
147.138438
11
63.190503
21
145.818905
0
LINE
8
Layer 1
10
63.190503
20
145.818905
11
62.218220
21
144.479698
0
LINE
8
Layer 1
10
62.218220
20
144.479698
11
60.935293
21
143.144819
0
LINE
8
Layer 1
10
60.935293
20
143.144819
11
59.379998
21
141.838274
0
LINE
8
Layer 1
10
59.379998
20
141.838274
11
57.590614
21
140.584068
0
LINE
8
Layer 1
10
57.590614
20
140.584068
11
55.605419
21
139.406204
0
LINE
8
Layer 1
10
55.605419
20
139.406204
11
53.462692
21
138.328688
0
LINE
8
Layer 1
10
53.462692
20
138.328688
11
51.200710
21
137.375524
0
LINE
8
Layer 1
10
51.200710
20
137.375524
11
48.857753
21
136.570716
0
LINE
8
Layer 1
10
48.857753
20
136.570716
11
46.472097
21
135.938269
0
LINE
8
Layer 1
10
46.472097
20
135.938269
11
44.082023
21
135.502188
0
LINE
8
Layer 1
10
44.082023
20
135.502188
11
41.725807
21
135.286477
0
LINE
8
Layer 1
10
41.725807
20
135.286477
11
39.441728
21
135.315141
0
LINE
8
Layer 1
10
39.441728
20
135.315141
11
37.268065
21
135.612184
0
LINE
8
Layer 1
10
37.268065
20
135.612184
11
35.243095
21
136.201611
0
LINE
8
Layer 1
10
35.243095
20
136.201611
11
33.376462
21
137.153418
0
LINE
8
Layer 1
10
33.376462
20
137.153418
11
31.738746
21
138.433551
0
LINE
8
Layer 1
10
31.738746
20
138.433551
11
30.329492
21
139.959959
0
LINE
8
Layer 1
10
30.329492
20
139.959959
11
29.148245
21
141.650589
0
LINE
8
Layer 1
10
29.148245
20
141.650589
11
28.194549
21
143.423389
0
LINE
8
Layer 1
10
28.194549
20
143.423389
11
27.467950
21
145.196307
0
LINE
8
Layer 1
10
27.467950
20
145.196307
11
26.967992
21
146.887292
0
LINE
8
Layer 1
10
26.967992
20
146.887292
11
26.694220
21
148.414290
0
LINE
8
Layer 1
10
26.694220
20
148.414290
11
26.967894
21
149.940799
0
LINE
8
Layer 1
10
26.967894
20
149.940799
11
27.467776
21
151.630550
0
LINE
8
Layer 1
10
27.467776
20
151.630550
11
28.194324
21
153.401741
0
LINE
8
Layer 1
10
28.194324
20
153.401741
11
29.147996
21
155.172571
0
LINE
8
Layer 1
10
29.147996
20
155.172571
11
30.329251
21
156.861239
0
LINE
8
Layer 1
10
30.329251
20
156.861239
11
31.738548
21
158.385943
0
LINE
8
Layer 1
10
31.738548
20
158.385943
11
33.376343
21
159.664882
0
LINE
8
Layer 1
10
33.376343
20
159.664882
11
35.243095
21
160.616255
0
LINE
8
Layer 1
10
35.243095
20
160.616255
11
37.801996
21
161.305994
0
LINE
8
Layer 1
10
37.801996
20
161.305994
11
40.578106
21
161.548274
0
LINE
8
Layer 1
10
40.578106
20
161.548274
11
40.578106
21
161.548274
0
LINE
8
Layer 1
10
215.990734
20
138.515594
11
212.284403
21
138.194492
0
LINE
8
Layer 1
10
212.284403
20
138.194492
11
210.508798
21
137.830954
0
LINE
8
Layer 1
10
210.508798
20
137.830954
11
208.789200
21
137.325327
0
LINE
8
Layer 1
10
208.789200
20
137.325327
11
207.128833
21
136.672541
0
LINE
8
Layer 1
10
207.128833
20
136.672541
11
205.530922
21
135.867523
0
LINE
8
Layer 1
10
205.530922
20
135.867523
11
203.998689
21
134.905200
0
LINE
8
Layer 1
10
203.998689
20
134.905200
11
202.535361
21
133.780500
0
LINE
8
Layer 1
10
202.535361
20
133.780500
11
201.333111
21
132.266632
0
LINE
8
Layer 1
10
201.333111
20
132.266632
11
200.313471
21
130.546329
0
LINE
8
Layer 1
10
200.313471
20
130.546329
11
199.470036
21
128.646385
0
LINE
8
Layer 1
10
199.470036
20
128.646385
11
198.796398
21
126.593592
0
LINE
8
Layer 1
10
198.796398
20
126.593592
11
198.286153
21
124.414744
0
LINE
8
Layer 1
10
198.286153
20
124.414744
11
197.932895
21
122.136635
0
LINE
8
Layer 1
10
197.932895
20
122.136635
11
197.671715
21
117.389801
0
LINE
8
Layer 1
10
197.671715
20
117.389801
11
197.900399
21
113.132514
0
LINE
8
Layer 1
10
197.900399
20
113.132514
11
198.522909
21
108.964528
0
LINE
8
Layer 1
10
198.522909
20
108.964528
11
199.504539
21
105.032023
0
LINE
8
Layer 1
10
199.504539
20
105.032023
11
200.810588
21
101.481180
0
LINE
8
Layer 1
10
200.810588
20
101.481180
11
203.093763
21
97.710533
0
LINE
8
Layer 1
10
203.093763
20
97.710533
11
205.915932
21
93.967895
0
LINE
8
Layer 1
10
205.915932
20
93.967895
11
209.226259
21
90.273598
0
LINE
8
Layer 1
10
209.226259
20
90.273598
11
212.973902
21
86.647975
0
LINE
8
Layer 1
10
212.973902
20
86.647975
11
217.108024
21
83.111357
0
LINE
8
Layer 1
10
217.108024
20
83.111357
11
221.577786
21
79.684077
0
LINE
8
Layer 1
10
221.577786
20
79.684077
11
226.332348
21
76.386467
0
LINE
8
Layer 1
10
226.332348
20
76.386467
11
231.320872
21
73.238858
0
LINE
8
Layer 1
10
231.320872
20
73.238858
11
236.492519
21
70.261583
0
LINE
8
Layer 1
10
236.492519
20
70.261583
11
241.796450
21
67.474974
0
LINE
8
Layer 1
10
241.796450
20
67.474974
11
247.181826
21
64.899362
0
LINE
8
Layer 1
10
247.181826
20
64.899362
11
252.597807
21
62.555081
0
LINE
8
Layer 1
10
252.597807
20
62.555081
11
257.993556
21
60.462461
0
LINE
8
Layer 1
10
257.993556
20
60.462461
11
263.318233
21
58.641836
0
LINE
8
Layer 1
10
263.318233
20
58.641836
11
268.520999
21
57.113536
0
LINE
8
Layer 1
10
268.520999
20
57.113536
11
273.551015
21
55.897894
0
LINE
8
Layer 1
10
273.551015
20
55.897894
11
277.080722
21
55.221162
0
LINE
8
Layer 1
10
277.080722
20
55.221162
11
280.471882
21
54.730410
0
LINE
8
Layer 1
10
280.471882
20
54.730410
11
283.704852
21
54.432381
0
LINE
8
Layer 1
10
283.704852
20
54.432381
11
286.759989
21
54.333816
0
LINE
8
Layer 1
10
286.759989
20
54.333816
11
290.653460
21
54.541025
0
LINE
8
Layer 1
10
290.653460
20
54.541025
11
294.116698
21
55.167136
0
LINE
8
Layer 1
10
294.116698
20
55.167136
11
295.670778
21
55.643819
0
LINE
8
Layer 1
10
295.670778
20
55.643819
11
297.097858
21
56.233075
0
LINE
8
Layer 1
10
297.097858
20
56.233075
11
298.391457
21
56.937520
0
LINE
8
Layer 1
10
298.391457
20
56.937520
11
299.545093
21
57.759769
0
LINE
8
Layer 1
10
299.545093
20
57.759769
11
300.552286
21
58.702438
0
LINE
8
Layer 1
10
300.552286
20
58.702438
11
301.406556
21
59.768143
0
LINE
8
Layer 1
10
301.406556
20
59.768143
11
302.101421
21
60.959500
0
LINE
8
Layer 1
10
302.101421
20
60.959500
11
302.630401
21
62.279124
0
LINE
8
Layer 1
10
302.630401
20
62.279124
11
302.987015
21
63.729632
0
LINE
8
Layer 1
10
302.987015
20
63.729632
11
303.164781
21
65.313639
0
LINE
8
Layer 1
10
303.164781
20
65.313639
11
303.157220
21
67.033761
0
LINE
8
Layer 1
10
303.157220
20
67.033761
11
302.957851
21
68.892613
0
LINE
8
Layer 1
10
302.957851
20
68.892613
11
300.629787
21
75.151567
0
LINE
8
Layer 1
10
300.629787
20
75.151567
11
297.911693
21
81.043891
0
LINE
8
Layer 1
10
297.911693
20
81.043891
11
294.824203
21
86.581251
0
LINE
8
Layer 1
10
294.824203
20
86.581251
11
291.387953
21
91.775315
0
LINE
8
Layer 1
10
291.387953
20
91.775315
11
287.019037
21
96.340841
0
LINE
8
Layer 1
10
287.019037
20
96.340841
11
281.201707
21
101.925413
0
LINE
8
Layer 1
10
281.201707
20
101.925413
11
274.194265
21
108.154687
0
LINE
8
Layer 1
10
274.194265
20
108.154687
11
266.255014
21
114.654319
0
LINE
8
Layer 1
10
266.255014
20
114.654319
11
257.642258
21
121.049962
0
LINE
8
Layer 1
10
257.642258
20
121.049962
11
253.164035
21
124.091805
0
LINE
8
Layer 1
10
253.164035
20
124.091805
11
248.614300
21
126.967272
0
LINE
8
Layer 1
10
248.614300
20
126.967272
11
244.025339
21
129.629569
0
LINE
8
Layer 1
10
244.025339
20
129.629569
11
239.429442
21
132.031903
0
LINE
8
Layer 1
10
239.429442
20
132.031903
11
234.858895
21
134.127482
0
LINE
8
Layer 1
10
234.858895
20
134.127482
11
230.345988
21
135.869512
0
LINE
8
Layer 1
10
230.345988
20
135.869512
11
226.614742
21
137.026498
0
LINE
8
Layer 1
10
226.614742
20
137.026498
11
222.964120
21
137.871295
0
LINE
8
Layer 1
10
222.964120
20
137.871295
11
219.415617
21
138.376721
0
LINE
8
Layer 1
10
219.415617
20
138.376721
11
215.990734
21
138.515594
0
LINE
8
Layer 1
10
215.990734
20
138.515594
11
215.990734
21
138.515594
0
LINE
8
Layer 1
10
-6.901361
20
138.333473
11
-10.124471
21
138.121510
0
LINE
8
Layer 1
10
-10.124471
20
138.121510
11
-13.450213
21
137.595245
0
LINE
8
Layer 1
10
-13.450213
20
137.595245
11
-16.862694
21
136.776574
0
LINE
8
Layer 1
10
-16.862694
20
136.776574
11
-20.346018
21
135.687394
0
LINE
8
Layer 1
10
-20.346018
20
135.687394
11
-24.858926
21
133.945258
0
LINE
8
Layer 1
10
-24.858926
20
133.945258
11
-29.429472
21
131.849350
0
LINE
8
Layer 1
10
-29.429472
20
131.849350
11
-34.025369
21
129.446494
0
LINE
8
Layer 1
10
-34.025369
20
129.446494
11
-38.614328
21
126.783517
0
LINE
8
Layer 1
10
-38.614328
20
126.783517
11
-43.164063
21
123.907241
0
LINE
8
Layer 1
10
-43.164063
20
123.907241
11
-47.642285
21
120.864493
0
LINE
8
Layer 1
10
-47.642285
20
120.864493
11
-56.255040
21
114.466879
0
LINE
8
Layer 1
10
-56.255040
20
114.466879
11
-64.194289
21
107.965272
0
LINE
8
Layer 1
10
-64.194289
20
107.965272
11
-71.201731
21
101.734271
0
LINE
8
Layer 1
10
-71.201731
20
101.734271
11
-77.019064
21
96.148476
0
LINE
8
Layer 1
10
-77.019064
20
96.148476
11
-81.387984
21
91.582484
0
LINE
8
Layer 1
10
-81.387984
20
91.582484
11
-84.824242
21
86.390087
0
LINE
8
Layer 1
10
-84.824242
20
86.390087
11
-87.911722
21
80.856401
0
LINE
8
Layer 1
10
-87.911722
20
80.856401
11
-90.629810
21
74.967758
0
LINE
8
Layer 1
10
-90.629810
20
74.967758
11
-92.957890
21
68.710495
0
LINE
8
Layer 1
10
-92.957890
20
68.710495
11
-93.181720
21
66.213476
0
LINE
8
Layer 1
10
-93.181720
20
66.213476
11
-93.054112
21
63.971747
0
LINE
8
Layer 1
10
-93.054112
20
63.971747
11
-92.591466
21
61.978744
0
LINE
8
Layer 1
10
-92.591466
20
61.978744
11
-91.810184
21
60.227898
0
LINE
8
Layer 1
10
-91.810184
20
60.227898
11
-90.726666
21
58.712644
0
LINE
8
Layer 1
10
-90.726666
20
58.712644
11
-89.357313
21
57.426414
0
LINE
8
Layer 1
10
-89.357313
20
57.426414
11
-87.718526
21
56.362641
0
LINE
8
Layer 1
10
-87.718526
20
56.362641
11
-85.826705
21
55.514760
0
LINE
8
Layer 1
10
-85.826705
20
55.514760
11
-83.698252
21
54.876203
0
LINE
8
Layer 1
10
-83.698252
20
54.876203
11
-81.349568
21
54.440403
0
LINE
8
Layer 1
10
-81.349568
20
54.440403
11
-78.797053
21
54.200794
0
LINE
8
Layer 1
10
-78.797053
20
54.200794
11
-76.057108
21
54.150810
0
LINE
8
Layer 1
10
-76.057108
20
54.150810
11
-73.146134
21
54.283882
0
LINE
8
Layer 1
10
-73.146134
20
54.283882
11
-70.080531
21
54.593445
0
LINE
8
Layer 1
10
-70.080531
20
54.593445
11
-63.551046
21
55.715776
0
LINE
8
Layer 1
10
-63.551046
20
55.715776
11
-58.521029
21
56.931420
0
LINE
8
Layer 1
10
-58.521029
20
56.931420
11
-53.318262
21
58.459722
0
LINE
8
Layer 1
10
-53.318262
20
58.459722
11
-47.993584
21
60.280351
0
LINE
8
Layer 1
10
-47.993584
20
60.280351
11
-42.597835
21
62.372974
0
LINE
8
Layer 1
10
-42.597835
20
62.372974
11
-37.181853
21
64.717259
0
LINE
8
Layer 1
10
-37.181853
20
64.717259
11
-31.796476
21
67.292874
0
LINE
8
Layer 1
10
-31.796476
20
67.292874
11
-26.492545
21
70.079486
0
LINE
8
Layer 1
10
-26.492545
20
70.079486
11
-21.320898
21
73.056763
0
LINE
8
Layer 1
10
-21.320898
20
73.056763
11
-16.332374
21
76.204374
0
LINE
8
Layer 1
10
-16.332374
20
76.204374
11
-11.577812
21
79.501985
0
LINE
8
Layer 1
10
-11.577812
20
79.501985
11
-7.108050
21
82.929265
0
LINE
8
Layer 1
10
-7.108050
20
82.929265
11
-2.973929
21
86.465881
0
LINE
8
Layer 1
10
-2.973929
20
86.465881
11
0.773714
21
90.091501
0
LINE
8
Layer 1
10
0.773714
20
90.091501
11
4.084038
21
93.785792
0
LINE
8
Layer 1
10
4.084038
20
93.785792
11
6.906206
21
97.528424
0
LINE
8
Layer 1
10
6.906206
20
97.528424
11
9.189378
21
101.299062
0
LINE
8
Layer 1
10
9.189378
20
101.299062
11
10.495429
21
104.849921
0
LINE
8
Layer 1
10
10.495429
20
104.849921
11
11.477061
21
108.782424
0
LINE
8
Layer 1
10
11.477061
20
108.782424
11
12.099571
21
112.950401
0
LINE
8
Layer 1
10
12.099571
20
112.950401
11
12.328254
21
117.207683
0
LINE
8
Layer 1
10
12.328254
20
117.207683
11
12.067068
21
121.954514
0
LINE
8
Layer 1
10
12.067068
20
121.954514
11
11.713804
21
124.232619
0
LINE
8
Layer 1
10
11.713804
20
124.232619
11
11.203554
21
126.411461
0
LINE
8
Layer 1
10
11.203554
20
126.411461
11
10.529913
21
128.464250
0
LINE
8
Layer 1
10
10.529913
20
128.464250
11
9.686478
21
130.364194
0
LINE
8
Layer 1
10
9.686478
20
130.364194
11
8.666843
21
132.084502
0
LINE
8
Layer 1
10
8.666843
20
132.084502
11
7.464605
21
133.598382
0
LINE
8
Layer 1
10
7.464605
20
133.598382
11
5.912494
21
134.784120
0
LINE
8
Layer 1
10
5.912494
20
134.784120
11
4.282513
21
135.788132
0
LINE
8
Layer 1
10
4.282513
20
135.788132
11
2.578792
21
136.616445
0
LINE
8
Layer 1
10
2.578792
20
136.616445
11
0.805462
21
137.275087
0
LINE
8
Layer 1
10
0.805462
20
137.275087
11
-1.033348
21
137.770084
0
LINE
8
Layer 1
10
-1.033348
20
137.770084
11
-2.933508
21
138.107462
0
LINE
8
Layer 1
10
-2.933508
20
138.107462
11
-4.890889
21
138.293250
0
LINE
8
Layer 1
10
-4.890889
20
138.293250
11
-6.901361
21
138.333473
0
LINE
8
Layer 1
10
-6.901361
20
138.333473
11
-6.901361
21
138.333473
0
LINE
8
Layer 1
10
220.736538
20
127.202795
11
223.389574
21
127.040725
0
LINE
8
Layer 1
10
223.389574
20
127.040725
11
226.330988
21
126.530919
0
LINE
8
Layer 1
10
226.330988
20
126.530919
11
229.550082
21
125.659393
0
LINE
8
Layer 1
10
229.550082
20
125.659393
11
233.036159
21
124.412160
0
LINE
8
Layer 1
10
233.036159
20
124.412160
11
236.778521
21
122.775239
0
LINE
8
Layer 1
10
236.778521
20
122.775239
11
240.766469
21
120.734644
0
LINE
8
Layer 1
10
240.766469
20
120.734644
11
244.989305
21
118.276390
0
LINE
8
Layer 1
10
244.989305
20
118.276390
11
249.436331
21
115.386495
0
LINE
8
Layer 1
10
249.436331
20
115.386495
11
253.159179
21
112.737092
0
LINE
8
Layer 1
10
253.159179
20
112.737092
11
256.728778
21
109.986302
0
LINE
8
Layer 1
10
256.728778
20
109.986302
11
260.123805
21
107.162372
0
LINE
8
Layer 1
10
260.123805
20
107.162372
11
263.322940
21
104.293553
0
LINE
8
Layer 1
10
263.322940
20
104.293553
11
266.304861
21
101.408091
0
LINE
8
Layer 1
10
266.304861
20
101.408091
11
269.048245
21
98.534236
0
LINE
8
Layer 1
10
269.048245
20
98.534236
11
271.531770
21
95.700236
0
LINE
8
Layer 1
10
271.531770
20
95.700236
11
273.734116
21
92.934340
0
LINE
8
Layer 1
10
273.734116
20
92.934340
11
275.633959
21
90.264797
0
LINE
8
Layer 1
10
275.633959
20
90.264797
11
277.209979
21
87.719854
0
LINE
8
Layer 1
10
277.209979
20
87.719854
11
278.440853
21
85.327761
0
LINE
8
Layer 1
10
278.440853
20
85.327761
11
279.305259
21
83.116766
0
LINE
8
Layer 1
10
279.305259
20
83.116766
11
279.781876
21
81.115117
0
LINE
8
Layer 1
10
279.781876
20
81.115117
11
279.849381
21
79.351063
0
LINE
8
Layer 1
10
279.849381
20
79.351063
11
279.486453
21
77.852853
0
LINE
8
Layer 1
10
279.486453
20
77.852853
11
278.671771
21
76.648735
0
LINE
8
Layer 1
10
278.671771
20
76.648735
11
277.614407
21
75.716431
0
LINE
8
Layer 1
10
277.614407
20
75.716431
11
276.443434
21
74.915570
0
LINE
8
Layer 1
10
276.443434
20
74.915570
11
275.164696
21
74.244365
0
LINE
8
Layer 1
10
275.164696
20
74.244365
11
273.784032
21
73.701030
0
LINE
8
Layer 1
10
273.784032
20
73.701030
11
270.740300
21
72.990827
0
LINE
8
Layer 1
10
270.740300
20
72.990827
11
267.358972
21
72.770674
0
LINE
8
Layer 1
10
267.358972
20
72.770674
11
263.306148
21
73.079252
0
LINE
8
Layer 1
10
263.306148
20
73.079252
11
258.966224
21
73.948989
0
LINE
8
Layer 1
10
258.966224
20
73.948989
11
254.402882
21
75.362259
0
LINE
8
Layer 1
10
254.402882
20
75.362259
11
249.679806
21
77.301442
0
LINE
8
Layer 1
10
249.679806
20
77.301442
11
244.860679
21
79.748915
0
LINE
8
Layer 1
10
244.860679
20
79.748915
11
240.009185
21
82.687053
0
LINE
8
Layer 1
10
240.009185
20
82.687053
11
235.189008
21
86.098236
0
LINE
8
Layer 1
10
235.189008
20
86.098236
11
230.463829
21
89.964840
0
LINE
8
Layer 1
10
230.463829
20
89.964840
11
225.809264
21
94.282286
0
LINE
8
Layer 1
10
225.809264
20
94.282286
11
221.828971
21
98.442183
0
LINE
8
Layer 1
10
221.828971
20
98.442183
11
218.504687
21
102.420173
0
LINE
8
Layer 1
10
218.504687
20
102.420173
11
215.818151
21
106.191895
0
LINE
8
Layer 1
10
215.818151
20
106.191895
11
213.751100
21
109.732990
0
LINE
8
Layer 1
10
213.751100
20
109.732990
11
212.285272
21
113.019097
0
LINE
8
Layer 1
10
212.285272
20
113.019097
11
211.402405
21
116.025858
0
LINE
8
Layer 1
10
211.402405
20
116.025858
11
211.084236
21
118.728912
0
LINE
8
Layer 1
10
211.084236
20
118.728912
11
211.216536
21
120.612805
0
LINE
8
Layer 1
10
211.216536
20
120.612805
11
211.673075
21
122.284664
0
LINE
8
Layer 1
10
211.673075
20
122.284664
11
212.445196
21
123.732697
0
LINE
8
Layer 1
10
212.445196
20
123.732697
11
213.524242
21
124.945115
0
LINE
8
Layer 1
10
213.524242
20
124.945115
11
214.901557
21
125.910124
0
LINE
8
Layer 1
10
214.901557
20
125.910124
11
216.568482
21
126.615935
0
LINE
8
Layer 1
10
216.568482
20
126.615935
11
218.516362
21
127.050756
0
LINE
8
Layer 1
10
218.516362
20
127.050756
11
220.736538
21
127.202795
0
LINE
8
Layer 1
10
220.736538
20
127.202795
11
220.736538
21
127.202795
0
LINE
8
Layer 1
10
-11.047242
20
127.020677
11
-8.824615
21
126.910805
0
LINE
8
Layer 1
10
-8.824615
20
126.910805
11
-6.864840
21
126.525001
0
LINE
8
Layer 1
10
-6.864840
20
126.525001
11
-5.176100
21
125.874600
0
LINE
8
Layer 1
10
-5.176100
20
125.874600
11
-3.766575
21
124.970934
0
LINE
8
Layer 1
10
-3.766575
20
124.970934
11
-2.644449
21
123.825337
0
LINE
8
Layer 1
10
-2.644449
20
123.825337
11
-1.817901
21
122.449143
0
LINE
8
Layer 1
10
-1.817901
20
122.449143
11
-1.295114
21
120.853685
0
LINE
8
Layer 1
10
-1.295114
20
120.853685
11
-1.084270
21
119.050298
0
LINE
8
Layer 1
10
-1.084270
20
119.050298
11
-1.084270
21
118.546791
0
LINE
8
Layer 1
10
-1.084270
20
118.546791
11
-1.402438
21
115.843278
0
LINE
8
Layer 1
10
-1.402438
20
115.843278
11
-2.285305
21
112.835308
0
LINE
8
Layer 1
10
-2.285305
20
112.835308
11
-3.751133
21
109.547491
0
LINE
8
Layer 1
10
-3.751133
20
109.547491
11
-5.818184
21
106.004435
0
LINE
8
Layer 1
10
-5.818184
20
106.004435
11
-8.504721
21
102.230750
0
LINE
8
Layer 1
10
-8.504721
20
102.230750
11
-11.829004
21
98.251044
0
LINE
8
Layer 1
10
-11.829004
20
98.251044
11
-15.809297
21
94.089927
0
LINE
8
Layer 1
10
-15.809297
20
94.089927
11
-20.463860
21
89.772009
0
LINE
8
Layer 1
10
-20.463860
20
89.772009
11
-23.888068
21
86.915620
0
LINE
8
Layer 1
10
-23.888068
20
86.915620
11
-27.371381
21
84.297750
0
LINE
8
Layer 1
10
-27.371381
20
84.297750
11
-30.889384
21
81.925139
0
LINE
8
Layer 1
10
-30.889384
20
81.925139
11
-34.417664
21
79.804526
0
LINE
8
Layer 1
10
-34.417664
20
79.804526
11
-37.931806
21
77.942653
0
LINE
8
Layer 1
10
-37.931806
20
77.942653
11
-41.407395
21
76.346260
0
LINE
8
Layer 1
10
-41.407395
20
76.346260
11
-44.820019
21
75.022088
0
LINE
8
Layer 1
10
-44.820019
20
75.022088
11
-48.145262
21
73.976876
0
LINE
8
Layer 1
10
-48.145262
20
73.976876
11
-51.358710
21
73.217365
0
LINE
8
Layer 1
10
-51.358710
20
73.217365
11
-54.435949
21
72.750296
0
LINE
8
Layer 1
10
-54.435949
20
72.750296
11
-57.352566
21
72.582409
0
LINE
8
Layer 1
10
-57.352566
20
72.582409
11
-60.084144
21
72.720444
0
LINE
8
Layer 1
10
-60.084144
20
72.720444
11
-62.606272
21
73.171142
0
LINE
8
Layer 1
10
-62.606272
20
73.171142
11
-64.894533
21
73.941243
0
LINE
8
Layer 1
10
-64.894533
20
73.941243
11
-66.924514
21
75.037488
0
LINE
8
Layer 1
10
-66.924514
20
75.037488
11
-68.671801
21
76.466617
0
LINE
8
Layer 1
10
-68.671801
20
76.466617
11
-69.486473
21
77.670729
0
LINE
8
Layer 1
10
-69.486473
20
77.670729
11
-69.849393
21
79.168934
0
LINE
8
Layer 1
10
-69.849393
20
79.168934
11
-69.781882
21
80.932985
0
LINE
8
Layer 1
10
-69.781882
20
80.932985
11
-69.305262
21
82.934632
0
LINE
8
Layer 1
10
-69.305262
20
82.934632
11
-68.440854
21
85.145627
0
LINE
8
Layer 1
10
-68.440854
20
85.145627
11
-67.209980
21
87.537721
0
LINE
8
Layer 1
10
-67.209980
20
87.537721
11
-65.633962
21
90.082664
0
LINE
8
Layer 1
10
-65.633962
20
90.082664
11
-63.734121
21
92.752209
0
LINE
8
Layer 1
10
-63.734121
20
92.752209
11
-61.531779
21
95.518107
0
LINE
8
Layer 1
10
-61.531779
20
95.518107
11
-59.048258
21
98.352109
0
LINE
8
Layer 1
10
-59.048258
20
98.352109
11
-56.304878
21
101.225966
0
LINE
8
Layer 1
10
-56.304878
20
101.225966
11
-53.322962
21
104.111429
0
LINE
8
Layer 1
10
-53.322962
20
104.111429
11
-50.123831
21
106.980251
0
LINE
8
Layer 1
10
-50.123831
20
106.980251
11
-46.728807
21
109.804181
0
LINE
8
Layer 1
10
-46.728807
20
109.804181
11
-43.159211
21
112.554972
0
LINE
8
Layer 1
10
-43.159211
20
112.554972
11
-39.436365
21
115.204374
0
LINE
8
Layer 1
10
-39.436365
20
115.204374
11
-35.056939
21
118.052565
0
LINE
8
Layer 1
10
-35.056939
20
118.052565
11
-30.894277
21
120.482446
0
LINE
8
Layer 1
10
-30.894277
20
120.482446
11
-26.958681
21
122.507293
0
LINE
8
Layer 1
10
-26.958681
20
122.507293
11
-23.260451
21
124.140381
0
LINE
8
Layer 1
10
-23.260451
20
124.140381
11
-19.809890
21
125.394988
0
LINE
8
Layer 1
10
-19.809890
20
125.394988
11
-16.617301
21
126.284388
0
LINE
8
Layer 1
10
-16.617301
20
126.284388
11
-13.692984
21
126.821859
0
LINE
8
Layer 1
10
-13.692984
20
126.821859
11
-11.047242
21
127.020677
0
LINE
8
Layer 1
10
-11.047242
20
127.020677
11
-11.047242
21
127.020677
0
LINE
8
Layer 1
10
105.005341
20
120.475111
11
104.737518
21
120.410832
0
LINE
8
Layer 1
10
104.737518
20
120.410832
11
101.888092
21
118.656379
0
LINE
8
Layer 1
10
101.888092
20
118.656379
11
98.716042
21
116.461111
0
LINE
8
Layer 1
10
98.716042
20
116.461111
11
97.225482
21
115.224928
0
LINE
8
Layer 1
10
97.225482
20
115.224928
11
95.914006
21
113.910652
0
LINE
8
Layer 1
10
95.914006
20
113.910652
11
94.868193
21
112.528984
0
LINE
8
Layer 1
10
94.868193
20
112.528984
11
94.174623
21
111.090629
0
LINE
8
Layer 1
10
94.174623
20
111.090629
11
92.891212
21
106.682982
0
LINE
8
Layer 1
10
92.891212
20
106.682982
11
91.752188
21
102.171978
0
LINE
8
Layer 1
10
91.752188
20
102.171978
11
90.552226
21
97.832471
0
LINE
8
Layer 1
10
90.552226
20
97.832471
11
89.086007
21
93.939316
0
LINE
8
Layer 1
10
89.086007
20
93.939316
11
87.305783
21
91.003629
0
LINE
8
Layer 1
10
87.305783
20
91.003629
11
85.686043
21
88.001030
0
LINE
8
Layer 1
10
85.686043
20
88.001030
11
84.233143
21
84.945524
0
LINE
8
Layer 1
10
84.233143
20
84.945524
11
82.953436
21
81.851115
0
LINE
8
Layer 1
10
82.953436
20
81.851115
11
81.853275
21
78.731806
0
LINE
8
Layer 1
10
81.853275
20
78.731806
11
80.939016
21
75.601603
0
LINE
8
Layer 1
10
80.939016
20
75.601603
11
80.217013
21
72.474509
0
LINE
8
Layer 1
10
80.217013
20
72.474509
11
79.693619
21
69.364528
0
LINE
8
Layer 1
10
79.693619
20
69.364528
11
79.375188
21
66.285664
0
LINE
8
Layer 1
10
79.375188
20
66.285664
11
79.268075
21
63.251921
0
LINE
8
Layer 1
10
79.268075
20
63.251921
11
79.378634
21
60.277303
0
LINE
8
Layer 1
10
79.378634
20
60.277303
11
79.713219
21
57.375815
0
LINE
8
Layer 1
10
79.713219
20
57.375815
11
80.278183
21
54.561461
0
LINE
8
Layer 1
10
80.278183
20
54.561461
11
81.079882
21
51.848244
0
LINE
8
Layer 1
10
81.079882
20
51.848244
11
82.124668
21
49.250168
0
LINE
8
Layer 1
10
82.124668
20
49.250168
11
83.418897
21
46.781239
0
LINE
8
Layer 1
10
83.418897
20
46.781239
11
84.948815
21
44.483129
0
LINE
8
Layer 1
10
84.948815
20
44.483129
11
86.734873
21
42.338772
0
LINE
8
Layer 1
10
86.734873
20
42.338772
11
88.783009
21
40.361421
0
LINE
8
Layer 1
10
88.783009
20
40.361421
11
91.099162
21
38.564333
0
LINE
8
Layer 1
10
91.099162
20
38.564333
11
93.689272
21
36.960763
0
LINE
8
Layer 1
10
93.689272
20
36.960763
11
96.559277
21
35.563965
0
LINE
8
Layer 1
10
96.559277
20
35.563965
11
99.715115
21
34.387195
0
LINE
8
Layer 1
10
99.715115
20
34.387195
11
103.162727
21
33.443707
0
LINE
8
Layer 1
10
103.162727
20
33.443707
11
104.968511
21
33.161402
0
LINE
8
Layer 1
10
104.968511
20
33.161402
11
106.815817
21
33.443707
0
LINE
8
Layer 1
10
106.815817
20
33.443707
11
110.263428
21
34.387195
0
LINE
8
Layer 1
10
110.263428
20
34.387195
11
113.419270
21
35.563965
0
LINE
8
Layer 1
10
113.419270
20
35.563965
11
116.289279
21
36.960764
0
LINE
8
Layer 1
10
116.289279
20
36.960764
11
118.879392
21
38.564334
0
LINE
8
Layer 1
10
118.879392
20
38.564334
11
121.195549
21
40.361423
0
LINE
8
Layer 1
10
121.195549
20
40.361423
11
123.243685
21
42.338773
0
LINE
8
Layer 1
10
123.243685
20
42.338773
11
125.029738
21
44.483130
0
LINE
8
Layer 1
10
125.029738
20
44.483130
11
126.559646
21
46.781239
0
LINE
8
Layer 1
10
126.559646
20
46.781239
11
127.853881
21
49.250168
0
LINE
8
Layer 1
10
127.853881
20
49.250168
11
128.898672
21
51.848243
0
LINE
8
Layer 1
10
128.898672
20
51.848243
11
129.700373
21
54.561460
0
LINE
8
Layer 1
10
129.700373
20
54.561460
11
130.265340
21
57.375814
0
LINE
8
Layer 1
10
130.265340
20
57.375814
11
130.599925
21
60.277302
0
LINE
8
Layer 1
10
130.599925
20
60.277302
11
130.710483
21
63.251920
0
LINE
8
Layer 1
10
130.710483
20
63.251920
11
130.603369
21
66.285662
0
LINE
8
Layer 1
10
130.603369
20
66.285662
11
130.284937
21
69.364527
0
LINE
8
Layer 1
10
130.284937
20
69.364527
11
129.761541
21
72.474508
0
LINE
8
Layer 1
10
129.761541
20
72.474508
11
129.039535
21
75.601602
0
LINE
8
Layer 1
10
129.039535
20
75.601602
11
128.125274
21
78.731806
0
LINE
8
Layer 1
10
128.125274
20
78.731806
11
127.025112
21
81.851114
0
LINE
8
Layer 1
10
127.025112
20
81.851114
11
125.745402
21
84.945524
0
LINE
8
Layer 1
10
125.745402
20
84.945524
11
124.292500
21
88.001030
0
LINE
8
Layer 1
10
124.292500
20
88.001030
11
122.672760
21
91.003629
0
LINE
8
Layer 1
10
122.672760
20
91.003629
11
120.892536
21
93.939316
0
LINE
8
Layer 1
10
120.892536
20
93.939316
11
119.424638
21
97.832471
0
LINE
8
Layer 1
10
119.424638
20
97.832471
11
118.220985
21
102.171978
0
LINE
8
Layer 1
10
118.220985
20
102.171978
11
117.078276
21
106.682982
0
LINE
8
Layer 1
10
117.078276
20
106.682982
11
115.793207
21
111.090629
0
LINE
8
Layer 1
10
115.793207
20
111.090629
11
115.100100
21
112.528984
0
LINE
8
Layer 1
10
115.100100
20
112.528984
11
114.055505
21
113.910652
0
LINE
8
Layer 1
10
114.055505
20
113.910652
11
112.745750
21
115.224928
0
LINE
8
Layer 1
10
112.745750
20
115.224928
11
111.257162
21
116.461111
0
LINE
8
Layer 1
10
111.257162
20
116.461111
11
108.088795
21
118.656379
0
LINE
8
Layer 1
10
108.088795
20
118.656379
11
105.241025
21
120.410832
0
LINE
8
Layer 1
10
105.241025
20
120.410832
11
105.005341
21
120.475111
0
LINE
8
Layer 1
10
105.005341
20
120.475111
11
105.005341
21
120.475111
0
LINE
8
Layer 1
10
185.534029
20
119.639505
11
184.042734
21
119.456319
0
LINE
8
Layer 1
10
184.042734
20
119.456319
11
182.414132
21
118.930232
0
LINE
8
Layer 1
10
182.414132
20
118.930232
11
180.680445
21
118.096456
0
LINE
8
Layer 1
10
180.680445
20
118.096456
11
178.873894
21
116.990200
0
LINE
8
Layer 1
10
178.873894
20
116.990200
11
177.026700
21
115.646676
0
LINE
8
Layer 1
10
177.026700
20
115.646676
11
175.171085
21
114.101094
0
LINE
8
Layer 1
10
175.171085
20
114.101094
11
171.563480
21
110.544599
0
LINE
8
Layer 1
10
171.563480
20
110.544599
11
168.308849
21
106.602400
0
LINE
8
Layer 1
10
168.308849
20
106.602400
11
166.894454
21
104.574687
0
LINE
8
Layer 1
10
166.894454
20
104.574687
11
165.664967
21
102.556181
0
LINE
8
Layer 1
10
165.664967
20
102.556181
11
164.652610
21
100.582091
0
LINE
8
Layer 1
10
164.652610
20
100.582091
11
163.889604
21
98.687628
0
LINE
8
Layer 1
10
163.889604
20
98.687628
11
163.408172
21
96.908003
0
LINE
8
Layer 1
10
163.408172
20
96.908003
11
163.240534
21
95.278427
0
LINE
8
Layer 1
10
163.240534
20
95.278427
11
163.408361
21
93.703304
0
LINE
8
Layer 1
10
163.408361
20
93.703304
11
163.889307
21
91.965404
0
LINE
8
Layer 1
10
163.889307
20
91.965404
11
164.649564
21
90.121868
0
LINE
8
Layer 1
10
164.649564
20
90.121868
11
165.655328
21
88.229836
0
LINE
8
Layer 1
10
165.655328
20
88.229836
11
166.872791
21
86.346448
0
LINE
8
Layer 1
10
166.872791
20
86.346448
11
168.268146
21
84.528844
0
LINE
8
Layer 1
10
168.268146
20
84.528844
11
169.807588
21
82.834165
0
LINE
8
Layer 1
10
169.807588
20
82.834165
11
171.457310
21
81.319549
0
LINE
8
Layer 1
10
171.457310
20
81.319549
11
173.331104
21
79.834099
0
LINE
8
Layer 1
10
173.331104
20
79.834099
11
174.905108
21
78.764435
0
LINE
8
Layer 1
10
174.905108
20
78.764435
11
176.204129
21
78.131367
0
LINE
8
Layer 1
10
176.204129
20
78.131367
11
177.252974
21
77.955706
0
LINE
8
Layer 1
10
177.252974
20
77.955706
11
177.913168
21
78.150105
0
LINE
8
Layer 1
10
177.913168
20
78.150105
11
178.447492
21
78.646477
0
LINE
8
Layer 1
10
178.447492
20
78.646477
11
178.867611
21
79.455069
0
LINE
8
Layer 1
10
178.867611
20
79.455069
11
179.185189
21
80.586130
0
LINE
8
Layer 1
10
179.185189
20
80.586130
11
179.559378
21
83.856652
0
LINE
8
Layer 1
10
179.559378
20
83.856652
11
179.663372
21
88.540027
0
LINE
8
Layer 1
10
179.663372
20
88.540027
11
179.775105
21
91.427632
0
LINE
8
Layer 1
10
179.775105
20
91.427632
11
180.095332
21
94.254445
0
LINE
8
Layer 1
10
180.095332
20
94.254445
11
180.601601
21
96.949211
0
LINE
8
Layer 1
10
180.601601
20
96.949211
11
181.271456
21
99.440677
0
LINE
8
Layer 1
10
181.271456
20
99.440677
11
182.082443
21
101.657588
0
LINE
8
Layer 1
10
182.082443
20
101.657588
11
183.012107
21
103.528690
0
LINE
8
Layer 1
10
183.012107
20
103.528690
11
184.037995
21
104.982729
0
LINE
8
Layer 1
10
184.037995
20
104.982729
11
185.137651
21
105.948450
0
LINE
8
Layer 1
10
185.137651
20
105.948450
11
186.352288
21
106.804176
0
LINE
8
Layer 1
10
186.352288
20
106.804176
11
187.411200
21
107.759724
0
LINE
8
Layer 1
10
187.411200
20
107.759724
11
188.313760
21
108.793702
0
LINE
8
Layer 1
10
188.313760
20
108.793702
11
189.059342
21
109.884719
0
LINE
8
Layer 1
10
189.059342
20
109.884719
11
189.647319
21
111.011383
0
LINE
8
Layer 1
10
189.647319
20
111.011383
11
190.077065
21
112.152303
0
LINE
8
Layer 1
10
190.077065
20
112.152303
11
190.347954
21
113.286089
0
LINE
8
Layer 1
10
190.347954
20
113.286089
11
190.459360
21
114.391347
0
LINE
8
Layer 1
10
190.459360
20
114.391347
11
190.410655
21
115.446688
0
LINE
8
Layer 1
10
190.410655
20
115.446688
11
190.201214
21
116.430720
0
LINE
8
Layer 1
10
190.201214
20
116.430720
11
189.830411
21
117.322052
0
LINE
8
Layer 1
10
189.830411
20
117.322052
11
189.297618
21
118.099291
0
LINE
8
Layer 1
10
189.297618
20
118.099291
11
188.602210
21
118.741048
0
LINE
8
Layer 1
10
188.602210
20
118.741048
11
187.743560
21
119.225930
0
LINE
8
Layer 1
10
187.743560
20
119.225930
11
186.721042
21
119.532546
0
LINE
8
Layer 1
10
186.721042
20
119.532546
11
185.534029
21
119.639505
0
LINE
8
Layer 1
10
185.534029
20
119.639505
11
185.534029
21
119.639505
0
LINE
8
Layer 1
10
24.465940
20
119.457387
11
23.278927
21
119.350425
0
LINE
8
Layer 1
10
23.278927
20
119.350425
11
22.256408
21
119.043806
0
LINE
8
Layer 1
10
22.256408
20
119.043806
11
21.397758
21
118.558921
0
LINE
8
Layer 1
10
21.397758
20
118.558921
11
20.702350
21
117.917161
0
LINE
8
Layer 1
10
20.702350
20
117.917161
11
20.169557
21
117.139918
0
LINE
8
Layer 1
10
20.169557
20
117.139918
11
19.798753
21
116.248584
0
LINE
8
Layer 1
10
19.798753
20
116.248584
11
19.589312
21
115.264549
0
LINE
8
Layer 1
10
19.589312
20
115.264549
11
19.540607
21
114.209206
0
LINE
8
Layer 1
10
19.540607
20
114.209206
11
19.652013
21
113.103946
0
LINE
8
Layer 1
10
19.652013
20
113.103946
11
19.922902
21
111.970160
0
LINE
8
Layer 1
10
19.922902
20
111.970160
11
20.352649
21
110.829240
0
LINE
8
Layer 1
10
20.352649
20
110.829240
11
20.940626
21
109.702578
0
LINE
8
Layer 1
10
20.940626
20
109.702578
11
21.686208
21
108.611564
0
LINE
8
Layer 1
10
21.686208
20
108.611564
11
22.588769
21
107.577591
0
LINE
8
Layer 1
10
22.588769
20
107.577591
11
23.647681
21
106.622050
0
LINE
8
Layer 1
10
23.647681
20
106.622050
11
24.862318
21
105.766332
0
LINE
8
Layer 1
10
24.862318
20
105.766332
11
25.961975
21
104.800613
0
LINE
8
Layer 1
10
25.961975
20
104.800613
11
26.987863
21
103.346572
0
LINE
8
Layer 1
10
26.987863
20
103.346572
11
27.917527
21
101.475465
0
LINE
8
Layer 1
10
27.917527
20
101.475465
11
28.728514
21
99.258549
0
LINE
8
Layer 1
10
28.728514
20
99.258549
11
29.398369
21
96.767079
0
LINE
8
Layer 1
10
29.398369
20
96.767079
11
29.904637
21
94.072312
0
LINE
8
Layer 1
10
29.904637
20
94.072312
11
30.224865
21
91.245503
0
LINE
8
Layer 1
10
30.224865
20
91.245503
11
30.336597
21
88.357909
0
LINE
8
Layer 1
10
30.336597
20
88.357909
11
30.404715
21
84.408481
0
LINE
8
Layer 1
10
30.404715
20
84.408481
11
30.643434
21
81.419802
0
LINE
8
Layer 1
10
30.643434
20
81.419802
11
31.104258
21
79.346765
0
LINE
8
Layer 1
10
31.104258
20
79.346765
11
31.434056
21
78.639517
0
LINE
8
Layer 1
10
31.434056
20
78.639517
11
31.838694
21
78.144263
0
LINE
8
Layer 1
10
31.838694
20
78.144263
11
32.324612
21
77.855365
0
LINE
8
Layer 1
10
32.324612
20
77.855365
11
32.898247
21
77.767186
0
LINE
8
Layer 1
10
32.898247
20
77.767186
11
33.566037
21
77.874086
0
LINE
8
Layer 1
10
33.566037
20
77.874086
11
34.334422
21
78.170427
0
LINE
8
Layer 1
10
34.334422
20
78.170427
11
36.198724
21
79.308878
0
LINE
8
Layer 1
10
36.198724
20
79.308878
11
38.542660
21
81.137431
0
LINE
8
Layer 1
10
38.542660
20
81.137431
11
40.192381
21
82.652061
0
LINE
8
Layer 1
10
40.192381
20
82.652061
11
41.731822
21
84.346747
0
LINE
8
Layer 1
10
41.731822
20
84.346747
11
43.127177
21
86.164352
0
LINE
8
Layer 1
10
43.127177
20
86.164352
11
44.344639
21
88.047736
0
LINE
8
Layer 1
10
44.344639
20
88.047736
11
45.350403
21
89.939763
0
LINE
8
Layer 1
10
45.350403
20
89.939763
11
46.110661
21
91.783292
0
LINE
8
Layer 1
10
46.110661
20
91.783292
11
46.591608
21
93.521187
0
LINE
8
Layer 1
10
46.591608
20
93.521187
11
46.759436
21
95.096309
0
LINE
8
Layer 1
10
46.759436
20
95.096309
11
46.591798
21
96.725883
0
LINE
8
Layer 1
10
46.591798
20
96.725883
11
46.110365
21
98.505507
0
LINE
8
Layer 1
10
46.110365
20
98.505507
11
45.347359
21
100.399968
0
LINE
8
Layer 1
10
45.347359
20
100.399968
11
44.335001
21
102.374057
0
LINE
8
Layer 1
10
44.335001
20
102.374057
11
43.105513
21
104.392563
0
LINE
8
Layer 1
10
43.105513
20
104.392563
11
41.691116
21
106.420275
0
LINE
8
Layer 1
10
41.691116
20
106.420275
11
38.436484
21
110.362475
0
LINE
8
Layer 1
10
38.436484
20
110.362475
11
34.828878
21
113.918971
0
LINE
8
Layer 1
10
34.828878
20
113.918971
11
32.973263
21
115.464553
0
LINE
8
Layer 1
10
32.973263
20
115.464553
11
31.126070
21
116.808078
0
LINE
8
Layer 1
10
31.126070
20
116.808078
11
29.319519
21
117.914335
0
LINE
8
Layer 1
10
29.319519
20
117.914335
11
27.585833
21
118.748112
0
LINE
8
Layer 1
10
27.585833
20
118.748112
11
25.957233
21
119.274200
0
LINE
8
Layer 1
10
25.957233
20
119.274200
11
24.465940
21
119.457387
0
LINE
8
Layer 1
10
24.465940
20
119.457387
11
24.465940
21
119.457387
0
LINE
8
Layer 1
10
104.983915
20
81.855193
11
106.259768
21
81.619155
0
LINE
8
Layer 1
10
106.259768
20
81.619155
11
107.579301
21
80.996134
0
LINE
8
Layer 1
10
107.579301
20
80.996134
11
108.918510
21
80.024379
0
LINE
8
Layer 1
10
108.918510
20
80.024379
11
110.253391
21
78.742136
0
LINE
8
Layer 1
10
110.253391
20
78.742136
11
111.559938
21
77.187652
0
LINE
8
Layer 1
10
111.559938
20
77.187652
11
112.814147
21
75.399173
0
LINE
8
Layer 1
10
112.814147
20
75.399173
11
113.992013
21
73.414946
0
LINE
8
Layer 1
10
113.992013
20
73.414946
11
115.069531
21
71.273218
0
LINE
8
Layer 1
10
115.069531
20
71.273218
11
116.022697
21
69.012237
0
LINE
8
Layer 1
10
116.022697
20
69.012237
11
116.827506
21
66.670248
0
LINE
8
Layer 1
10
116.827506
20
66.670248
11
117.459953
21
64.285498
0
LINE
8
Layer 1
10
117.459953
20
64.285498
11
117.896033
21
61.896236
0
LINE
8
Layer 1
10
117.896033
20
61.896236
11
118.111742
21
59.540706
0
LINE
8
Layer 1
10
118.111742
20
59.540706
11
118.083075
21
57.257156
0
LINE
8
Layer 1
10
118.083075
20
57.257156
11
117.786027
21
55.083833
0
LINE
8
Layer 1
10
117.786027
20
55.083833
11
117.196593
21
53.058984
0
LINE
8
Layer 1
10
117.196593
20
53.058984
11
116.244800
21
51.191889
0
LINE
8
Layer 1
10
116.244800
20
51.191889
11
114.964672
21
49.552959
0
LINE
8
Layer 1
10
114.964672
20
49.552959
11
113.438266
21
48.141989
0
LINE
8
Layer 1
10
113.438266
20
48.141989
11
111.747633
21
46.958775
0
LINE
8
Layer 1
10
111.747633
20
46.958775
11
109.974828
21
46.003113
0
LINE
8
Layer 1
10
109.974828
20
46.003113
11
108.201904
21
45.274799
0
LINE
8
Layer 1
10
108.201904
20
45.274799
11
106.510915
21
44.773628
0
LINE
8
Layer 1
10
106.510915
20
44.773628
11
104.983915
21
44.499396
0
LINE
8
Layer 1
10
104.983915
20
44.499396
11
103.457407
21
44.773529
0
LINE
8
Layer 1
10
103.457407
20
44.773529
11
101.767661
21
45.274624
0
LINE
8
Layer 1
10
101.767661
20
45.274624
11
99.996475
21
46.002888
0
LINE
8
Layer 1
10
99.996475
20
46.002888
11
98.225649
21
46.958528
0
LINE
8
Layer 1
10
98.225649
20
46.958528
11
96.536984
21
48.141750
0
LINE
8
Layer 1
10
96.536984
20
48.141750
11
95.012279
21
49.552762
0
LINE
8
Layer 1
10
95.012279
20
49.552762
11
93.733335
21
51.191771
0
LINE
8
Layer 1
10
93.733335
20
51.191771
11
92.781950
21
53.058984
0
LINE
8
Layer 1
10
92.781950
20
53.058984
11
92.192403
21
55.083833
0
LINE
8
Layer 1
10
92.192403
20
55.083833
11
91.895020
21
57.257157
0
LINE
8
Layer 1
10
91.895020
20
57.257157
11
91.865828
21
59.540707
0
LINE
8
Layer 1
10
91.865828
20
59.540707
11
92.080854
21
61.896237
0
LINE
8
Layer 1
10
92.080854
20
61.896237
11
92.516125
21
64.285500
0
LINE
8
Layer 1
10
92.516125
20
64.285500
11
93.147667
21
66.670250
0
LINE
8
Layer 1
10
93.147667
20
66.670250
11
93.951507
21
69.012239
0
LINE
8
Layer 1
10
93.951507
20
69.012239
11
94.903672
21
71.273222
0
LINE
8
Layer 1
10
94.903672
20
71.273222
11
95.980189
21
73.414949
0
LINE
8
Layer 1
10
95.980189
20
73.414949
11
97.157085
21
75.399176
0
LINE
8
Layer 1
10
97.157085
20
75.399176
11
98.410386
21
77.187655
0
LINE
8
Layer 1
10
98.410386
20
77.187655
11
99.716120
21
78.742140
0
LINE
8
Layer 1
10
99.716120
20
78.742140
11
101.050313
21
80.024383
0
LINE
8
Layer 1
10
101.050313
20
80.024383
11
102.388992
21
80.996137
0
LINE
8
Layer 1
10
102.388992
20
80.996137
11
103.708184
21
81.619156
0
LINE
8
Layer 1
10
103.708184
20
81.619156
11
104.983915
21
81.855193
0
LINE
8
Layer 1
10
104.983915
20
81.855193
11
104.983915
21
81.855193
0
LINE
8
Layer 1
10
51.676644
20
64.575324
11
50.101512
21
64.407495
0
LINE
8
Layer 1
10
50.101512
20
64.407495
11
48.363615
21
63.926548
0
LINE
8
Layer 1
10
48.363615
20
63.926548
11
46.520089
21
63.166289
0
LINE
8
Layer 1
10
46.520089
20
63.166289
11
44.628069
21
62.160526
0
LINE
8
Layer 1
10
44.628069
20
62.160526
11
42.744692
21
60.943064
0
LINE
8
Layer 1
10
42.744692
20
60.943064
11
40.927092
21
59.547710
0
LINE
8
Layer 1
10
40.927092
20
59.547710
11
39.232406
21
58.008269
0
LINE
8
Layer 1
10
39.232406
20
58.008269
11
37.717770
21
56.358549
0
LINE
8
Layer 1
10
37.717770
20
56.358549
11
35.889217
21
54.014613
0
LINE
8
Layer 1
10
35.889217
20
54.014613
11
34.750766
21
52.150313
0
LINE
8
Layer 1
10
34.750766
20
52.150313
11
34.454425
21
51.381931
0
LINE
8
Layer 1
10
34.454425
20
51.381931
11
34.347525
21
50.714143
0
LINE
8
Layer 1
10
34.347525
20
50.714143
11
34.435704
21
50.140510
0
LINE
8
Layer 1
10
34.435704
20
50.140510
11
34.724601
21
49.654594
0
LINE
8
Layer 1
10
34.724601
20
49.654594
11
35.219855
21
49.249958
0
LINE
8
Layer 1
10
35.219855
20
49.249958
11
35.927103
21
48.920162
0
LINE
8
Layer 1
10
35.927103
20
48.920162
11
38.000140
21
48.459337
0
LINE
8
Layer 1
10
38.000140
20
48.459337
11
40.988818
21
48.220614
0
LINE
8
Layer 1
10
40.988818
20
48.220614
11
44.938247
21
48.152486
0
LINE
8
Layer 1
10
44.938247
20
48.152486
11
47.825841
21
48.040752
0
LINE
8
Layer 1
10
47.825841
20
48.040752
11
50.652648
21
47.720524
0
LINE
8
Layer 1
10
50.652648
20
47.720524
11
53.347414
21
47.214255
0
LINE
8
Layer 1
10
53.347414
20
47.214255
11
55.838883
21
46.544401
0
LINE
8
Layer 1
10
55.838883
20
46.544401
11
58.055798
21
45.733415
0
LINE
8
Layer 1
10
58.055798
20
45.733415
11
59.926905
21
44.803751
0
LINE
8
Layer 1
10
59.926905
20
44.803751
11
61.380948
21
43.777864
0
LINE
8
Layer 1
10
61.380948
20
43.777864
11
62.346671
21
42.678207
0
LINE
8
Layer 1
10
62.346671
20
42.678207
11
63.202389
21
41.463566
0
LINE
8
Layer 1
10
63.202389
20
41.463566
11
64.157931
21
40.404650
0
LINE
8
Layer 1
10
64.157931
20
40.404650
11
65.191905
21
39.502086
0
LINE
8
Layer 1
10
65.191905
20
39.502086
11
66.282919
21
38.756500
0
LINE
8
Layer 1
10
66.282919
20
38.756500
11
67.409582
21
38.168520
0
LINE
8
Layer 1
10
67.409582
20
38.168520
11
68.550503
21
37.738771
0
LINE
8
Layer 1
10
68.550503
20
37.738771
11
69.684289
21
37.467881
0
LINE
8
Layer 1
10
69.684289
20
37.467881
11
70.789550
21
37.356474
0
LINE
8
Layer 1
10
70.789550
20
37.356474
11
71.844893
21
37.405178
0
LINE
8
Layer 1
10
71.844893
20
37.405178
11
72.828928
21
37.614620
0
LINE
8
Layer 1
10
72.828928
20
37.614620
11
73.720262
21
37.985425
0
LINE
8
Layer 1
10
73.720262
20
37.985425
11
74.497505
21
38.518220
0
LINE
8
Layer 1
10
74.497505
20
38.518220
11
75.139264
21
39.213632
0
LINE
8
Layer 1
10
75.139264
20
39.213632
11
75.624148
21
40.072286
0
LINE
8
Layer 1
10
75.624148
20
40.072286
11
75.930766
21
41.094810
0
LINE
8
Layer 1
10
75.930766
20
41.094810
11
76.037725
21
42.281829
0
LINE
8
Layer 1
10
76.037725
20
42.281829
11
75.854539
21
43.773122
0
LINE
8
Layer 1
10
75.854539
20
43.773122
11
75.328452
21
45.401723
0
LINE
8
Layer 1
10
75.328452
20
45.401723
11
74.494676
21
47.135409
0
LINE
8
Layer 1
10
74.494676
20
47.135409
11
73.388420
21
48.941960
0
LINE
8
Layer 1
10
73.388420
20
48.941960
11
72.044896
21
50.789153
0
LINE
8
Layer 1
10
72.044896
20
50.789153
11
70.499314
21
52.644768
0
LINE
8
Layer 1
10
70.499314
20
52.644768
11
66.942818
21
56.252374
0
LINE
8
Layer 1
10
66.942818
20
56.252374
11
63.000618
21
59.507006
0
LINE
8
Layer 1
10
63.000618
20
59.507006
11
60.972906
21
60.921402
0
LINE
8
Layer 1
10
60.972906
20
60.921402
11
58.954399
21
62.150890
0
LINE
8
Layer 1
10
58.954399
20
62.150890
11
56.980309
21
63.163248
0
LINE
8
Layer 1
10
56.980309
20
63.163248
11
55.085846
21
63.926254
0
LINE
8
Layer 1
10
55.085846
20
63.926254
11
53.306221
21
64.407686
0
LINE
8
Layer 1
10
53.306221
20
64.407686
11
51.676644
21
64.575324
0
LINE
8
Layer 1
10
51.676644
20
64.575324
11
51.676644
21
64.575324
0
LINE
8
Layer 1
10
158.301899
20
64.575324
11
156.672324
21
64.407686
0
LINE
8
Layer 1
10
156.672324
20
64.407686
11
154.892701
21
63.926252
0
LINE
8
Layer 1
10
154.892701
20
63.926252
11
152.998239
21
63.163245
0
LINE
8
Layer 1
10
152.998239
20
63.163245
11
151.024150
21
62.150887
0
LINE
8
Layer 1
10
151.024150
20
62.150887
11
149.005644
21
60.921399
0
LINE
8
Layer 1
10
149.005644
20
60.921399
11
146.977932
21
59.507003
0
LINE
8
Layer 1
10
146.977932
20
59.507003
11
143.035732
21
56.252372
0
LINE
8
Layer 1
10
143.035732
20
56.252372
11
139.479235
21
52.644766
0
LINE
8
Layer 1
10
139.479235
20
52.644766
11
137.933652
21
50.789152
0
LINE
8
Layer 1
10
137.933652
20
50.789152
11
136.590127
21
48.941959
0
LINE
8
Layer 1
10
136.590127
20
48.941959
11
135.483870
21
47.135409
0
LINE
8
Layer 1
10
135.483870
20
47.135409
11
134.650093
21
45.401722
0
LINE
8
Layer 1
10
134.650093
20
45.401722
11
134.124005
21
43.773122
0
LINE
8
Layer 1
10
134.124005
20
43.773122
11
133.940818
21
42.281829
0
LINE
8
Layer 1
10
133.940818
20
42.281829
11
134.047777
21
41.094810
0
LINE
8
Layer 1
10
134.047777
20
41.094810
11
134.354393
21
40.072286
0
LINE
8
Layer 1
10
134.354393
20
40.072286
11
134.839276
21
39.213632
0
LINE
8
Layer 1
10
134.839276
20
39.213632
11
135.481032
21
38.518221
0
LINE
8
Layer 1
10
135.481032
20
38.518221
11
136.258272
21
37.985427
0
LINE
8
Layer 1
10
136.258272
20
37.985427
11
137.149604
21
37.614622
0
LINE
8
Layer 1
10
137.149604
20
37.614622
11
138.133636
21
37.405181
0
LINE
8
Layer 1
10
138.133636
20
37.405181
11
139.188977
21
37.356477
0
LINE
8
Layer 1
10
139.188977
20
37.356477
11
140.294236
21
37.467884
0
LINE
8
Layer 1
10
140.294236
20
37.467884
11
141.428022
21
37.738775
0
LINE
8
Layer 1
10
141.428022
20
37.738775
11
142.568942
21
38.168524
0
LINE
8
Layer 1
10
142.568942
20
38.168524
11
143.695606
21
38.756504
0
LINE
8
Layer 1
10
143.695606
20
38.756504
11
144.786623
21
39.502089
0
LINE
8
Layer 1
10
144.786623
20
39.502089
11
145.820600
21
40.404652
0
LINE
8
Layer 1
10
145.820600
20
40.404652
11
146.776147
21
41.463567
0
LINE
8
Layer 1
10
146.776147
20
41.463567
11
147.631872
21
42.678207
0
LINE
8
Layer 1
10
147.631872
20
42.678207
11
148.597594
21
43.777863
0
LINE
8
Layer 1
10
148.597594
20
43.777863
11
150.051632
21
44.803750
0
LINE
8
Layer 1
10
150.051632
20
44.803750
11
151.922734
21
45.733414
0
LINE
8
Layer 1
10
151.922734
20
45.733414
11
154.139645
21
46.544401
0
LINE
8
Layer 1
10
154.139645
20
46.544401
11
156.631110
21
47.214256
0
LINE
8
Layer 1
10
156.631110
20
47.214256
11
159.325877
21
47.720525
0
LINE
8
Layer 1
10
159.325877
20
47.720525
11
162.152690
21
48.040753
0
LINE
8
Layer 1
10
162.152690
20
48.040753
11
165.040296
21
48.152486
0
LINE
8
Layer 1
10
165.040296
20
48.152486
11
168.989726
21
48.220613
0
LINE
8
Layer 1
10
168.989726
20
48.220613
11
171.978409
21
48.459336
0
LINE
8
Layer 1
10
171.978409
20
48.459336
11
174.051450
21
48.920161
0
LINE
8
Layer 1
10
174.051450
20
48.920161
11
174.758702
21
49.249957
0
LINE
8
Layer 1
10
174.758702
20
49.249957
11
175.253958
21
49.654594
0
LINE
8
Layer 1
10
175.253958
20
49.654594
11
175.542857
21
50.140510
0
LINE
8
Layer 1
10
175.542857
20
50.140510
11
175.631038
21
50.714144
0
LINE
8
Layer 1
10
175.631038
20
50.714144
11
175.524138
21
51.381932
0
LINE
8
Layer 1
10
175.524138
20
51.381932
11
175.227796
21
52.150315
0
LINE
8
Layer 1
10
175.227796
20
52.150315
11
174.089339
21
54.014614
0
LINE
8
Layer 1
10
174.089339
20
54.014614
11
172.260774
21
56.358549
0
LINE
8
Layer 1
10
172.260774
20
56.358549
11
170.746144
21
58.008256
0
LINE
8
Layer 1
10
170.746144
20
58.008256
11
169.051457
21
59.547691
0
LINE
8
Layer 1
10
169.051457
20
59.547691
11
167.233853
21
60.943046
0
LINE
8
Layer 1
10
167.233853
20
60.943046
11
165.350469
21
62.160511
0
LINE
8
Layer 1
10
165.350469
20
62.160511
11
163.458443
21
63.166280
0
LINE
8
Layer 1
10
163.458443
20
63.166280
11
161.614914
21
63.926544
0
LINE
8
Layer 1
10
161.614914
20
63.926544
11
159.877020
21
64.407495
0
LINE
8
Layer 1
10
159.877020
20
64.407495
11
158.301899
21
64.575324
0
LINE
8
Layer 1
10
158.301899
20
64.575324
11
158.301899
21
64.575324
0
LINE
8
Layer 1
10
73.788022
20
30.133430
11
69.529061
21
29.904727
0
LINE
8
Layer 1
10
69.529061
20
29.904727
11
65.357392
21
29.282224
0
LINE
8
Layer 1
10
65.357392
20
29.282224
11
61.421204
21
28.300606
0
LINE
8
Layer 1
10
61.421204
20
28.300606
11
57.868687
21
26.994557
0
LINE
8
Layer 1
10
57.868687
20
26.994557
11
54.098162
21
24.711506
0
LINE
8
Layer 1
10
54.098162
20
24.711506
11
50.355864
21
21.889678
0
LINE
8
Layer 1
10
50.355864
20
21.889678
11
46.662097
21
18.579882
0
LINE
8
Layer 1
10
46.662097
20
18.579882
11
43.037159
21
14.832925
0
LINE
8
Layer 1
10
43.037159
20
14.832925
11
39.501352
21
10.699615
0
LINE
8
Layer 1
10
39.501352
20
10.699615
11
36.074977
21
6.230759
0
LINE
8
Layer 1
10
36.074977
20
6.230759
11
32.778334
21
1.477165
0
LINE
8
Layer 1
10
32.778334
20
1.477165
11
29.631724
21
-3.510359
0
LINE
8
Layer 1
10
29.631724
20
-3.510359
11
26.655447
21
-8.681006
0
LINE
8
Layer 1
10
26.655447
20
-8.681006
11
23.869805
21
-13.983968
0
LINE
8
Layer 1
10
23.869805
20
-13.983968
11
21.295098
21
-19.368437
0
LINE
8
Layer 1
10
21.295098
20
-19.368437
11
18.951627
21
-24.783606
0
LINE
8
Layer 1
10
18.951627
20
-24.783606
11
16.859692
21
-30.178667
0
LINE
8
Layer 1
10
16.859692
20
-30.178667
11
15.039595
21
-35.502813
0
LINE
8
Layer 1
10
15.039595
20
-35.502813
11
13.511635
21
-40.705235
0
LINE
8
Layer 1
10
13.511635
20
-40.705235
11
12.296114
21
-45.735126
0
LINE
8
Layer 1
10
12.296114
20
-45.735126
11
11.173783
21
-52.265110
0
LINE
8
Layer 1
10
11.173783
20
-52.265110
11
10.864220
21
-55.331252
0
LINE
8
Layer 1
10
10.864220
20
-55.331252
11
10.731147
21
-58.242920
0
LINE
8
Layer 1
10
10.731147
20
-58.242920
11
10.781132
21
-60.983681
0
LINE
8
Layer 1
10
10.781132
20
-60.983681
11
11.020741
21
-63.537103
0
LINE
8
Layer 1
10
11.020741
20
-63.537103
11
11.456540
21
-65.886754
0
LINE
8
Layer 1
10
11.456540
20
-65.886754
11
12.095097
21
-68.016203
0
LINE
8
Layer 1
10
12.095097
20
-68.016203
11
12.942978
21
-69.909018
0
LINE
8
Layer 1
10
12.942978
20
-69.909018
11
14.006750
21
-71.548768
0
LINE
8
Layer 1
10
14.006750
20
-71.548768
11
15.292980
21
-72.919019
0
LINE
8
Layer 1
10
15.292980
20
-72.919019
11
16.808235
21
-74.003341
0
LINE
8
Layer 1
10
16.808235
20
-74.003341
11
18.559081
21
-74.785302
0
LINE
8
Layer 1
10
18.559081
20
-74.785302
11
20.552085
21
-75.248470
0
LINE
8
Layer 1
10
20.552085
20
-75.248470
11
22.793813
21
-75.376414
0
LINE
8
Layer 1
10
22.793813
20
-75.376414
11
25.290833
21
-75.152700
0
LINE
8
Layer 1
10
25.290833
20
-75.152700
11
31.548098
21
-72.824597
0
LINE
8
Layer 1
10
31.548098
20
-72.824597
11
37.436741
21
-70.106521
0
LINE
8
Layer 1
10
37.436741
20
-70.106521
11
42.970427
21
-67.019061
0
LINE
8
Layer 1
10
42.970427
20
-67.019061
11
48.162822
21
-63.582803
0
LINE
8
Layer 1
10
48.162822
20
-63.582803
11
52.728352
21
-59.213423
0
LINE
8
Layer 1
10
52.728352
20
-59.213423
11
58.312930
21
-53.394879
0
LINE
8
Layer 1
10
58.312930
20
-53.394879
11
64.542209
21
-46.385724
0
LINE
8
Layer 1
10
64.542209
20
-46.385724
11
71.041844
21
-38.444511
0
LINE
8
Layer 1
10
71.041844
20
-38.444511
11
77.437488
21
-29.829791
0
LINE
8
Layer 1
10
77.437488
20
-29.829791
11
80.479331
21
-25.350664
0
LINE
8
Layer 1
10
80.479331
20
-25.350664
11
83.354797
21
-20.800118
0
LINE
8
Layer 1
10
83.354797
20
-20.800118
11
86.017091
21
-16.210472
0
LINE
8
Layer 1
10
86.017091
20
-16.210472
11
88.419422
21
-11.614044
0
LINE
8
Layer 1
10
88.419422
20
-11.614044
11
90.514996
21
-7.043154
0
LINE
8
Layer 1
10
90.514996
20
-7.043154
11
92.257019
21
-2.530121
0
LINE
8
Layer 1
10
92.257019
20
-2.530121
11
93.481310
21
1.445157
0
LINE
8
Layer 1
10
93.481310
20
1.445157
11
94.349558
21
5.324691
0
LINE
8
Layer 1
10
94.349558
20
5.324691
11
94.827774
21
9.085075
0
LINE
8
Layer 1
10
94.827774
20
9.085075
11
94.881967
21
12.702900
0
LINE
8
Layer 1
10
94.881967
20
12.702900
11
94.478148
21
16.154762
0
LINE
8
Layer 1
10
94.478148
20
16.154762
11
93.582327
21
19.417253
0
LINE
8
Layer 1
10
93.582327
20
19.417253
11
92.160515
21
22.466967
0
LINE
8
Layer 1
10
92.160515
20
22.466967
11
91.241740
21
23.904718
0
LINE
8
Layer 1
10
91.241740
20
23.904718
11
90.178721
21
25.280497
0
LINE
8
Layer 1
10
90.178721
20
25.280497
11
88.664850
21
26.482283
0
LINE
8
Layer 1
10
88.664850
20
26.482283
11
86.944546
21
27.500709
0
LINE
8
Layer 1
10
86.944546
20
27.500709
11
85.044601
21
28.342430
0
LINE
8
Layer 1
10
85.044601
20
28.342430
11
82.991809
21
29.014102
0
LINE
8
Layer 1
10
82.991809
20
29.014102
11
80.812963
21
29.522383
0
LINE
8
Layer 1
10
80.812963
20
29.522383
11
78.534854
21
29.873927
0
LINE
8
Layer 1
10
78.534854
20
29.873927
11
73.788022
21
30.133430
0
LINE
8
Layer 1
10
73.788022
20
30.133430
11
73.788022
21
30.133430
0
LINE
8
Layer 1
10
136.190522
20
30.133430
11
131.443708
21
29.873923
0
LINE
8
Layer 1
10
131.443708
20
29.873923
11
129.165599
21
29.522380
0
LINE
8
Layer 1
10
129.165599
20
29.522380
11
126.986749
21
29.014101
0
LINE
8
Layer 1
10
126.986749
20
29.014101
11
124.933951
21
28.342430
0
LINE
8
Layer 1
10
124.933951
20
28.342430
11
123.034001
21
27.500710
0
LINE
8
Layer 1
10
123.034001
20
27.500710
11
121.313694
21
26.482285
0
LINE
8
Layer 1
10
121.313694
20
26.482285
11
119.799822
21
25.280497
0
LINE
8
Layer 1
10
119.799822
20
25.280497
11
118.736684
21
23.904718
0
LINE
8
Layer 1
10
118.736684
20
23.904718
11
117.817569
21
22.466967
0
LINE
8
Layer 1
10
117.817569
20
22.466967
11
116.394543
21
19.417253
0
LINE
8
Layer 1
10
116.394543
20
19.417253
11
115.497006
21
16.154762
0
LINE
8
Layer 1
10
115.497006
20
16.154762
11
115.091220
21
12.702900
0
LINE
8
Layer 1
10
115.091220
20
12.702900
11
115.143445
21
9.085075
0
LINE
8
Layer 1
10
115.143445
20
9.085075
11
115.619945
21
5.324691
0
LINE
8
Layer 1
10
115.619945
20
5.324691
11
116.486980
21
1.445157
0
LINE
8
Layer 1
10
116.486980
20
1.445157
11
117.710811
21
-2.530121
0
LINE
8
Layer 1
10
117.710811
20
-2.530121
11
119.452833
21
-7.043154
0
LINE
8
Layer 1
10
119.452833
20
-7.043154
11
121.548405
21
-11.614045
0
LINE
8
Layer 1
10
121.548405
20
-11.614045
11
123.950734
21
-16.210474
0
LINE
8
Layer 1
10
123.950734
20
-16.210474
11
126.613026
21
-20.800122
0
LINE
8
Layer 1
10
126.613026
20
-20.800122
11
129.488488
21
-25.350670
0
LINE
8
Layer 1
10
129.488488
20
-25.350670
11
132.530328
21
-29.829799
0
LINE
8
Layer 1
10
132.530328
20
-29.829799
11
138.925968
21
-38.444521
0
LINE
8
Layer 1
10
138.925968
20
-38.444521
11
145.425601
21
-46.385737
0
LINE
8
Layer 1
10
145.425601
20
-46.385737
11
151.654881
21
-53.394891
0
LINE
8
Layer 1
10
151.654881
20
-53.394891
11
157.239465
21
-59.213431
0
LINE
8
Layer 1
10
157.239465
20
-59.213431
11
161.805008
21
-63.582803
0
LINE
8
Layer 1
10
161.805008
20
-63.582803
11
166.999072
21
-67.019057
0
LINE
8
Layer 1
10
166.999072
20
-67.019057
11
172.536432
21
-70.106532
0
LINE
8
Layer 1
10
172.536432
20
-70.106532
11
178.428755
21
-72.824616
0
LINE
8
Layer 1
10
178.428755
20
-72.824616
11
184.687710
21
-75.152700
0
LINE
8
Layer 1
10
184.687710
20
-75.152700
11
187.184723
21
-75.376404
0
LINE
8
Layer 1
10
187.184723
20
-75.376404
11
189.426446
21
-75.248452
0
LINE
8
Layer 1
10
189.426446
20
-75.248452
11
191.419446
21
-74.785277
0
LINE
8
Layer 1
10
191.419446
20
-74.785277
11
193.170290
21
-74.003310
0
LINE
8
Layer 1
10
193.170290
20
-74.003310
11
194.685544
21
-72.918983
0
LINE
8
Layer 1
10
194.685544
20
-72.918983
11
195.971774
21
-71.548728
0
LINE
8
Layer 1
10
195.971774
20
-71.548728
11
197.035547
21
-69.908977
0
LINE
8
Layer 1
10
197.035547
20
-69.908977
11
197.883430
21
-68.016161
0
LINE
8
Layer 1
10
197.883430
20
-68.016161
11
198.521989
21
-65.886713
0
LINE
8
Layer 1
10
198.521989
20
-65.886713
11
198.957791
21
-63.537063
0
LINE
8
Layer 1
10
198.957791
20
-63.537063
11
199.197402
21
-60.983644
0
LINE
8
Layer 1
10
199.197402
20
-60.983644
11
199.247390
21
-58.242888
0
LINE
8
Layer 1
10
199.247390
20
-58.242888
11
199.114319
21
-55.331227
0
LINE
8
Layer 1
10
199.114319
20
-55.331227
11
198.804758
21
-52.265091
0
LINE
8
Layer 1
10
198.804758
20
-52.265091
11
197.682429
21
-45.735126
0
LINE
8
Layer 1
10
197.682429
20
-45.735126
11
196.466785
21
-40.705249
0
LINE
8
Layer 1
10
196.466785
20
-40.705249
11
194.938484
21
-35.502837
0
LINE
8
Layer 1
10
194.938484
20
-35.502837
11
193.117857
21
-30.178699
0
LINE
8
Layer 1
10
193.117857
20
-30.178699
11
191.025237
21
-24.783642
0
LINE
8
Layer 1
10
191.025237
20
-24.783642
11
188.680954
21
-19.368475
0
LINE
8
Layer 1
10
188.680954
20
-19.368475
11
186.105342
21
-13.984005
0
LINE
8
Layer 1
10
186.105342
20
-13.984005
11
183.318733
21
-8.681041
0
LINE
8
Layer 1
10
183.318733
20
-8.681041
11
180.341457
21
-3.510391
0
LINE
8
Layer 1
10
180.341457
20
-3.510391
11
177.193849
21
1.477137
0
LINE
8
Layer 1
10
177.193849
20
1.477137
11
173.896238
21
6.230736
0
LINE
8
Layer 1
10
173.896238
20
6.230736
11
170.468959
21
10.699597
0
LINE
8
Layer 1
10
170.468959
20
10.699597
11
166.932342
21
14.832913
0
LINE
8
Layer 1
10
166.932342
20
14.832913
11
163.306720
21
18.579875
0
LINE
8
Layer 1
10
163.306720
20
18.579875
11
159.612425
21
21.889675
0
LINE
8
Layer 1
10
159.612425
20
21.889675
11
155.869788
21
24.711505
0
LINE
8
Layer 1
10
155.869788
20
24.711505
11
152.099143
21
26.994557
0
LINE
8
Layer 1
10
152.099143
20
26.994557
11
148.548299
21
28.300609
0
LINE
8
Layer 1
10
148.548299
20
28.300609
11
144.615795
21
29.282229
0
LINE
8
Layer 1
10
144.615795
20
29.282229
11
140.447809
21
29.904731
0
LINE
8
Layer 1
10
140.447809
20
29.904731
11
136.190522
21
30.133430
0
LINE
8
Layer 1
10
136.190522
20
30.133430
11
136.190522
21
30.133430
0
LINE
8
Layer 1
10
75.127129
20
16.731622
11
77.068104
21
16.589435
0
LINE
8
Layer 1
10
77.068104
20
16.589435
11
78.782399
21
16.101732
0
LINE
8
Layer 1
10
78.782399
20
16.101732
11
80.257163
21
15.278129
0
LINE
8
Layer 1
10
80.257163
20
15.278129
11
81.479546
21
14.128240
0
LINE
8
Layer 1
10
81.479546
20
14.128240
11
82.436696
21
12.661683
0
LINE
8
Layer 1
10
82.436696
20
12.661683
11
83.115764
21
10.888072
0
LINE
8
Layer 1
10
83.115764
20
10.888072
11
83.503897
21
8.817025
0
LINE
8
Layer 1
10
83.503897
20
8.817025
11
83.588247
21
6.458155
0
LINE
8
Layer 1
10
83.588247
20
6.458155
11
83.355961
21
3.821080
0
LINE
8
Layer 1
10
83.355961
20
3.821080
11
82.794189
21
0.915415
0
LINE
8
Layer 1
10
82.794189
20
0.915415
11
81.890080
21
-2.249224
0
LINE
8
Layer 1
10
81.890080
20
-2.249224
11
80.630784
21
-5.663221
0
LINE
8
Layer 1
10
80.630784
20
-5.663221
11
79.003450
21
-9.316961
0
LINE
8
Layer 1
10
79.003450
20
-9.316961
11
76.995228
21
-13.200828
0
LINE
8
Layer 1
10
76.995228
20
-13.200828
11
74.593265
21
-17.305206
0
LINE
8
Layer 1
10
74.593265
20
-17.305206
11
71.784712
21
-21.620479
0
LINE
8
Layer 1
10
71.784712
20
-21.620479
11
69.135316
21
-25.343323
0
LINE
8
Layer 1
10
69.135316
20
-25.343323
11
66.384530
21
-28.912918
0
LINE
8
Layer 1
10
66.384530
20
-28.912918
11
63.560603
21
-32.307940
0
LINE
8
Layer 1
10
63.560603
20
-32.307940
11
60.691784
21
-35.507068
0
LINE
8
Layer 1
10
60.691784
20
-35.507068
11
57.806321
21
-38.488982
0
LINE
8
Layer 1
10
57.806321
20
-38.488982
11
54.932463
21
-41.232360
0
LINE
8
Layer 1
10
54.932463
20
-41.232360
11
52.098460
21
-43.715880
0
LINE
8
Layer 1
10
52.098460
20
-43.715880
11
49.332561
21
-45.918221
0
LINE
8
Layer 1
10
49.332561
20
-45.918221
11
46.663013
21
-47.818062
0
LINE
8
Layer 1
10
46.663013
20
-47.818062
11
44.118067
21
-49.394080
0
LINE
8
Layer 1
10
44.118067
20
-49.394080
11
41.725971
21
-50.624956
0
LINE
8
Layer 1
10
41.725971
20
-50.624956
11
39.514974
21
-51.489367
0
LINE
8
Layer 1
10
39.514974
20
-51.489367
11
37.513325
21
-51.965991
0
LINE
8
Layer 1
10
37.513325
20
-51.965991
11
35.749273
21
-52.033509
0
LINE
8
Layer 1
10
35.749273
20
-52.033509
11
34.251067
21
-51.670597
0
LINE
8
Layer 1
10
34.251067
20
-51.670597
11
33.046955
21
-50.855935
0
LINE
8
Layer 1
10
33.046955
20
-50.855935
11
31.617826
21
-49.108749
0
LINE
8
Layer 1
10
31.617826
20
-49.108749
11
30.521580
21
-47.079092
0
LINE
8
Layer 1
10
30.521580
20
-47.079092
11
29.751479
21
-44.791347
0
LINE
8
Layer 1
10
29.751479
20
-44.791347
11
29.300780
21
-42.269898
0
LINE
8
Layer 1
10
29.300780
20
-42.269898
11
29.162745
21
-39.539125
0
LINE
8
Layer 1
10
29.162745
20
-39.539125
11
29.330631
21
-36.623412
0
LINE
8
Layer 1
10
29.330631
20
-36.623412
11
29.797700
21
-33.547140
0
LINE
8
Layer 1
10
29.797700
20
-33.547140
11
30.557211
21
-30.334693
0
LINE
8
Layer 1
10
30.557211
20
-30.334693
11
31.602423
21
-27.010452
0
LINE
8
Layer 1
10
31.602423
20
-27.010452
11
32.926596
21
-23.598801
0
LINE
8
Layer 1
10
32.926596
20
-23.598801
11
34.522989
21
-20.124120
0
LINE
8
Layer 1
10
34.522989
20
-20.124120
11
36.384862
21
-16.610794
0
LINE
8
Layer 1
10
36.384862
20
-16.610794
11
38.505475
21
-13.083204
0
LINE
8
Layer 1
10
38.505475
20
-13.083204
11
40.878087
21
-9.565732
0
LINE
8
Layer 1
10
40.878087
20
-9.565732
11
43.495958
21
-6.082761
0
LINE
8
Layer 1
10
43.495958
20
-6.082761
11
46.352347
21
-2.658673
0
LINE
8
Layer 1
10
46.352347
20
-2.658673
11
50.670252
21
1.996353
0
LINE
8
Layer 1
10
50.670252
20
1.996353
11
54.831359
21
5.977860
0
LINE
8
Layer 1
10
54.831359
20
5.977860
11
58.811060
21
9.303861
0
LINE
8
Layer 1
10
58.811060
20
9.303861
11
62.584743
21
11.992364
0
LINE
8
Layer 1
10
62.584743
20
11.992364
11
66.127802
21
14.061381
0
LINE
8
Layer 1
10
66.127802
20
14.061381
11
69.415625
21
15.528922
0
LINE
8
Layer 1
10
69.415625
20
15.528922
11
72.423604
21
16.412999
0
LINE
8
Layer 1
10
72.423604
20
16.412999
11
75.127129
21
16.731622
0
LINE
8
Layer 1
10
75.127129
20
16.731622
11
75.127129
21
16.731622
0
LINE
8
Layer 1
10
134.347907
20
16.731622
11
134.851414
21
16.731622
0
LINE
8
Layer 1
10
134.851414
20
16.731622
11
137.554929
21
16.412999
0
LINE
8
Layer 1
10
137.554929
20
16.412999
11
140.562903
21
15.528922
0
LINE
8
Layer 1
10
140.562903
20
15.528922
11
143.850725
21
14.061381
0
LINE
8
Layer 1
10
143.850725
20
14.061381
11
147.393786
21
11.992364
0
LINE
8
Layer 1
10
147.393786
20
11.992364
11
151.167474
21
9.303861
0
LINE
8
Layer 1
10
151.167474
20
9.303861
11
155.147179
21
5.977860
0
LINE
8
Layer 1
10
155.147179
20
5.977860
11
159.308290
21
1.996353
0
LINE
8
Layer 1
10
159.308290
20
1.996353
11
163.626196
21
-2.658673
0
LINE
8
Layer 1
10
163.626196
20
-2.658673
11
166.482591
21
-6.082761
0
LINE
8
Layer 1
10
166.482591
20
-6.082761
11
169.100466
21
-9.565734
0
LINE
8
Layer 1
10
169.100466
20
-9.565734
11
171.473079
21
-13.083208
0
LINE
8
Layer 1
10
171.473079
20
-13.083208
11
173.593691
21
-16.610802
0
LINE
8
Layer 1
10
173.593691
20
-16.610802
11
175.455562
21
-20.124132
0
LINE
8
Layer 1
10
175.455562
20
-20.124132
11
177.051952
21
-23.598816
0
LINE
8
Layer 1
10
177.051952
20
-23.598816
11
178.376121
21
-27.010471
0
LINE
8
Layer 1
10
178.376121
20
-27.010471
11
179.421329
21
-30.334714
0
LINE
8
Layer 1
10
179.421329
20
-30.334714
11
180.180836
21
-33.547164
0
LINE
8
Layer 1
10
180.180836
20
-33.547164
11
180.647901
21
-36.623437
0
LINE
8
Layer 1
10
180.647901
20
-36.623437
11
180.815785
21
-39.539150
0
LINE
8
Layer 1
10
180.815785
20
-39.539150
11
180.677748
21
-42.269922
0
LINE
8
Layer 1
10
180.677748
20
-42.269922
11
180.227050
21
-44.791368
0
LINE
8
Layer 1
10
180.227050
20
-44.791368
11
179.456951
21
-47.079108
0
LINE
8
Layer 1
10
179.456951
20
-47.079108
11
178.360710
21
-49.108758
0
LINE
8
Layer 1
10
178.360710
20
-49.108758
11
176.931588
21
-50.855935
0
LINE
8
Layer 1
10
176.931588
20
-50.855935
11
175.727469
21
-51.670597
0
LINE
8
Layer 1
10
175.727469
20
-51.670597
11
174.229257
21
-52.033509
0
LINE
8
Layer 1
10
174.229257
20
-52.033509
11
172.465201
21
-51.965991
0
LINE
8
Layer 1
10
172.465201
20
-51.965991
11
170.463550
21
-51.489367
0
LINE
8
Layer 1
10
170.463550
20
-51.489367
11
168.252552
21
-50.624956
0
LINE
8
Layer 1
10
168.252552
20
-50.624956
11
165.860456
21
-49.394080
0
LINE
8
Layer 1
10
165.860456
20
-49.394080
11
163.315511
21
-47.818062
0
LINE
8
Layer 1
10
163.315511
20
-47.818062
11
160.645966
21
-45.918221
0
LINE
8
Layer 1
10
160.645966
20
-45.918221
11
157.880068
21
-43.715880
0
LINE
8
Layer 1
10
157.880068
20
-43.715880
11
155.046068
21
-41.232360
0
LINE
8
Layer 1
10
155.046068
20
-41.232360
11
152.172213
21
-38.488982
0
LINE
8
Layer 1
10
152.172213
20
-38.488982
11
149.286753
21
-35.507068
0
LINE
8
Layer 1
10
149.286753
20
-35.507068
11
146.417936
21
-32.307940
0
LINE
8
Layer 1
10
146.417936
20
-32.307940
11
143.594011
21
-28.912918
0
LINE
8
Layer 1
10
143.594011
20
-28.912918
11
140.843226
21
-25.343323
0
LINE
8
Layer 1
10
140.843226
20
-25.343323
11
138.193831
21
-21.620479
0
LINE
8
Layer 1
10
138.193831
20
-21.620479
11
135.426027
21
-17.371001
0
LINE
8
Layer 1
10
135.426027
20
-17.371001
11
133.052446
21
-13.325678
0
LINE
8
Layer 1
10
133.052446
20
-13.325678
11
131.060826
21
-9.493692
0
LINE
8
Layer 1
10
131.060826
20
-9.493692
11
129.438902
21
-5.884221
0
LINE
8
Layer 1
10
129.438902
20
-5.884221
11
128.174409
21
-2.506447
0
LINE
8
Layer 1
10
128.174409
20
-2.506447
11
127.255083
21
0.630451
0
LINE
8
Layer 1
10
127.255083
20
0.630451
11
126.668660
21
3.517293
0
LINE
8
Layer 1
10
126.668660
20
3.517293
11
126.402877
21
6.144899
0
LINE
8
Layer 1
10
126.402877
20
6.144899
11
126.445468
21
8.504088
0
LINE
8
Layer 1
10
126.445468
20
8.504088
11
126.784170
21
10.585681
0
LINE
8
Layer 1
10
126.784170
20
10.585681
11
127.406718
21
12.380497
0
LINE
8
Layer 1
10
127.406718
20
12.380497
11
128.300848
21
13.879356
0
LINE
8
Layer 1
10
128.300848
20
13.879356
11
129.454296
21
15.073078
0
LINE
8
Layer 1
10
129.454296
20
15.073078
11
130.854798
21
15.952483
0
LINE
8
Layer 1
10
130.854798
20
15.952483
11
132.490090
21
16.508391
0
LINE
8
Layer 1
10
132.490090
20
16.508391
11
134.347907
21
16.731622
0
LINE
8
Layer 1
10
134.347907
20
16.731622
11
134.347907
21
16.731622
0
LINE
8
Layer 1
10
105.005341
20
-0.751782
11
104.457643
21
-0.866858
0
LINE
8
Layer 1
10
104.457643
20
-0.866858
11
103.891201
21
-1.244570
0
LINE
8
Layer 1
10
103.891201
20
-1.244570
11
102.655883
21
-2.988736
0
LINE
8
Layer 1
10
102.655883
20
-2.988736
11
101.325914
21
-5.333963
0
LINE
8
Layer 1
10
101.325914
20
-5.333963
11
99.917424
21
-8.237862
0
LINE
8
Layer 1
10
99.917424
20
-8.237862
11
98.446545
21
-11.658047
0
LINE
8
Layer 1
10
98.446545
20
-11.658047
11
95.382143
21
-19.877728
0
LINE
8
Layer 1
10
95.382143
20
-19.877728
11
92.261752
21
-29.653906
0
LINE
8
Layer 1
10
92.261752
20
-29.653906
11
89.214421
21
-40.647485
0
LINE
8
Layer 1
10
89.214421
20
-40.647485
11
86.369196
21
-52.519368
0
LINE
8
Layer 1
10
86.369196
20
-52.519368
11
83.855125
21
-64.930457
0
LINE
8
Layer 1
10
83.855125
20
-64.930457
11
81.801253
21
-77.541655
0
LINE
8
Layer 1
10
81.801253
20
-77.541655
11
80.800599
21
-88.263386
0
LINE
8
Layer 1
10
80.800599
20
-88.263386
11
80.420586
21
-93.833174
0
LINE
8
Layer 1
10
80.420586
20
-93.833174
11
80.180843
21
-99.481416
0
LINE
8
Layer 1
10
80.180843
20
-99.481416
11
80.126412
21
-105.162493
0
LINE
8
Layer 1
10
80.126412
20
-105.162493
11
80.302340
21
-110.830784
0
LINE
8
Layer 1
10
80.302340
20
-110.830784
11
80.753671
21
-116.440670
0
LINE
8
Layer 1
10
80.753671
20
-116.440670
11
81.525448
21
-121.946531
0
LINE
8
Layer 1
10
81.525448
20
-121.946531
11
82.662717
21
-127.302746
0
LINE
8
Layer 1
10
82.662717
20
-127.302746
11
84.210522
21
-132.463696
0
LINE
8
Layer 1
10
84.210522
20
-132.463696
11
86.213908
21
-137.383761
0
LINE
8
Layer 1
10
86.213908
20
-137.383761
11
87.400520
21
-139.739205
0
LINE
8
Layer 1
10
87.400520
20
-139.739205
11
88.717919
21
-142.017320
0
LINE
8
Layer 1
10
88.717919
20
-142.017320
11
90.171735
21
-144.212404
0
LINE
8
Layer 1
10
90.171735
20
-144.212404
11
91.767599
21
-146.318754
0
LINE
8
Layer 1
10
91.767599
20
-146.318754
11
93.511142
21
-148.330668
0
LINE
8
Layer 1
10
93.511142
20
-148.330668
11
95.407993
21
-150.242443
0
LINE
8
Layer 1
10
95.407993
20
-150.242443
11
97.463785
21
-152.048377
0
LINE
8
Layer 1
10
97.463785
20
-152.048377
11
99.684146
21
-153.742766
0
LINE
8
Layer 1
10
99.684146
20
-153.742766
11
102.074709
21
-155.319910
0
LINE
8
Layer 1
10
102.074709
20
-155.319910
11
104.641102
21
-156.774104
0
LINE
8
Layer 1
10
104.641102
20
-156.774104
11
105.337441
21
-156.774104
0
LINE
8
Layer 1
10
105.337441
20
-156.774104
11
107.901299
21
-155.319061
0
LINE
8
Layer 1
10
107.901299
20
-155.319061
11
110.289642
21
-153.741127
0
LINE
8
Layer 1
10
110.289642
20
-153.741127
11
112.508086
21
-152.046004
0
LINE
8
Layer 1
10
112.508086
20
-152.046004
11
114.562246
21
-150.239395
0
LINE
8
Layer 1
10
114.562246
20
-150.239395
11
116.457737
21
-148.327003
0
LINE
8
Layer 1
10
116.457737
20
-148.327003
11
118.200174
21
-146.314528
0
LINE
8
Layer 1
10
118.200174
20
-146.314528
11
119.795173
21
-144.207673
0
LINE
8
Layer 1
10
119.795173
20
-144.207673
11
121.248349
21
-142.012141
0
LINE
8
Layer 1
10
121.248349
20
-142.012141
11
122.565318
21
-139.733634
0
LINE
8
Layer 1
10
122.565318
20
-139.733634
11
123.751693
21
-137.377853
0
LINE
8
Layer 1
10
123.751693
20
-137.377853
11
125.755128
21
-132.457280
0
LINE
8
Layer 1
10
125.755128
20
-132.457280
11
127.303575
21
-127.296039
0
LINE
8
Layer 1
10
127.303575
20
-127.296039
11
128.441956
21
-121.939747
0
LINE
8
Layer 1
10
128.441956
20
-121.939747
11
129.215194
21
-116.434022
0
LINE
8
Layer 1
10
129.215194
20
-116.434022
11
129.668211
21
-110.824481
0
LINE
8
Layer 1
10
129.668211
20
-110.824481
11
129.845928
21
-105.156741
0
LINE
8
Layer 1
10
129.845928
20
-105.156741
11
129.793268
21
-99.476419
0
LINE
8
Layer 1
10
129.793268
20
-99.476419
11
129.555153
21
-93.829133
0
LINE
8
Layer 1
10
129.555153
20
-93.829133
11
129.176504
21
-88.260498
0
LINE
8
Layer 1
10
129.176504
20
-88.260498
11
128.177293
21
-77.541655
0
LINE
8
Layer 1
10
128.177293
20
-77.541655
11
126.123001
21
-64.930457
0
LINE
8
Layer 1
10
126.123001
20
-64.930457
11
123.607818
21
-52.519368
0
LINE
8
Layer 1
10
123.607818
20
-52.519368
11
120.761003
21
-40.647485
0
LINE
8
Layer 1
10
120.761003
20
-40.647485
11
117.711820
21
-29.653906
0
LINE
8
Layer 1
10
117.711820
20
-29.653906
11
114.589529
21
-19.877728
0
LINE
8
Layer 1
10
114.589529
20
-19.877728
11
111.523393
21
-11.658047
0
LINE
8
Layer 1
10
111.523393
20
-11.658047
11
110.051776
21
-8.237862
0
LINE
8
Layer 1
10
110.051776
20
-8.237862
11
108.642672
21
-5.333963
0
LINE
8
Layer 1
10
108.642672
20
-5.333963
11
107.312237
21
-2.988736
0
LINE
8
Layer 1
10
107.312237
20
-2.988736
11
106.076629
21
-1.244570
0
LINE
8
Layer 1
10
106.076629
20
-1.244570
11
105.542321
21
-0.882945
0
LINE
8
Layer 1
10
105.542321
20
-0.882945
11
105.005341
21
-0.751782
0
LINE
8
Layer 1
10
105.005341
20
-0.751782
11
105.005341
21
-0.751782
 0 
ENDSEC
 0 
EOF
