999
"DXF R12 Output" (www.mydxf.blogspot.com)
 0 
SECTION
 2 
HEADER
 9 
$ACADVER
 1 
AC1009
 9 
$EXTMIN
 10 
 0 
 20 
 0 
 9 
$EXTMAX
 10 
 8.5 
 20 
 11 
 0 
ENDSEC
 0 
SECTION
 2 
ENTITIES
0
LINE
8
Layer 1
10
103.006802
20
273.645147
11
99.670228
21
273.568312
0
LINE
8
Layer 1
10
99.670228
20
273.568312
11
96.452131
21
273.343966
0
LINE
8
Layer 1
10
96.452131
20
273.343966
11
93.382450
21
272.983867
0
LINE
8
Layer 1
10
93.382450
20
272.983867
11
90.491126
21
272.499770
0
LINE
8
Layer 1
10
90.491126
20
272.499770
11
87.808100
21
271.903431
0
LINE
8
Layer 1
10
87.808100
20
271.903431
11
85.363311
21
271.206606
0
LINE
8
Layer 1
10
85.363311
20
271.206606
11
83.186701
21
270.421051
0
LINE
8
Layer 1
10
83.186701
20
270.421051
11
81.308210
21
269.558521
0
LINE
8
Layer 1
10
81.308210
20
269.558521
11
79.757778
21
268.630773
0
LINE
8
Layer 1
10
79.757778
20
268.630773
11
78.565345
21
267.649563
0
LINE
8
Layer 1
10
78.565345
20
267.649563
11
77.760853
21
266.626646
0
LINE
8
Layer 1
10
77.760853
20
266.626646
11
77.374242
21
265.573779
0
LINE
8
Layer 1
10
77.374242
20
265.573779
11
77.435452
21
264.502717
0
LINE
8
Layer 1
10
77.435452
20
264.502717
11
77.974423
21
263.425217
0
LINE
8
Layer 1
10
77.974423
20
263.425217
11
79.021097
21
262.353034
0
LINE
8
Layer 1
10
79.021097
20
262.353034
11
80.605413
21
261.297924
0
LINE
8
Layer 1
10
80.605413
20
261.297924
11
82.058982
21
260.363936
0
LINE
8
Layer 1
10
82.058982
20
260.363936
11
83.592956
21
259.160020
0
LINE
8
Layer 1
10
83.592956
20
259.160020
11
86.717048
21
256.142840
0
LINE
8
Layer 1
10
86.717048
20
256.142840
11
89.607544
21
252.647265
0
LINE
8
Layer 1
10
89.607544
20
252.647265
11
90.849524
21
250.845354
0
LINE
8
Layer 1
10
90.849524
20
250.845354
11
91.894302
21
249.074174
0
LINE
8
Layer 1
10
91.894302
20
249.074174
11
94.168788
21
244.531293
0
LINE
8
Layer 1
10
94.168788
20
244.531293
11
94.450642
21
243.421456
0
LINE
8
Layer 1
10
94.450642
20
243.421456
11
94.342150
21
243.160125
0
LINE
8
Layer 1
10
94.342150
20
243.160125
11
94.053829
21
243.095735
0
LINE
8
Layer 1
10
94.053829
20
243.095735
11
92.897045
21
243.561416
0
LINE
8
Layer 1
10
92.897045
20
243.561416
11
90.898985
21
244.825785
0
LINE
8
Layer 1
10
90.898985
20
244.825785
11
84.053815
21
249.779729
0
LINE
8
Layer 1
10
84.053815
20
249.779729
11
81.055003
21
251.811639
0
LINE
8
Layer 1
10
81.055003
20
251.811639
11
78.043042
21
253.500227
0
LINE
8
Layer 1
10
78.043042
20
253.500227
11
75.046443
21
254.850485
0
LINE
8
Layer 1
10
75.046443
20
254.850485
11
72.093715
21
255.867409
0
LINE
8
Layer 1
10
72.093715
20
255.867409
11
69.213368
21
256.555993
0
LINE
8
Layer 1
10
69.213368
20
256.555993
11
66.433912
21
256.921232
0
LINE
8
Layer 1
10
66.433912
20
256.921232
11
63.783858
21
256.968118
0
LINE
8
Layer 1
10
63.783858
20
256.968118
11
61.291714
21
256.701648
0
LINE
8
Layer 1
10
61.291714
20
256.701648
11
58.985991
21
256.126815
0
LINE
8
Layer 1
10
58.985991
20
256.126815
11
56.895200
21
255.248613
0
LINE
8
Layer 1
10
56.895200
20
255.248613
11
55.047848
21
254.072036
0
LINE
8
Layer 1
10
55.047848
20
254.072036
11
53.472448
21
252.602080
0
LINE
8
Layer 1
10
53.472448
20
252.602080
11
52.197508
21
250.843738
0
LINE
8
Layer 1
10
52.197508
20
250.843738
11
51.251539
21
248.802004
0
LINE
8
Layer 1
10
51.251539
20
248.802004
11
50.663050
21
246.481874
0
LINE
8
Layer 1
10
50.663050
20
246.481874
11
50.460552
21
243.888340
0
LINE
8
Layer 1
10
50.460552
20
243.888340
11
50.598628
21
241.824653
0
LINE
8
Layer 1
10
50.598628
20
241.824653
11
50.994354
21
239.677662
0
LINE
8
Layer 1
10
50.994354
20
239.677662
11
51.619975
21
237.510271
0
LINE
8
Layer 1
10
51.619975
20
237.510271
11
52.447736
21
235.385384
0
LINE
8
Layer 1
10
52.447736
20
235.385384
11
53.449881
21
233.365906
0
LINE
8
Layer 1
10
53.449881
20
233.365906
11
54.598654
21
231.514741
0
LINE
8
Layer 1
10
54.598654
20
231.514741
11
55.866301
21
229.894793
0
LINE
8
Layer 1
10
55.866301
20
229.894793
11
57.225065
21
228.568965
0
LINE
8
Layer 1
10
57.225065
20
228.568965
11
60.727083
21
225.875734
0
LINE
8
Layer 1
10
60.727083
20
225.875734
11
61.767417
21
225.358251
0
LINE
8
Layer 1
10
61.767417
20
225.358251
11
62.123032
21
225.319073
0
LINE
8
Layer 1
10
62.123032
20
225.319073
11
62.373941
21
225.430949
0
LINE
8
Layer 1
10
62.373941
20
225.430949
11
62.576634
21
226.121898
0
LINE
8
Layer 1
10
62.576634
20
226.121898
11
62.405475
21
227.459166
0
LINE
8
Layer 1
10
62.405475
20
227.459166
11
61.061524
21
232.184938
0
LINE
8
Layer 1
10
61.061524
20
232.184938
11
60.342127
21
234.704849
0
LINE
8
Layer 1
10
60.342127
20
234.704849
11
59.960993
21
236.745817
0
LINE
8
Layer 1
10
59.960993
20
236.745817
11
59.942319
21
238.351903
0
LINE
8
Layer 1
10
59.942319
20
238.351903
11
60.310300
21
239.567168
0
LINE
8
Layer 1
10
60.310300
20
239.567168
11
61.089133
21
240.435674
0
LINE
8
Layer 1
10
61.089133
20
240.435674
11
62.303014
21
241.001484
0
LINE
8
Layer 1
10
62.303014
20
241.001484
11
63.976139
21
241.308657
0
LINE
8
Layer 1
10
63.976139
20
241.308657
11
66.132704
21
241.401257
0
LINE
8
Layer 1
10
66.132704
20
241.401257
11
68.014105
21
241.311042
0
LINE
8
Layer 1
10
68.014105
20
241.311042
11
69.802061
21
241.038925
0
LINE
8
Layer 1
10
69.802061
20
241.038925
11
71.498341
21
240.582696
0
LINE
8
Layer 1
10
71.498341
20
240.582696
11
73.104712
21
239.940144
0
LINE
8
Layer 1
10
73.104712
20
239.940144
11
74.622942
21
239.109061
0
LINE
8
Layer 1
10
74.622942
20
239.109061
11
76.054799
21
238.087236
0
LINE
8
Layer 1
10
76.054799
20
238.087236
11
77.402051
21
236.872459
0
LINE
8
Layer 1
10
77.402051
20
236.872459
11
78.666464
21
235.462520
0
LINE
8
Layer 1
10
78.666464
20
235.462520
11
79.849808
21
233.855211
0
LINE
8
Layer 1
10
79.849808
20
233.855211
11
80.953848
21
232.048320
0
LINE
8
Layer 1
10
80.953848
20
232.048320
11
81.980355
21
230.039638
0
LINE
8
Layer 1
10
81.980355
20
230.039638
11
82.931094
21
227.826956
0
LINE
8
Layer 1
10
82.931094
20
227.826956
11
84.612341
21
222.780749
0
LINE
8
Layer 1
10
84.612341
20
222.780749
11
86.011732
21
216.892021
0
LINE
8
Layer 1
10
86.011732
20
216.892021
11
86.816179
21
212.676335
0
LINE
8
Layer 1
10
86.816179
20
212.676335
11
87.275528
21
209.496435
0
LINE
8
Layer 1
10
87.275528
20
209.496435
11
87.319369
21
207.250044
0
LINE
8
Layer 1
10
87.319369
20
207.250044
11
87.163470
21
206.444952
0
LINE
8
Layer 1
10
87.163470
20
206.444952
11
86.877289
21
205.834883
0
LINE
8
Layer 1
10
86.877289
20
205.834883
11
86.452025
21
205.407052
0
LINE
8
Layer 1
10
86.452025
20
205.407052
11
85.878876
21
205.148675
0
LINE
8
Layer 1
10
85.878876
20
205.148675
11
85.149042
21
205.046965
0
LINE
8
Layer 1
10
85.149042
20
205.046965
11
84.253719
21
205.089140
0
LINE
8
Layer 1
10
84.253719
20
205.089140
11
81.931406
21
205.554001
0
LINE
8
Layer 1
10
81.931406
20
205.554001
11
78.841524
21
206.440979
0
LINE
8
Layer 1
10
78.841524
20
206.440979
11
71.269323
21
208.565298
0
LINE
8
Layer 1
10
71.269323
20
208.565298
11
68.495066
21
209.214954
0
LINE
8
Layer 1
10
68.495066
20
209.214954
11
66.917635
21
209.457229
0
LINE
8
Layer 1
10
66.917635
20
209.457229
11
57.624066
21
209.403040
0
LINE
8
Layer 1
10
57.624066
20
209.403040
11
49.907261
21
209.056593
0
LINE
8
Layer 1
10
49.907261
20
209.056593
11
43.492740
21
208.339777
0
LINE
8
Layer 1
10
43.492740
20
208.339777
11
40.688060
21
207.818069
0
LINE
8
Layer 1
10
40.688060
20
207.818069
11
38.106022
21
207.174477
0
LINE
8
Layer 1
10
38.106022
20
207.174477
11
35.712313
21
206.399236
0
LINE
8
Layer 1
10
35.712313
20
206.399236
11
33.472626
21
205.482582
0
LINE
8
Layer 1
10
33.472626
20
205.482582
11
31.352649
21
204.414750
0
LINE
8
Layer 1
10
31.352649
20
204.414750
11
29.318072
21
203.185977
0
LINE
8
Layer 1
10
29.318072
20
203.185977
11
27.334585
21
201.786498
0
LINE
8
Layer 1
10
27.334585
20
201.786498
11
25.367878
21
200.206550
0
LINE
8
Layer 1
10
25.367878
20
200.206550
11
21.347565
21
196.466188
0
LINE
8
Layer 1
10
21.347565
20
196.466188
11
18.533702
21
193.456835
0
LINE
8
Layer 1
10
18.533702
20
193.456835
11
16.093616
21
190.430642
0
LINE
8
Layer 1
10
16.093616
20
190.430642
11
14.027739
21
187.388586
0
LINE
8
Layer 1
10
14.027739
20
187.388586
11
12.336506
21
184.331645
0
LINE
8
Layer 1
10
12.336506
20
184.331645
11
11.020349
21
181.260798
0
LINE
8
Layer 1
10
11.020349
20
181.260798
11
10.079701
21
178.177021
0
LINE
8
Layer 1
10
10.079701
20
178.177021
11
9.514994
21
175.081292
0
LINE
8
Layer 1
10
9.514994
20
175.081292
11
9.326663
21
171.974590
0
LINE
8
Layer 1
10
9.326663
20
171.974590
11
9.326663
21
159.503896
0
LINE
8
Layer 1
10
9.326663
20
159.503896
11
19.424927
21
169.602160
0
LINE
8
Layer 1
10
19.424927
20
169.602160
11
23.619381
21
173.482733
0
LINE
8
Layer 1
10
23.619381
20
173.482733
11
25.601248
21
175.043959
0
LINE
8
Layer 1
10
25.601248
20
175.043959
11
27.534481
21
176.355607
0
LINE
8
Layer 1
10
27.534481
20
176.355607
11
29.440287
21
177.420025
0
LINE
8
Layer 1
10
29.440287
20
177.420025
11
31.339870
21
178.239560
0
LINE
8
Layer 1
10
31.339870
20
178.239560
11
33.254435
21
178.816559
0
LINE
8
Layer 1
10
33.254435
20
178.816559
11
35.205188
21
179.153369
0
LINE
8
Layer 1
10
35.205188
20
179.153369
11
37.213334
21
179.252337
0
LINE
8
Layer 1
10
37.213334
20
179.252337
11
39.300079
21
179.115811
0
LINE
8
Layer 1
10
39.300079
20
179.115811
11
41.486627
21
178.746138
0
LINE
8
Layer 1
10
41.486627
20
178.746138
11
43.794184
21
178.145665
0
LINE
8
Layer 1
10
43.794184
20
178.145665
11
46.243956
21
177.316738
0
LINE
8
Layer 1
10
46.243956
20
177.316738
11
48.857146
21
176.261707
0
LINE
8
Layer 1
10
48.857146
20
176.261707
11
54.658607
21
173.482715
0
LINE
8
Layer 1
10
54.658607
20
173.482715
11
57.345273
21
172.008492
0
LINE
8
Layer 1
10
57.345273
20
172.008492
11
59.818843
21
170.469973
0
LINE
8
Layer 1
10
59.818843
20
170.469973
11
62.084802
21
168.857272
0
LINE
8
Layer 1
10
62.084802
20
168.857272
11
64.148638
21
167.160504
0
LINE
8
Layer 1
10
64.148638
20
167.160504
11
66.015837
21
165.369785
0
LINE
8
Layer 1
10
66.015837
20
165.369785
11
67.691885
21
163.475228
0
LINE
8
Layer 1
10
67.691885
20
163.475228
11
69.182271
21
161.466950
0
LINE
8
Layer 1
10
69.182271
20
161.466950
11
70.492479
21
159.335064
0
LINE
8
Layer 1
10
70.492479
20
159.335064
11
71.627997
21
157.069686
0
LINE
8
Layer 1
10
71.627997
20
157.069686
11
72.594312
21
154.660930
0
LINE
8
Layer 1
10
72.594312
20
154.660930
11
73.396909
21
152.098911
0
LINE
8
Layer 1
10
73.396909
20
152.098911
11
74.041276
21
149.373745
0
LINE
8
Layer 1
10
74.041276
20
149.373745
11
74.532900
21
146.475545
0
LINE
8
Layer 1
10
74.532900
20
146.475545
11
74.877267
21
143.394427
0
LINE
8
Layer 1
10
74.877267
20
143.394427
11
75.146177
21
136.643896
0
LINE
8
Layer 1
10
75.146177
20
136.643896
11
75.045046
21
132.732522
0
LINE
8
Layer 1
10
75.045046
20
132.732522
11
74.744162
21
128.895745
0
LINE
8
Layer 1
10
74.744162
20
128.895745
11
74.247282
21
125.136800
0
LINE
8
Layer 1
10
74.247282
20
125.136800
11
73.558161
21
121.458926
0
LINE
8
Layer 1
10
73.558161
20
121.458926
11
72.680558
21
117.865360
0
LINE
8
Layer 1
10
72.680558
20
117.865360
11
71.618230
21
114.359339
0
LINE
8
Layer 1
10
71.618230
20
114.359339
11
70.374933
21
110.944100
0
LINE
8
Layer 1
10
70.374933
20
110.944100
11
68.954424
21
107.622879
0
LINE
8
Layer 1
10
68.954424
20
107.622879
11
67.360462
21
104.398916
0
LINE
8
Layer 1
10
67.360462
20
104.398916
11
65.596802
21
101.275446
0
LINE
8
Layer 1
10
65.596802
20
101.275446
11
63.667203
21
98.255707
0
LINE
8
Layer 1
10
63.667203
20
98.255707
11
61.575420
21
95.342936
0
LINE
8
Layer 1
10
61.575420
20
95.342936
11
59.325212
21
92.540371
0
LINE
8
Layer 1
10
59.325212
20
92.540371
11
56.920335
21
89.851248
0
LINE
8
Layer 1
10
56.920335
20
89.851248
11
54.364546
21
87.278804
0
LINE
8
Layer 1
10
54.364546
20
87.278804
11
51.661603
21
84.826278
0
LINE
8
Layer 1
10
51.661603
20
84.826278
11
48.815262
21
82.496906
0
LINE
8
Layer 1
10
48.815262
20
82.496906
11
45.829281
21
80.293925
0
LINE
8
Layer 1
10
45.829281
20
80.293925
11
42.707417
21
78.220573
0
LINE
8
Layer 1
10
42.707417
20
78.220573
11
39.453427
21
76.280086
0
LINE
8
Layer 1
10
39.453427
20
76.280086
11
36.071067
21
74.475702
0
LINE
8
Layer 1
10
36.071067
20
74.475702
11
32.564096
21
72.810659
0
LINE
8
Layer 1
10
32.564096
20
72.810659
11
28.936270
21
71.288193
0
LINE
8
Layer 1
10
28.936270
20
71.288193
11
25.191346
21
69.911541
0
LINE
8
Layer 1
10
25.191346
20
69.911541
11
21.333082
21
68.683941
0
LINE
8
Layer 1
10
21.333082
20
68.683941
11
17.365233
21
67.608631
0
LINE
8
Layer 1
10
17.365233
20
67.608631
11
13.291559
21
66.688846
0
LINE
8
Layer 1
10
13.291559
20
66.688846
11
9.115815
21
65.927825
0
LINE
8
Layer 1
10
9.115815
20
65.927825
11
4.841759
21
65.328804
0
LINE
8
Layer 1
10
4.841759
20
65.328804
11
0.473147
21
64.895021
0
LINE
8
Layer 1
10
0.473147
20
64.895021
11
-3.986262
21
64.629714
0
LINE
8
Layer 1
10
-3.986262
20
64.629714
11
-8.532712
21
64.536118
0
LINE
8
Layer 1
10
-8.532712
20
64.536118
11
-13.264680
21
64.687947
0
LINE
8
Layer 1
10
-13.264680
20
64.687947
11
-17.432680
21
65.251258
0
LINE
8
Layer 1
10
-17.432680
20
65.251258
11
-19.380846
21
65.730819
0
LINE
8
Layer 1
10
-19.380846
20
65.730819
11
-21.278804
21
66.365572
0
LINE
8
Layer 1
10
-21.278804
20
66.365572
11
-23.156816
21
67.172955
0
LINE
8
Layer 1
10
-23.156816
20
67.172955
11
-25.045143
21
68.170410
0
LINE
8
Layer 1
10
-25.045143
20
68.170410
11
-28.973786
21
70.805293
0
LINE
8
Layer 1
10
-28.973786
20
70.805293
11
-33.306825
21
74.409742
0
LINE
8
Layer 1
10
-33.306825
20
74.409742
11
-38.286348
21
79.123279
0
LINE
8
Layer 1
10
-38.286348
20
79.123279
11
-44.154448
21
85.085424
0
LINE
8
Layer 1
10
-44.154448
20
85.085424
11
-50.963711
21
92.052775
0
LINE
8
Layer 1
10
-50.963711
20
92.052775
11
-56.460704
21
97.360074
0
LINE
8
Layer 1
10
-56.460704
20
97.360074
11
-60.947115
21
101.164708
0
LINE
8
Layer 1
10
-60.947115
20
101.164708
11
-62.905631
21
102.552709
0
LINE
8
Layer 1
10
-62.905631
20
102.552709
11
-64.724635
21
103.624065
0
LINE
8
Layer 1
10
-64.724635
20
103.624065
11
-66.441838
21
104.398447
0
LINE
8
Layer 1
10
-66.441838
20
104.398447
11
-68.094952
21
104.895531
0
LINE
8
Layer 1
10
-68.094952
20
104.895531
11
-69.721688
21
105.134989
0
LINE
8
Layer 1
10
-69.721688
20
105.134989
11
-71.359757
21
105.136495
0
LINE
8
Layer 1
10
-71.359757
20
105.136495
11
-73.046870
21
104.919722
0
LINE
8
Layer 1
10
-73.046870
20
104.919722
11
-74.820739
21
104.504344
0
LINE
8
Layer 1
10
-74.820739
20
104.504344
11
-78.779587
21
103.156465
0
LINE
8
Layer 1
10
-78.779587
20
103.156465
11
-80.403715
21
102.410183
0
LINE
8
Layer 1
10
-80.403715
20
102.410183
11
-81.782491
21
101.529546
0
LINE
8
Layer 1
10
-81.782491
20
101.529546
11
-82.919015
21
100.539735
0
LINE
8
Layer 1
10
-82.919015
20
100.539735
11
-83.816389
21
99.465933
0
LINE
8
Layer 1
10
-83.816389
20
99.465933
11
-84.477713
21
98.333322
0
LINE
8
Layer 1
10
-84.477713
20
98.333322
11
-84.906088
21
97.167083
0
LINE
8
Layer 1
10
-84.906088
20
97.167083
11
-85.104615
21
95.992400
0
LINE
8
Layer 1
10
-85.104615
20
95.992400
11
-85.076393
21
94.834455
0
LINE
8
Layer 1
10
-85.076393
20
94.834455
11
-84.824525
21
93.718428
0
LINE
8
Layer 1
10
-84.824525
20
93.718428
11
-84.352111
21
92.669503
0
LINE
8
Layer 1
10
-84.352111
20
92.669503
11
-83.662251
21
91.712862
0
LINE
8
Layer 1
10
-83.662251
20
91.712862
11
-82.758046
21
90.873687
0
LINE
8
Layer 1
10
-82.758046
20
90.873687
11
-81.642598
21
90.177159
0
LINE
8
Layer 1
10
-81.642598
20
90.177159
11
-80.319006
21
89.648461
0
LINE
8
Layer 1
10
-80.319006
20
89.648461
11
-78.790372
21
89.312776
0
LINE
8
Layer 1
10
-78.790372
20
89.312776
11
-77.059796
21
89.195285
0
LINE
8
Layer 1
10
-77.059796
20
89.195285
11
-75.084162
21
89.065889
0
LINE
8
Layer 1
10
-75.084162
20
89.065889
11
-73.390646
21
88.673527
0
LINE
8
Layer 1
10
-73.390646
20
88.673527
11
-71.973485
21
88.011936
0
LINE
8
Layer 1
10
-71.973485
20
88.011936
11
-70.826914
21
87.074855
0
LINE
8
Layer 1
10
-70.826914
20
87.074855
11
-69.945169
21
85.856023
0
LINE
8
Layer 1
10
-69.945169
20
85.856023
11
-69.322487
21
84.349177
0
LINE
8
Layer 1
10
-69.322487
20
84.349177
11
-68.953103
21
82.548055
0
LINE
8
Layer 1
10
-68.953103
20
82.548055
11
-68.831254
21
80.446396
0
LINE
8
Layer 1
10
-68.831254
20
80.446396
11
-68.928043
21
77.799010
0
LINE
8
Layer 1
10
-68.928043
20
77.799010
11
-69.315868
21
75.795482
0
LINE
8
Layer 1
10
-69.315868
20
75.795482
11
-69.664602
21
75.019135
0
LINE
8
Layer 1
10
-69.664602
20
75.019135
11
-70.140914
21
74.384515
0
LINE
8
Layer 1
10
-70.140914
20
74.384515
11
-70.763078
21
73.885212
0
LINE
8
Layer 1
10
-70.763078
20
73.885212
11
-71.549368
21
73.514813
0
LINE
8
Layer 1
10
-71.549368
20
73.514813
11
-72.518055
21
73.266906
0
LINE
8
Layer 1
10
-72.518055
20
73.266906
11
-73.687415
21
73.135078
0
LINE
8
Layer 1
10
-73.687415
20
73.135078
11
-76.701241
21
73.194015
0
LINE
8
Layer 1
10
-76.701241
20
73.194015
11
-80.737033
21
73.640326
0
LINE
8
Layer 1
10
-80.737033
20
73.640326
11
-85.940976
21
74.422715
0
LINE
8
Layer 1
10
-85.940976
20
74.422715
11
-90.653791
21
75.269309
0
LINE
8
Layer 1
10
-90.653791
20
75.269309
11
-95.111260
21
76.257848
0
LINE
8
Layer 1
10
-95.111260
20
76.257848
11
-99.304225
21
77.382078
0
LINE
8
Layer 1
10
-99.304225
20
77.382078
11
-103.223525
21
78.635742
0
LINE
8
Layer 1
10
-103.223525
20
78.635742
11
-106.860003
21
80.012584
0
LINE
8
Layer 1
10
-106.860003
20
80.012584
11
-110.204500
21
81.506349
0
LINE
8
Layer 1
10
-110.204500
20
81.506349
11
-113.247856
21
83.110780
0
LINE
8
Layer 1
10
-113.247856
20
83.110780
11
-115.980914
21
84.819622
0
LINE
8
Layer 1
10
-115.980914
20
84.819622
11
-118.394514
21
86.626618
0
LINE
8
Layer 1
10
-118.394514
20
86.626618
11
-120.479497
21
88.525512
0
LINE
8
Layer 1
10
-120.479497
20
88.525512
11
-122.226705
21
90.510049
0
LINE
8
Layer 1
10
-122.226705
20
90.510049
11
-123.626980
21
92.573972
0
LINE
8
Layer 1
10
-123.626980
20
92.573972
11
-124.671161
21
94.711026
0
LINE
8
Layer 1
10
-124.671161
20
94.711026
11
-125.350090
21
96.914954
0
LINE
8
Layer 1
10
-125.350090
20
96.914954
11
-125.654610
21
99.179501
0
LINE
8
Layer 1
10
-125.654610
20
99.179501
11
-125.575560
21
101.498410
0
LINE
8
Layer 1
10
-125.575560
20
101.498410
11
-125.151093
21
104.156102
0
LINE
8
Layer 1
10
-125.151093
20
104.156102
11
-124.534615
21
106.354474
0
LINE
8
Layer 1
10
-124.534615
20
106.354474
11
-123.695987
21
108.122110
0
LINE
8
Layer 1
10
-123.695987
20
108.122110
11
-122.605068
21
109.487594
0
LINE
8
Layer 1
10
-122.605068
20
109.487594
11
-121.231720
21
110.479507
0
LINE
8
Layer 1
10
-121.231720
20
110.479507
11
-119.545802
21
111.126433
0
LINE
8
Layer 1
10
-119.545802
20
111.126433
11
-117.517174
21
111.456957
0
LINE
8
Layer 1
10
-117.517174
20
111.456957
11
-115.115698
21
111.499660
0
LINE
8
Layer 1
10
-115.115698
20
111.499660
11
-113.139008
21
111.513991
0
LINE
8
Layer 1
10
-113.139008
20
111.513991
11
-111.407176
21
111.699597
0
LINE
8
Layer 1
10
-111.407176
20
111.699597
11
-109.921107
21
112.048188
0
LINE
8
Layer 1
10
-109.921107
20
112.048188
11
-108.681705
21
112.551473
0
LINE
8
Layer 1
10
-108.681705
20
112.551473
11
-107.689876
21
113.201161
0
LINE
8
Layer 1
10
-107.689876
20
113.201161
11
-106.946524
21
113.988962
0
LINE
8
Layer 1
10
-106.946524
20
113.988962
11
-106.452554
21
114.906586
0
LINE
8
Layer 1
10
-106.452554
20
114.906586
11
-106.208870
21
115.945740
0
LINE
8
Layer 1
10
-106.208870
20
115.945740
11
-106.216376
21
117.098136
0
LINE
8
Layer 1
10
-106.216376
20
117.098136
11
-106.475979
21
118.355482
0
LINE
8
Layer 1
10
-106.475979
20
118.355482
11
-106.988582
21
119.709488
0
LINE
8
Layer 1
10
-106.988582
20
119.709488
11
-107.755090
21
121.151863
0
LINE
8
Layer 1
10
-107.755090
20
121.151863
11
-108.776408
21
122.674317
0
LINE
8
Layer 1
10
-108.776408
20
122.674317
11
-110.053441
21
124.268559
0
LINE
8
Layer 1
10
-110.053441
20
124.268559
11
-113.378268
21
127.639243
0
LINE
8
Layer 1
10
-113.378268
20
127.639243
11
-115.008744
21
129.013892
0
LINE
8
Layer 1
10
-115.008744
20
129.013892
11
-116.681559
21
130.232341
0
LINE
8
Layer 1
10
-116.681559
20
130.232341
11
-120.099330
21
132.194933
0
LINE
8
Layer 1
10
-120.099330
20
132.194933
11
-123.521839
21
133.515613
0
LINE
8
Layer 1
10
-123.521839
20
133.515613
11
-125.200576
21
133.931670
0
LINE
8
Layer 1
10
-125.200576
20
133.931670
11
-126.839343
21
134.182971
0
LINE
8
Layer 1
10
-126.839343
20
134.182971
11
-128.424423
21
134.268091
0
LINE
8
Layer 1
10
-128.424423
20
134.268091
11
-129.942099
21
134.185602
0
LINE
8
Layer 1
10
-129.942099
20
134.185602
11
-131.378651
21
133.934079
0
LINE
8
Layer 1
10
-131.378651
20
133.934079
11
-132.720364
21
133.512097
0
LINE
8
Layer 1
10
-132.720364
20
133.512097
11
-133.953517
21
132.918228
0
LINE
8
Layer 1
10
-133.953517
20
132.918228
11
-135.064394
21
132.151048
0
LINE
8
Layer 1
10
-135.064394
20
132.151048
11
-136.039277
21
131.209130
0
LINE
8
Layer 1
10
-136.039277
20
131.209130
11
-136.864448
21
130.091049
0
LINE
8
Layer 1
10
-136.864448
20
130.091049
11
-137.641194
21
129.255236
0
LINE
8
Layer 1
10
-137.641194
20
129.255236
11
-138.807351
21
128.578393
0
LINE
8
Layer 1
10
-138.807351
20
128.578393
11
-140.309549
21
128.067523
0
LINE
8
Layer 1
10
-140.309549
20
128.067523
11
-142.094417
21
127.729625
0
LINE
8
Layer 1
10
-142.094417
20
127.729625
11
-144.108587
21
127.571702
0
LINE
8
Layer 1
10
-144.108587
20
127.571702
11
-146.298687
21
127.600753
0
LINE
8
Layer 1
10
-146.298687
20
127.600753
11
-148.611347
21
127.823780
0
LINE
8
Layer 1
10
-148.611347
20
127.823780
11
-150.993198
21
128.247785
0
LINE
8
Layer 1
10
-150.993198
20
128.247785
11
-154.589226
21
128.744812
0
LINE
8
Layer 1
10
-154.589226
20
128.744812
11
-158.018469
21
128.661380
0
LINE
8
Layer 1
10
-158.018469
20
128.661380
11
-161.247328
21
128.052738
0
LINE
8
Layer 1
10
-161.247328
20
128.052738
11
-164.242202
21
126.974137
0
LINE
8
Layer 1
10
-164.242202
20
126.974137
11
-166.969490
21
125.480830
0
LINE
8
Layer 1
10
-166.969490
20
125.480830
11
-169.395592
21
123.628066
0
LINE
8
Layer 1
10
-169.395592
20
123.628066
11
-171.486908
21
121.471097
0
LINE
8
Layer 1
10
-171.486908
20
121.471097
11
-173.209835
21
119.065174
0
LINE
8
Layer 1
10
-173.209835
20
119.065174
11
-174.530775
21
116.465548
0
LINE
8
Layer 1
10
-174.530775
20
116.465548
11
-175.416127
21
113.727470
0
LINE
8
Layer 1
10
-175.416127
20
113.727470
11
-175.832289
21
110.906190
0
LINE
8
Layer 1
10
-175.832289
20
110.906190
11
-175.745661
21
108.056961
0
LINE
8
Layer 1
10
-175.745661
20
108.056961
11
-175.122643
21
105.235032
0
LINE
8
Layer 1
10
-175.122643
20
105.235032
11
-173.929634
21
102.495656
0
LINE
8
Layer 1
10
-173.929634
20
102.495656
11
-173.108882
21
101.174190
0
LINE
8
Layer 1
10
-173.108882
20
101.174190
11
-172.133033
21
99.894082
0
LINE
8
Layer 1
10
-172.133033
20
99.894082
11
-170.997886
21
98.662237
0
LINE
8
Layer 1
10
-170.997886
20
98.662237
11
-169.699240
21
97.485563
0
LINE
8
Layer 1
10
-169.699240
20
97.485563
11
-167.932566
21
95.926740
0
LINE
8
Layer 1
10
-167.932566
20
95.926740
11
-166.670656
21
94.531680
0
LINE
8
Layer 1
10
-166.670656
20
94.531680
11
-165.913510
21
93.195507
0
LINE
8
Layer 1
10
-165.913510
20
93.195507
11
-165.661128
21
91.813343
0
LINE
8
Layer 1
10
-165.661128
20
91.813343
11
-165.913510
21
90.280310
0
LINE
8
Layer 1
10
-165.913510
20
90.280310
11
-166.670656
21
88.491531
0
LINE
8
Layer 1
10
-166.670656
20
88.491531
11
-167.932566
21
86.342130
0
LINE
8
Layer 1
10
-167.932566
20
86.342130
11
-169.699240
21
83.727229
0
LINE
8
Layer 1
10
-169.699240
20
83.727229
11
-170.858764
21
81.936884
0
LINE
8
Layer 1
10
-170.858764
20
81.936884
11
-171.872491
21
80.092649
0
LINE
8
Layer 1
10
-171.872491
20
80.092649
11
-173.474725
21
76.271550
0
LINE
8
Layer 1
10
-173.474725
20
76.271550
11
-174.530286
21
72.322024
0
LINE
8
Layer 1
10
-174.530286
20
72.322024
11
-175.063518
21
68.302163
0
LINE
8
Layer 1
10
-175.063518
20
68.302163
11
-175.098767
21
64.270058
0
LINE
8
Layer 1
10
-175.098767
20
64.270058
11
-174.660376
21
60.283801
0
LINE
8
Layer 1
10
-174.660376
20
60.283801
11
-173.772690
21
56.401483
0
LINE
8
Layer 1
10
-173.772690
20
56.401483
11
-172.460054
21
52.681196
0
LINE
8
Layer 1
10
-172.460054
20
52.681196
11
-170.746812
21
49.181031
0
LINE
8
Layer 1
10
-170.746812
20
49.181031
11
-168.657309
21
45.959081
0
LINE
8
Layer 1
10
-168.657309
20
45.959081
11
-166.215888
21
43.073435
0
LINE
8
Layer 1
10
-166.215888
20
43.073435
11
-163.446895
21
40.582187
0
LINE
8
Layer 1
10
-163.446895
20
40.582187
11
-160.374674
21
38.543427
0
LINE
8
Layer 1
10
-160.374674
20
38.543427
11
-158.732461
21
37.711884
0
LINE
8
Layer 1
10
-158.732461
20
37.711884
11
-157.023569
21
37.015247
0
LINE
8
Layer 1
10
-157.023569
20
37.015247
11
-155.251043
21
36.460778
0
LINE
8
Layer 1
10
-155.251043
20
36.460778
11
-153.417926
21
36.055738
0
LINE
8
Layer 1
10
-153.417926
20
36.055738
11
-151.527259
21
35.807390
0
LINE
8
Layer 1
10
-151.527259
20
35.807390
11
-149.582087
21
35.722993
0
LINE
8
Layer 1
10
-149.582087
20
35.722993
11
-145.010385
21
35.930527
0
LINE
8
Layer 1
10
-145.010385
20
35.930527
11
-141.482486
21
36.535489
0
LINE
8
Layer 1
10
-141.482486
20
36.535489
11
-140.114788
21
36.978736
0
LINE
8
Layer 1
10
-140.114788
20
36.978736
11
-139.013833
21
37.511418
0
LINE
8
Layer 1
10
-139.013833
20
37.511418
11
-138.181550
21
38.130227
0
LINE
8
Layer 1
10
-138.181550
20
38.130227
11
-137.619871
21
38.831856
0
LINE
8
Layer 1
10
-137.619871
20
38.831856
11
-137.330724
21
39.612998
0
LINE
8
Layer 1
10
-137.330724
20
39.612998
11
-137.316042
21
40.470345
0
LINE
8
Layer 1
10
-137.316042
20
40.470345
11
-137.577754
21
41.400590
0
LINE
8
Layer 1
10
-137.577754
20
41.400590
11
-138.117791
21
42.400425
0
LINE
8
Layer 1
10
-138.117791
20
42.400425
11
-138.938083
21
43.466543
0
LINE
8
Layer 1
10
-138.938083
20
43.466543
11
-140.040561
21
44.595636
0
LINE
8
Layer 1
10
-140.040561
20
44.595636
11
-143.099796
21
47.029521
0
LINE
8
Layer 1
10
-143.099796
20
47.029521
11
-145.313987
21
48.677418
0
LINE
8
Layer 1
10
-145.313987
20
48.677418
11
-146.993003
21
50.170934
0
LINE
8
Layer 1
10
-146.993003
20
50.170934
11
-148.152218
21
51.560518
0
LINE
8
Layer 1
10
-148.152218
20
51.560518
11
-148.807002
21
52.896624
0
LINE
8
Layer 1
10
-148.807002
20
52.896624
11
-148.972731
21
54.229702
0
LINE
8
Layer 1
10
-148.972731
20
54.229702
11
-148.664776
21
55.610204
0
LINE
8
Layer 1
10
-148.664776
20
55.610204
11
-147.898512
21
57.088581
0
LINE
8
Layer 1
10
-147.898512
20
57.088581
11
-146.689310
21
58.715285
0
LINE
8
Layer 1
10
-146.689310
20
58.715285
11
-145.470472
21
60.088568
0
LINE
8
Layer 1
10
-145.470472
20
60.088568
11
-144.213781
21
61.263600
0
LINE
8
Layer 1
10
-144.213781
20
61.263600
11
-142.856921
21
62.235626
0
LINE
8
Layer 1
10
-142.856921
20
62.235626
11
-141.337576
21
62.999891
0
LINE
8
Layer 1
10
-141.337576
20
62.999891
11
-139.593432
21
63.551642
0
LINE
8
Layer 1
10
-139.593432
20
63.551642
11
-137.562173
21
63.886122
0
LINE
8
Layer 1
10
-137.562173
20
63.886122
11
-135.181484
21
63.998577
0
LINE
8
Layer 1
10
-135.181484
20
63.998577
11
-132.389051
21
63.884252
0
LINE
8
Layer 1
10
-132.389051
20
63.884252
11
-129.122558
21
63.538393
0
LINE
8
Layer 1
10
-129.122558
20
63.538393
11
-125.319690
21
62.956244
0
LINE
8
Layer 1
10
-125.319690
20
62.956244
11
-115.855568
21
61.064059
0
LINE
8
Layer 1
10
-115.855568
20
61.064059
11
-103.498166
21
58.169660
0
LINE
8
Layer 1
10
-103.498166
20
58.169660
11
-87.748962
21
54.235007
0
LINE
8
Layer 1
10
-87.748962
20
54.235007
11
-79.078296
21
52.139014
0
LINE
8
Layer 1
10
-79.078296
20
52.139014
11
-70.564205
21
50.288313
0
LINE
8
Layer 1
10
-70.564205
20
50.288313
11
-62.216638
21
48.683266
0
LINE
8
Layer 1
10
-62.216638
20
48.683266
11
-54.045542
21
47.324234
0
LINE
8
Layer 1
10
-54.045542
20
47.324234
11
-46.060868
21
46.211579
0
LINE
8
Layer 1
10
-46.060868
20
46.211579
11
-38.272562
21
45.345664
0
LINE
8
Layer 1
10
-38.272562
20
45.345664
11
-30.690572
21
44.726851
0
LINE
8
Layer 1
10
-30.690572
20
44.726851
11
-23.324849
21
44.355501
0
LINE
8
Layer 1
10
-23.324849
20
44.355501
11
-16.185338
21
44.231976
0
LINE
8
Layer 1
10
-16.185338
20
44.231976
11
-9.281990
21
44.356638
0
LINE
8
Layer 1
10
-9.281990
20
44.356638
11
-2.624752
21
44.729850
0
LINE
8
Layer 1
10
-2.624752
20
44.729850
11
3.776427
21
45.351972
0
LINE
8
Layer 1
10
3.776427
20
45.351972
11
9.911600
21
46.223368
0
LINE
8
Layer 1
10
9.911600
20
46.223368
11
15.770817
21
47.344398
0
LINE
8
Layer 1
10
15.770817
20
47.344398
11
21.344131
21
48.715426
0
LINE
8
Layer 1
10
21.344131
20
48.715426
11
26.621593
21
50.336813
0
LINE
8
Layer 1
10
26.621593
20
50.336813
11
30.972006
21
51.973290
0
LINE
8
Layer 1
10
30.972006
20
51.973290
11
35.391148
21
53.931505
0
LINE
8
Layer 1
10
35.391148
20
53.931505
11
39.848570
21
56.186107
0
LINE
8
Layer 1
10
39.848570
20
56.186107
11
44.313819
21
58.711751
0
LINE
8
Layer 1
10
44.313819
20
58.711751
11
48.756443
21
61.483087
0
LINE
8
Layer 1
10
48.756443
20
61.483087
11
53.145990
21
64.474768
0
LINE
8
Layer 1
10
53.145990
20
64.474768
11
57.452008
21
67.661445
0
LINE
8
Layer 1
10
57.452008
20
67.661445
11
61.644047
21
71.017771
0
LINE
8
Layer 1
10
61.644047
20
71.017771
11
65.691653
21
74.518397
0
LINE
8
Layer 1
10
65.691653
20
74.518397
11
69.564375
21
78.137976
0
LINE
8
Layer 1
10
69.564375
20
78.137976
11
73.231762
21
81.851159
0
LINE
8
Layer 1
10
73.231762
20
81.851159
11
76.663360
21
85.632599
0
LINE
8
Layer 1
10
76.663360
20
85.632599
11
79.828720
21
89.456948
0
LINE
8
Layer 1
10
79.828720
20
89.456948
11
82.697388
21
93.298857
0
LINE
8
Layer 1
10
82.697388
20
93.298857
11
85.238913
21
97.132979
0
LINE
8
Layer 1
10
85.238913
20
97.132979
11
87.422843
21
100.933965
0
LINE
8
Layer 1
10
87.422843
20
100.933965
11
95.351524
21
115.935840
0
LINE
8
Layer 1
10
95.351524
20
115.935840
11
95.527913
21
96.541882
0
LINE
8
Layer 1
10
95.527913
20
96.541882
11
95.489649
21
91.269104
0
LINE
8
Layer 1
10
95.489649
20
91.269104
11
95.244246
21
86.856806
0
LINE
8
Layer 1
10
95.244246
20
86.856806
11
94.757108
21
83.202936
0
LINE
8
Layer 1
10
94.757108
20
83.202936
11
93.993642
21
80.205443
0
LINE
8
Layer 1
10
93.993642
20
80.205443
11
92.919250
21
77.762275
0
LINE
8
Layer 1
10
92.919250
20
77.762275
11
91.499340
21
75.771380
0
LINE
8
Layer 1
10
91.499340
20
75.771380
11
89.699314
21
74.130706
0
LINE
8
Layer 1
10
89.699314
20
74.130706
11
87.484579
21
72.738201
0
LINE
8
Layer 1
10
87.484579
20
72.738201
11
85.471627
21
71.476122
0
LINE
8
Layer 1
10
85.471627
20
71.476122
11
83.757012
21
70.013646
0
LINE
8
Layer 1
10
83.757012
20
70.013646
11
82.339624
21
68.364432
0
LINE
8
Layer 1
10
82.339624
20
68.364432
11
81.218356
21
66.542140
0
LINE
8
Layer 1
10
81.218356
20
66.542140
11
80.392098
21
64.560428
0
LINE
8
Layer 1
10
80.392098
20
64.560428
11
79.859740
21
62.432956
0
LINE
8
Layer 1
10
79.859740
20
62.432956
11
79.620174
21
60.173381
0
LINE
8
Layer 1
10
79.620174
20
60.173381
11
79.672291
21
57.795363
0
LINE
8
Layer 1
10
79.672291
20
57.795363
11
80.014983
21
55.312561
0
LINE
8
Layer 1
10
80.014983
20
55.312561
11
80.647139
21
52.738634
0
LINE
8
Layer 1
10
80.647139
20
52.738634
11
81.567650
21
50.087239
0
LINE
8
Layer 1
10
81.567650
20
50.087239
11
82.775409
21
47.372037
0
LINE
8
Layer 1
10
82.775409
20
47.372037
11
84.269306
21
44.606686
0
LINE
8
Layer 1
10
84.269306
20
44.606686
11
86.048231
21
41.804844
0
LINE
8
Layer 1
10
86.048231
20
41.804844
11
88.111076
21
38.980172
0
LINE
8
Layer 1
10
88.111076
20
38.980172
11
90.456732
21
36.146326
0
LINE
8
Layer 1
10
90.456732
20
36.146326
11
93.922483
21
32.401635
0
LINE
8
Layer 1
10
93.922483
20
32.401635
11
97.180352
21
29.201747
0
LINE
8
Layer 1
10
97.180352
20
29.201747
11
102.295935
21
24.708898
0
LINE
8
Layer 1
10
102.295935
20
24.708898
11
103.793664
21
23.713312
0
LINE
8
Layer 1
10
103.793664
20
23.713312
11
105.006771
21
23.356049
0
LINE
8
Layer 1
10
105.006771
20
23.356049
11
105.582121
21
23.415997
0
LINE
8
Layer 1
10
105.582121
20
23.415997
11
106.176951
21
23.634576
0
LINE
8
Layer 1
10
106.176951
20
23.634576
11
107.545903
21
24.546361
0
LINE
8
Layer 1
10
107.545903
20
24.546361
11
109.800173
21
26.435252
0
LINE
8
Layer 1
10
109.800173
20
26.435252
11
112.685921
21
29.051075
0
LINE
8
Layer 1
10
112.685921
20
29.051075
11
116.000999
21
32.314533
0
LINE
8
Layer 1
10
116.000999
20
32.314533
11
119.543260
21
36.146326
0
LINE
8
Layer 1
10
119.543260
20
36.146326
11
121.888916
21
38.980172
0
LINE
8
Layer 1
10
121.888916
20
38.980172
11
123.951761
21
41.804844
0
LINE
8
Layer 1
10
123.951761
20
41.804844
11
125.730686
21
44.606686
0
LINE
8
Layer 1
10
125.730686
20
44.606686
11
127.224583
21
47.372037
0
LINE
8
Layer 1
10
127.224583
20
47.372037
11
128.432342
21
50.087239
0
LINE
8
Layer 1
10
128.432342
20
50.087239
11
129.352854
21
52.738634
0
LINE
8
Layer 1
10
129.352854
20
52.738634
11
129.985009
21
55.312561
0
LINE
8
Layer 1
10
129.985009
20
55.312561
11
130.327701
21
57.795363
0
LINE
8
Layer 1
10
130.327701
20
57.795363
11
130.379818
21
60.173381
0
LINE
8
Layer 1
10
130.379818
20
60.173381
11
130.140252
21
62.432956
0
LINE
8
Layer 1
10
130.140252
20
62.432956
11
129.607894
21
64.560428
0
LINE
8
Layer 1
10
129.607894
20
64.560428
11
128.781636
21
66.542140
0
LINE
8
Layer 1
10
128.781636
20
66.542140
11
127.660368
21
68.364432
0
LINE
8
Layer 1
10
127.660368
20
68.364432
11
126.242980
21
70.013646
0
LINE
8
Layer 1
10
126.242980
20
70.013646
11
124.528365
21
71.476122
0
LINE
8
Layer 1
10
124.528365
20
71.476122
11
122.515413
21
72.738201
0
LINE
8
Layer 1
10
122.515413
20
72.738201
11
120.300675
21
74.130706
0
LINE
8
Layer 1
10
120.300675
20
74.130706
11
118.500649
21
75.771380
0
LINE
8
Layer 1
10
118.500649
20
75.771380
11
117.080738
21
77.762275
0
LINE
8
Layer 1
10
117.080738
20
77.762275
11
116.006347
21
80.205443
0
LINE
8
Layer 1
10
116.006347
20
80.205443
11
115.242882
21
83.202936
0
LINE
8
Layer 1
10
115.242882
20
83.202936
11
114.755745
21
86.856806
0
LINE
8
Layer 1
10
114.755745
20
86.856806
11
114.510343
21
91.269104
0
LINE
8
Layer 1
10
114.510343
20
91.269104
11
114.472079
21
96.541882
0
LINE
8
Layer 1
10
114.472079
20
96.541882
11
114.648468
21
115.935840
0
LINE
8
Layer 1
10
114.648468
20
115.935840
11
122.577149
21
100.933965
0
LINE
8
Layer 1
10
122.577149
20
100.933965
11
124.761079
21
97.132979
0
LINE
8
Layer 1
10
124.761079
20
97.132979
11
127.302604
21
93.298857
0
LINE
8
Layer 1
10
127.302604
20
93.298857
11
130.171272
21
89.456948
0
LINE
8
Layer 1
10
130.171272
20
89.456948
11
133.336632
21
85.632599
0
LINE
8
Layer 1
10
133.336632
20
85.632599
11
136.768230
21
81.851159
0
LINE
8
Layer 1
10
136.768230
20
81.851159
11
140.435617
21
78.137976
0
LINE
8
Layer 1
10
140.435617
20
78.137976
11
144.308339
21
74.518397
0
LINE
8
Layer 1
10
144.308339
20
74.518397
11
148.355945
21
71.017771
0
LINE
8
Layer 1
10
148.355945
20
71.017771
11
152.547984
21
67.661445
0
LINE
8
Layer 1
10
152.547984
20
67.661445
11
156.854002
21
64.474768
0
LINE
8
Layer 1
10
156.854002
20
64.474768
11
161.243549
21
61.483087
0
LINE
8
Layer 1
10
161.243549
20
61.483087
11
165.686173
21
58.711751
0
LINE
8
Layer 1
10
165.686173
20
58.711751
11
170.151422
21
56.186107
0
LINE
8
Layer 1
10
170.151422
20
56.186107
11
174.608844
21
53.931505
0
LINE
8
Layer 1
10
174.608844
20
53.931505
11
179.027987
21
51.973290
0
LINE
8
Layer 1
10
179.027987
20
51.973290
11
183.378399
21
50.336813
0
LINE
8
Layer 1
10
183.378399
20
50.336813
11
188.655860
21
48.715426
0
LINE
8
Layer 1
10
188.655860
20
48.715426
11
194.229174
21
47.344398
0
LINE
8
Layer 1
10
194.229174
20
47.344398
11
200.088391
21
46.223368
0
LINE
8
Layer 1
10
200.088391
20
46.223368
11
206.223564
21
45.351972
0
LINE
8
Layer 1
10
206.223564
20
45.351972
11
212.624743
21
44.729850
0
LINE
8
Layer 1
10
212.624743
20
44.729850
11
219.281981
21
44.356638
0
LINE
8
Layer 1
10
219.281981
20
44.356638
11
226.185330
21
44.231976
0
LINE
8
Layer 1
10
226.185330
20
44.231976
11
233.324840
21
44.355501
0
LINE
8
Layer 1
10
233.324840
20
44.355501
11
240.690565
21
44.726851
0
LINE
8
Layer 1
10
240.690565
20
44.726851
11
248.272554
21
45.345664
0
LINE
8
Layer 1
10
248.272554
20
45.345664
11
256.060861
21
46.211579
0
LINE
8
Layer 1
10
256.060861
20
46.211579
11
264.045536
21
47.324234
0
LINE
8
Layer 1
10
264.045536
20
47.324234
11
272.216632
21
48.683266
0
LINE
8
Layer 1
10
272.216632
20
48.683266
11
280.564201
21
50.288313
0
LINE
8
Layer 1
10
280.564201
20
50.288313
11
289.078293
21
52.139014
0
LINE
8
Layer 1
10
289.078293
20
52.139014
11
297.748960
21
54.235007
0
LINE
8
Layer 1
10
297.748960
20
54.235007
11
313.498165
21
58.169660
0
LINE
8
Layer 1
10
313.498165
20
58.169660
11
325.855566
21
61.064059
0
LINE
8
Layer 1
10
325.855566
20
61.064059
11
335.319686
21
62.956244
0
LINE
8
Layer 1
10
335.319686
20
62.956244
11
339.122552
21
63.538393
0
LINE
8
Layer 1
10
339.122552
20
63.538393
11
342.389044
21
63.884252
0
LINE
8
Layer 1
10
342.389044
20
63.884252
11
345.181475
21
63.998577
0
LINE
8
Layer 1
10
345.181475
20
63.998577
11
347.562162
21
63.886122
0
LINE
8
Layer 1
10
347.562162
20
63.886122
11
349.593420
21
63.551642
0
LINE
8
Layer 1
10
349.593420
20
63.551642
11
351.337562
21
62.999891
0
LINE
8
Layer 1
10
351.337562
20
62.999891
11
352.856906
21
62.235626
0
LINE
8
Layer 1
10
352.856906
20
62.235626
11
354.213766
21
61.263600
0
LINE
8
Layer 1
10
354.213766
20
61.263600
11
355.470456
21
60.088568
0
LINE
8
Layer 1
10
355.470456
20
60.088568
11
356.689293
21
58.715285
0
LINE
8
Layer 1
10
356.689293
20
58.715285
11
357.898493
21
57.088581
0
LINE
8
Layer 1
10
357.898493
20
57.088581
11
358.664759
21
55.610204
0
LINE
8
Layer 1
10
358.664759
20
55.610204
11
358.972715
21
54.229702
0
LINE
8
Layer 1
10
358.972715
20
54.229702
11
358.806990
21
52.896624
0
LINE
8
Layer 1
10
358.806990
20
52.896624
11
358.152209
21
51.560518
0
LINE
8
Layer 1
10
358.152209
20
51.560518
11
356.992998
21
50.170934
0
LINE
8
Layer 1
10
356.992998
20
50.170934
11
355.313984
21
48.677418
0
LINE
8
Layer 1
10
355.313984
20
48.677418
11
353.099793
21
47.029521
0
LINE
8
Layer 1
10
353.099793
20
47.029521
11
350.040560
21
44.595636
0
LINE
8
Layer 1
10
350.040560
20
44.595636
11
348.938082
21
43.466543
0
LINE
8
Layer 1
10
348.938082
20
43.466543
11
348.117789
21
42.400425
0
LINE
8
Layer 1
10
348.117789
20
42.400425
11
347.577751
21
41.400590
0
LINE
8
Layer 1
10
347.577751
20
41.400590
11
347.316038
21
40.470345
0
LINE
8
Layer 1
10
347.316038
20
40.470345
11
347.330719
21
39.612998
0
LINE
8
Layer 1
10
347.330719
20
39.612998
11
347.619863
21
38.831856
0
LINE
8
Layer 1
10
347.619863
20
38.831856
11
348.181541
21
38.130227
0
LINE
8
Layer 1
10
348.181541
20
38.130227
11
349.013822
21
37.511418
0
LINE
8
Layer 1
10
349.013822
20
37.511418
11
350.114776
21
36.978736
0
LINE
8
Layer 1
10
350.114776
20
36.978736
11
351.482472
21
36.535489
0
LINE
8
Layer 1
10
351.482472
20
36.535489
11
355.010369
21
35.930527
0
LINE
8
Layer 1
10
355.010369
20
35.930527
11
359.582071
21
35.722993
0
LINE
8
Layer 1
10
359.582071
20
35.722993
11
361.527243
21
35.807390
0
LINE
8
Layer 1
10
361.527243
20
35.807390
11
363.417909
21
36.055738
0
LINE
8
Layer 1
10
363.417909
20
36.055738
11
365.251027
21
36.460778
0
LINE
8
Layer 1
10
365.251027
20
36.460778
11
367.023554
21
37.015247
0
LINE
8
Layer 1
10
367.023554
20
37.015247
11
368.732445
21
37.711884
0
LINE
8
Layer 1
10
368.732445
20
37.711884
11
370.374659
21
38.543427
0
LINE
8
Layer 1
10
370.374659
20
38.543427
11
373.446881
21
40.582187
0
LINE
8
Layer 1
10
373.446881
20
40.582187
11
376.215875
21
43.073435
0
LINE
8
Layer 1
10
376.215875
20
43.073435
11
378.657297
21
45.959081
0
LINE
8
Layer 1
10
378.657297
20
45.959081
11
380.746802
21
49.181031
0
LINE
8
Layer 1
10
380.746802
20
49.181031
11
382.460045
21
52.681196
0
LINE
8
Layer 1
10
382.460045
20
52.681196
11
383.772682
21
56.401483
0
LINE
8
Layer 1
10
383.772682
20
56.401483
11
384.660369
21
60.283801
0
LINE
8
Layer 1
10
384.660369
20
60.283801
11
385.098761
21
64.270058
0
LINE
8
Layer 1
10
385.098761
20
64.270058
11
385.063514
21
68.302163
0
LINE
8
Layer 1
10
385.063514
20
68.302163
11
384.530282
21
72.322024
0
LINE
8
Layer 1
10
384.530282
20
72.322024
11
383.474722
21
76.271550
0
LINE
8
Layer 1
10
383.474722
20
76.271550
11
381.872489
21
80.092649
0
LINE
8
Layer 1
10
381.872489
20
80.092649
11
380.858762
21
81.936884
0
LINE
8
Layer 1
10
380.858762
20
81.936884
11
379.699238
21
83.727229
0
LINE
8
Layer 1
10
379.699238
20
83.727229
11
377.932554
21
86.342130
0
LINE
8
Layer 1
10
377.932554
20
86.342130
11
376.670637
21
88.491531
0
LINE
8
Layer 1
10
376.670637
20
88.491531
11
375.913487
21
90.280310
0
LINE
8
Layer 1
10
375.913487
20
90.280310
11
375.661103
21
91.813343
0
LINE
8
Layer 1
10
375.661103
20
91.813343
11
375.913487
21
93.195507
0
LINE
8
Layer 1
10
375.913487
20
93.195507
11
376.670637
21
94.531680
0
LINE
8
Layer 1
10
376.670637
20
94.531680
11
377.932554
21
95.926740
0
LINE
8
Layer 1
10
377.932554
20
95.926740
11
379.699238
21
97.485563
0
LINE
8
Layer 1
10
379.699238
20
97.485563
11
380.997881
21
98.662237
0
LINE
8
Layer 1
10
380.997881
20
98.662237
11
382.133026
21
99.894082
0
LINE
8
Layer 1
10
382.133026
20
99.894082
11
383.108873
21
101.174190
0
LINE
8
Layer 1
10
383.108873
20
101.174190
11
383.929622
21
102.495656
0
LINE
8
Layer 1
10
383.929622
20
102.495656
11
385.122629
21
105.235032
0
LINE
8
Layer 1
10
385.122629
20
105.235032
11
385.745645
21
108.056961
0
LINE
8
Layer 1
10
385.745645
20
108.056961
11
385.832271
21
110.906190
0
LINE
8
Layer 1
10
385.832271
20
110.906190
11
385.416109
21
113.727470
0
LINE
8
Layer 1
10
385.416109
20
113.727470
11
384.530757
21
116.465548
0
LINE
8
Layer 1
10
384.530757
20
116.465548
11
383.209818
21
119.065174
0
LINE
8
Layer 1
10
383.209818
20
119.065174
11
381.486890
21
121.471097
0
LINE
8
Layer 1
10
381.486890
20
121.471097
11
379.395576
21
123.628066
0
LINE
8
Layer 1
10
379.395576
20
123.628066
11
376.969474
21
125.480830
0
LINE
8
Layer 1
10
376.969474
20
125.480830
11
374.242187
21
126.974137
0
LINE
8
Layer 1
10
374.242187
20
126.974137
11
371.247313
21
128.052738
0
LINE
8
Layer 1
10
371.247313
20
128.052738
11
368.018454
21
128.661380
0
LINE
8
Layer 1
10
368.018454
20
128.661380
11
364.589210
21
128.744812
0
LINE
8
Layer 1
10
364.589210
20
128.744812
11
360.993182
21
128.247785
0
LINE
8
Layer 1
10
360.993182
20
128.247785
11
358.611328
21
127.823780
0
LINE
8
Layer 1
10
358.611328
20
127.823780
11
356.298667
21
127.600753
0
LINE
8
Layer 1
10
356.298667
20
127.600753
11
354.108567
21
127.571702
0
LINE
8
Layer 1
10
354.108567
20
127.571702
11
352.094398
21
127.729625
0
LINE
8
Layer 1
10
352.094398
20
127.729625
11
350.309530
21
128.067523
0
LINE
8
Layer 1
10
350.309530
20
128.067523
11
348.807334
21
128.578393
0
LINE
8
Layer 1
10
348.807334
20
128.578393
11
347.641178
21
129.255236
0
LINE
8
Layer 1
10
347.641178
20
129.255236
11
346.864432
21
130.091049
0
LINE
8
Layer 1
10
346.864432
20
130.091049
11
346.039260
21
131.209130
0
LINE
8
Layer 1
10
346.039260
20
131.209130
11
345.064376
21
132.151048
0
LINE
8
Layer 1
10
345.064376
20
132.151048
11
343.953499
21
132.918228
0
LINE
8
Layer 1
10
343.953499
20
132.918228
11
342.720346
21
133.512097
0
LINE
8
Layer 1
10
342.720346
20
133.512097
11
341.378635
21
133.934079
0
LINE
8
Layer 1
10
341.378635
20
133.934079
11
339.942083
21
134.185602
0
LINE
8
Layer 1
10
339.942083
20
134.185602
11
338.424409
21
134.268091
0
LINE
8
Layer 1
10
338.424409
20
134.268091
11
336.839331
21
134.182971
0
LINE
8
Layer 1
10
336.839331
20
134.182971
11
335.200565
21
133.931670
0
LINE
8
Layer 1
10
335.200565
20
133.931670
11
333.521830
21
133.515613
0
LINE
8
Layer 1
10
333.521830
20
133.515613
11
330.099325
21
132.194933
0
LINE
8
Layer 1
10
330.099325
20
132.194933
11
326.681556
21
130.232341
0
LINE
8
Layer 1
10
326.681556
20
130.232341
11
325.008742
21
129.013892
0
LINE
8
Layer 1
10
325.008742
20
129.013892
11
323.378266
21
127.639243
0
LINE
8
Layer 1
10
323.378266
20
127.639243
11
320.053436
21
124.268559
0
LINE
8
Layer 1
10
320.053436
20
124.268559
11
318.776403
21
122.674317
0
LINE
8
Layer 1
10
318.776403
20
122.674317
11
317.755083
21
121.151863
0
LINE
8
Layer 1
10
317.755083
20
121.151863
11
316.988574
21
119.709488
0
LINE
8
Layer 1
10
316.988574
20
119.709488
11
316.475970
21
118.355482
0
LINE
8
Layer 1
10
316.475970
20
118.355482
11
316.216366
21
117.098136
0
LINE
8
Layer 1
10
316.216366
20
117.098136
11
316.208858
21
115.945740
0
LINE
8
Layer 1
10
316.208858
20
115.945740
11
316.452541
21
114.906586
0
LINE
8
Layer 1
10
316.452541
20
114.906586
11
316.946511
21
113.988962
0
LINE
8
Layer 1
10
316.946511
20
113.988962
11
317.689862
21
113.201161
0
LINE
8
Layer 1
10
317.689862
20
113.201161
11
318.681690
21
112.551473
0
LINE
8
Layer 1
10
318.681690
20
112.551473
11
319.921091
21
112.048188
0
LINE
8
Layer 1
10
319.921091
20
112.048188
11
321.407160
21
111.699597
0
LINE
8
Layer 1
10
321.407160
20
111.699597
11
323.138992
21
111.513991
0
LINE
8
Layer 1
10
323.138992
20
111.513991
11
325.115682
21
111.499660
0
LINE
8
Layer 1
10
325.115682
20
111.499660
11
327.517156
21
111.456957
0
LINE
8
Layer 1
10
327.517156
20
111.456957
11
329.545782
21
111.126433
0
LINE
8
Layer 1
10
329.545782
20
111.126433
11
331.231699
21
110.479507
0
LINE
8
Layer 1
10
331.231699
20
110.479507
11
332.605048
21
109.487594
0
LINE
8
Layer 1
10
332.605048
20
109.487594
11
333.695968
21
108.122110
0
LINE
8
Layer 1
10
333.695968
20
108.122110
11
334.534597
21
106.354474
0
LINE
8
Layer 1
10
334.534597
20
106.354474
11
335.151076
21
104.156102
0
LINE
8
Layer 1
10
335.151076
20
104.156102
11
335.575543
21
101.498410
0
LINE
8
Layer 1
10
335.575543
20
101.498410
11
335.654592
21
99.179501
0
LINE
8
Layer 1
10
335.654592
20
99.179501
11
335.350072
21
96.914954
0
LINE
8
Layer 1
10
335.350072
20
96.914954
11
334.671141
21
94.711026
0
LINE
8
Layer 1
10
334.671141
20
94.711026
11
333.626960
21
92.573972
0
LINE
8
Layer 1
10
333.626960
20
92.573972
11
332.226685
21
90.510049
0
LINE
8
Layer 1
10
332.226685
20
90.510049
11
330.479477
21
88.525512
0
LINE
8
Layer 1
10
330.479477
20
88.525512
11
328.394494
21
86.626618
0
LINE
8
Layer 1
10
328.394494
20
86.626618
11
325.980894
21
84.819622
0
LINE
8
Layer 1
10
325.980894
20
84.819622
11
323.247837
21
83.110780
0
LINE
8
Layer 1
10
323.247837
20
83.110780
11
320.204481
21
81.506349
0
LINE
8
Layer 1
10
320.204481
20
81.506349
11
316.859985
21
80.012584
0
LINE
8
Layer 1
10
316.859985
20
80.012584
11
313.223507
21
78.635742
0
LINE
8
Layer 1
10
313.223507
20
78.635742
11
309.304207
21
77.382078
0
LINE
8
Layer 1
10
309.304207
20
77.382078
11
305.111244
21
76.257848
0
LINE
8
Layer 1
10
305.111244
20
76.257848
11
300.653775
21
75.269309
0
LINE
8
Layer 1
10
300.653775
20
75.269309
11
295.940960
21
74.422715
0
LINE
8
Layer 1
10
295.940960
20
74.422715
11
290.737019
21
73.640326
0
LINE
8
Layer 1
10
290.737019
20
73.640326
11
286.701228
21
73.194015
0
LINE
8
Layer 1
10
286.701228
20
73.194015
11
283.687403
21
73.135078
0
LINE
8
Layer 1
10
283.687403
20
73.135078
11
282.518045
21
73.266906
0
LINE
8
Layer 1
10
282.518045
20
73.266906
11
281.549358
21
73.514813
0
LINE
8
Layer 1
10
281.549358
20
73.514813
11
280.763069
21
73.885212
0
LINE
8
Layer 1
10
280.763069
20
73.885212
11
280.140905
21
74.384515
0
LINE
8
Layer 1
10
280.140905
20
74.384515
11
279.664593
21
75.019135
0
LINE
8
Layer 1
10
279.664593
20
75.019135
11
279.315859
21
75.795482
0
LINE
8
Layer 1
10
279.315859
20
75.795482
11
278.928035
21
77.799010
0
LINE
8
Layer 1
10
278.928035
20
77.799010
11
278.831246
21
80.446396
0
LINE
8
Layer 1
10
278.831246
20
80.446396
11
278.953094
21
82.548055
0
LINE
8
Layer 1
10
278.953094
20
82.548055
11
279.322478
21
84.349177
0
LINE
8
Layer 1
10
279.322478
20
84.349177
11
279.945160
21
85.856023
0
LINE
8
Layer 1
10
279.945160
20
85.856023
11
280.826906
21
87.074855
0
LINE
8
Layer 1
10
280.826906
20
87.074855
11
281.973478
21
88.011936
0
LINE
8
Layer 1
10
281.973478
20
88.011936
11
283.390640
21
88.673527
0
LINE
8
Layer 1
10
283.390640
20
88.673527
11
285.084158
21
89.065889
0
LINE
8
Layer 1
10
285.084158
20
89.065889
11
287.059793
21
89.195285
0
LINE
8
Layer 1
10
287.059793
20
89.195285
11
288.790370
21
89.312776
0
LINE
8
Layer 1
10
288.790370
20
89.312776
11
290.319005
21
89.648461
0
LINE
8
Layer 1
10
290.319005
20
89.648461
11
291.642596
21
90.177159
0
LINE
8
Layer 1
10
291.642596
20
90.177159
11
292.758044
21
90.873687
0
LINE
8
Layer 1
10
292.758044
20
90.873687
11
293.662248
21
91.712862
0
LINE
8
Layer 1
10
293.662248
20
91.712862
11
294.352107
21
92.669503
0
LINE
8
Layer 1
10
294.352107
20
92.669503
11
294.824519
21
93.718428
0
LINE
8
Layer 1
10
294.824519
20
93.718428
11
295.076386
21
94.834455
0
LINE
8
Layer 1
10
295.076386
20
94.834455
11
295.104606
21
95.992400
0
LINE
8
Layer 1
10
295.104606
20
95.992400
11
294.906078
21
97.167083
0
LINE
8
Layer 1
10
294.906078
20
97.167083
11
294.477701
21
98.333322
0
LINE
8
Layer 1
10
294.477701
20
98.333322
11
293.816376
21
99.465933
0
LINE
8
Layer 1
10
293.816376
20
99.465933
11
292.919001
21
100.539735
0
LINE
8
Layer 1
10
292.919001
20
100.539735
11
291.782475
21
101.529546
0
LINE
8
Layer 1
10
291.782475
20
101.529546
11
290.403699
21
102.410183
0
LINE
8
Layer 1
10
290.403699
20
102.410183
11
288.779571
21
103.156465
0
LINE
8
Layer 1
10
288.779571
20
103.156465
11
284.820724
21
104.504344
0
LINE
8
Layer 1
10
284.820724
20
104.504344
11
283.046857
21
104.919722
0
LINE
8
Layer 1
10
283.046857
20
104.919722
11
281.359744
21
105.136495
0
LINE
8
Layer 1
10
281.359744
20
105.136495
11
279.721676
21
105.134989
0
LINE
8
Layer 1
10
279.721676
20
105.134989
11
278.094941
21
104.895531
0
LINE
8
Layer 1
10
278.094941
20
104.895531
11
276.441827
21
104.398447
0
LINE
8
Layer 1
10
276.441827
20
104.398447
11
274.724624
21
103.624065
0
LINE
8
Layer 1
10
274.724624
20
103.624065
11
272.905621
21
102.552709
0
LINE
8
Layer 1
10
272.905621
20
102.552709
11
270.947106
21
101.164708
0
LINE
8
Layer 1
10
270.947106
20
101.164708
11
266.460695
21
97.360074
0
LINE
8
Layer 1
10
266.460695
20
97.360074
11
260.963703
21
92.052775
0
LINE
8
Layer 1
10
260.963703
20
92.052775
11
254.154440
21
85.085424
0
LINE
8
Layer 1
10
254.154440
20
85.085424
11
248.286342
21
79.123279
0
LINE
8
Layer 1
10
248.286342
20
79.123279
11
243.306819
21
74.409742
0
LINE
8
Layer 1
10
243.306819
20
74.409742
11
238.973781
21
70.805293
0
LINE
8
Layer 1
10
238.973781
20
70.805293
11
235.045137
21
68.170410
0
LINE
8
Layer 1
10
235.045137
20
68.170410
11
233.156810
21
67.172955
0
LINE
8
Layer 1
10
233.156810
20
67.172955
11
231.278798
21
66.365572
0
LINE
8
Layer 1
10
231.278798
20
66.365572
11
229.380839
21
65.730819
0
LINE
8
Layer 1
10
229.380839
20
65.730819
11
227.432673
21
65.251258
0
LINE
8
Layer 1
10
227.432673
20
65.251258
11
223.264672
21
64.687947
0
LINE
8
Layer 1
10
223.264672
20
64.687947
11
218.532704
21
64.536118
0
LINE
8
Layer 1
10
218.532704
20
64.536118
11
213.986254
21
64.629714
0
LINE
8
Layer 1
10
213.986254
20
64.629714
11
209.526846
21
64.895021
0
LINE
8
Layer 1
10
209.526846
20
64.895021
11
205.158235
21
65.328804
0
LINE
8
Layer 1
10
205.158235
20
65.328804
11
200.884179
21
65.927825
0
LINE
8
Layer 1
10
200.884179
20
65.927825
11
196.708435
21
66.688846
0
LINE
8
Layer 1
10
196.708435
20
66.688846
11
192.634761
21
67.608631
0
LINE
8
Layer 1
10
192.634761
20
67.608631
11
188.666913
21
68.683941
0
LINE
8
Layer 1
10
188.666913
20
68.683941
11
184.808648
21
69.911541
0
LINE
8
Layer 1
10
184.808648
20
69.911541
11
181.063725
21
71.288193
0
LINE
8
Layer 1
10
181.063725
20
71.288193
11
177.435898
21
72.810659
0
LINE
8
Layer 1
10
177.435898
20
72.810659
11
173.928927
21
74.475702
0
LINE
8
Layer 1
10
173.928927
20
74.475702
11
170.546568
21
76.280086
0
LINE
8
Layer 1
10
170.546568
20
76.280086
11
167.292577
21
78.220573
0
LINE
8
Layer 1
10
167.292577
20
78.220573
11
164.170713
21
80.293925
0
LINE
8
Layer 1
10
164.170713
20
80.293925
11
161.184732
21
82.496906
0
LINE
8
Layer 1
10
161.184732
20
82.496906
11
158.338391
21
84.826278
0
LINE
8
Layer 1
10
158.338391
20
84.826278
11
155.635448
21
87.278804
0
LINE
8
Layer 1
10
155.635448
20
87.278804
11
153.079659
21
89.851248
0
LINE
8
Layer 1
10
153.079659
20
89.851248
11
150.674782
21
92.540371
0
LINE
8
Layer 1
10
150.674782
20
92.540371
11
148.424573
21
95.342936
0
LINE
8
Layer 1
10
148.424573
20
95.342936
11
146.332791
21
98.255707
0
LINE
8
Layer 1
10
146.332791
20
98.255707
11
144.403191
21
101.275446
0
LINE
8
Layer 1
10
144.403191
20
101.275446
11
142.639531
21
104.398916
0
LINE
8
Layer 1
10
142.639531
20
104.398916
11
141.045568
21
107.622879
0
LINE
8
Layer 1
10
141.045568
20
107.622879
11
139.625060
21
110.944100
0
LINE
8
Layer 1
10
139.625060
20
110.944100
11
138.381763
21
114.359339
0
LINE
8
Layer 1
10
138.381763
20
114.359339
11
137.319434
21
117.865360
0
LINE
8
Layer 1
10
137.319434
20
117.865360
11
136.441831
21
121.458926
0
LINE
8
Layer 1
10
136.441831
20
121.458926
11
135.752710
21
125.136800
0
LINE
8
Layer 1
10
135.752710
20
125.136800
11
135.255830
21
128.895745
0
LINE
8
Layer 1
10
135.255830
20
128.895745
11
134.954946
21
132.732522
0
LINE
8
Layer 1
10
134.954946
20
132.732522
11
134.853815
21
136.643896
0
LINE
8
Layer 1
10
134.853815
20
136.643896
11
135.122725
21
143.394427
0
LINE
8
Layer 1
10
135.122725
20
143.394427
11
135.467092
21
146.475545
0
LINE
8
Layer 1
10
135.467092
20
146.475545
11
135.958716
21
149.373745
0
LINE
8
Layer 1
10
135.958716
20
149.373745
11
136.603083
21
152.098911
0
LINE
8
Layer 1
10
136.603083
20
152.098911
11
137.405681
21
154.660930
0
LINE
8
Layer 1
10
137.405681
20
154.660930
11
138.371995
21
157.069686
0
LINE
8
Layer 1
10
138.371995
20
157.069686
11
139.507513
21
159.335064
0
LINE
8
Layer 1
10
139.507513
20
159.335064
11
140.817721
21
161.466950
0
LINE
8
Layer 1
10
140.817721
20
161.466950
11
142.308107
21
163.475228
0
LINE
8
Layer 1
10
142.308107
20
163.475228
11
143.984155
21
165.369785
0
LINE
8
Layer 1
10
143.984155
20
165.369785
11
145.851354
21
167.160504
0
LINE
8
Layer 1
10
145.851354
20
167.160504
11
147.915190
21
168.857272
0
LINE
8
Layer 1
10
147.915190
20
168.857272
11
150.181149
21
170.469973
0
LINE
8
Layer 1
10
150.181149
20
170.469973
11
152.654719
21
172.008492
0
LINE
8
Layer 1
10
152.654719
20
172.008492
11
155.341385
21
173.482715
0
LINE
8
Layer 1
10
155.341385
20
173.482715
11
161.142846
21
176.261707
0
LINE
8
Layer 1
10
161.142846
20
176.261707
11
163.756036
21
177.316738
0
LINE
8
Layer 1
10
163.756036
20
177.316738
11
166.205808
21
178.145665
0
LINE
8
Layer 1
10
166.205808
20
178.145665
11
168.513365
21
178.746138
0
LINE
8
Layer 1
10
168.513365
20
178.746138
11
170.699913
21
179.115811
0
LINE
8
Layer 1
10
170.699913
20
179.115811
11
172.786658
21
179.252337
0
LINE
8
Layer 1
10
172.786658
20
179.252337
11
174.794804
21
179.153369
0
LINE
8
Layer 1
10
174.794804
20
179.153369
11
176.745557
21
178.816559
0
LINE
8
Layer 1
10
176.745557
20
178.816559
11
178.660122
21
178.239560
0
LINE
8
Layer 1
10
178.660122
20
178.239560
11
180.559705
21
177.420025
0
LINE
8
Layer 1
10
180.559705
20
177.420025
11
182.465511
21
176.355607
0
LINE
8
Layer 1
10
182.465511
20
176.355607
11
184.398744
21
175.043959
0
LINE
8
Layer 1
10
184.398744
20
175.043959
11
186.380611
21
173.482733
0
LINE
8
Layer 1
10
186.380611
20
173.482733
11
190.575065
21
169.602160
0
LINE
8
Layer 1
10
190.575065
20
169.602160
11
200.673329
21
159.503896
0
LINE
8
Layer 1
10
200.673329
20
159.503896
11
200.673329
21
171.974590
0
LINE
8
Layer 1
10
200.673329
20
171.974590
11
200.484997
21
175.081292
0
LINE
8
Layer 1
10
200.484997
20
175.081292
11
199.920290
21
178.177021
0
LINE
8
Layer 1
10
199.920290
20
178.177021
11
198.979642
21
181.260798
0
LINE
8
Layer 1
10
198.979642
20
181.260798
11
197.663485
21
184.331645
0
LINE
8
Layer 1
10
197.663485
20
184.331645
11
195.972252
21
187.388586
0
LINE
8
Layer 1
10
195.972252
20
187.388586
11
193.906376
21
190.430642
0
LINE
8
Layer 1
10
193.906376
20
190.430642
11
191.466290
21
193.456835
0
LINE
8
Layer 1
10
191.466290
20
193.456835
11
188.652427
21
196.466188
0
LINE
8
Layer 1
10
188.652427
20
196.466188
11
184.632113
21
200.206550
0
LINE
8
Layer 1
10
184.632113
20
200.206550
11
182.665406
21
201.786498
0
LINE
8
Layer 1
10
182.665406
20
201.786498
11
180.681919
21
203.185977
0
LINE
8
Layer 1
10
180.681919
20
203.185977
11
178.647342
21
204.414750
0
LINE
8
Layer 1
10
178.647342
20
204.414750
11
176.527365
21
205.482582
0
LINE
8
Layer 1
10
176.527365
20
205.482582
11
174.287677
21
206.399236
0
LINE
8
Layer 1
10
174.287677
20
206.399236
11
171.893969
21
207.174477
0
LINE
8
Layer 1
10
171.893969
20
207.174477
11
169.311931
21
207.818069
0
LINE
8
Layer 1
10
169.311931
20
207.818069
11
166.507252
21
208.339777
0
LINE
8
Layer 1
10
166.507252
20
208.339777
11
160.092731
21
209.056593
0
LINE
8
Layer 1
10
160.092731
20
209.056593
11
152.375926
21
209.403040
0
LINE
8
Layer 1
10
152.375926
20
209.403040
11
143.082357
21
209.457229
0
LINE
8
Layer 1
10
143.082357
20
209.457229
11
141.504926
21
209.214954
0
LINE
8
Layer 1
10
141.504926
20
209.214954
11
138.730669
21
208.565298
0
LINE
8
Layer 1
10
138.730669
20
208.565298
11
131.158468
21
206.440979
0
LINE
8
Layer 1
10
131.158468
20
206.440979
11
128.068586
21
205.554001
0
LINE
8
Layer 1
10
128.068586
20
205.554001
11
125.746273
21
205.089140
0
LINE
8
Layer 1
10
125.746273
20
205.089140
11
124.850950
21
205.046965
0
LINE
8
Layer 1
10
124.850950
20
205.046965
11
124.121116
21
205.148675
0
LINE
8
Layer 1
10
124.121116
20
205.148675
11
123.547967
21
205.407052
0
LINE
8
Layer 1
10
123.547967
20
205.407052
11
123.122703
21
205.834883
0
LINE
8
Layer 1
10
123.122703
20
205.834883
11
122.836522
21
206.444952
0
LINE
8
Layer 1
10
122.836522
20
206.444952
11
122.680623
21
207.250044
0
LINE
8
Layer 1
10
122.680623
20
207.250044
11
122.724464
21
209.496435
0
LINE
8
Layer 1
10
122.724464
20
209.496435
11
123.183813
21
212.676335
0
LINE
8
Layer 1
10
123.183813
20
212.676335
11
123.988260
21
216.892021
0
LINE
8
Layer 1
10
123.988260
20
216.892021
11
125.387651
21
222.780749
0
LINE
8
Layer 1
10
125.387651
20
222.780749
11
127.068898
21
227.826956
0
LINE
8
Layer 1
10
127.068898
20
227.826956
11
128.019637
21
230.039638
0
LINE
8
Layer 1
10
128.019637
20
230.039638
11
129.046144
21
232.048320
0
LINE
8
Layer 1
10
129.046144
20
232.048320
11
130.150184
21
233.855211
0
LINE
8
Layer 1
10
130.150184
20
233.855211
11
131.333528
21
235.462520
0
LINE
8
Layer 1
10
131.333528
20
235.462520
11
132.597941
21
236.872459
0
LINE
8
Layer 1
10
132.597941
20
236.872459
11
133.945193
21
238.087236
0
LINE
8
Layer 1
10
133.945193
20
238.087236
11
135.377050
21
239.109061
0
LINE
8
Layer 1
10
135.377050
20
239.109061
11
136.895280
21
239.940144
0
LINE
8
Layer 1
10
136.895280
20
239.940144
11
138.501651
21
240.582696
0
LINE
8
Layer 1
10
138.501651
20
240.582696
11
140.197931
21
241.038925
0
LINE
8
Layer 1
10
140.197931
20
241.038925
11
141.985887
21
241.311042
0
LINE
8
Layer 1
10
141.985887
20
241.311042
11
143.867288
21
241.401257
0
LINE
8
Layer 1
10
143.867288
20
241.401257
11
146.023853
21
241.308657
0
LINE
8
Layer 1
10
146.023853
20
241.308657
11
147.696978
21
241.001484
0
LINE
8
Layer 1
10
147.696978
20
241.001484
11
148.910859
21
240.435674
0
LINE
8
Layer 1
10
148.910859
20
240.435674
11
149.689692
21
239.567168
0
LINE
8
Layer 1
10
149.689692
20
239.567168
11
150.057673
21
238.351903
0
LINE
8
Layer 1
10
150.057673
20
238.351903
11
150.038999
21
236.745817
0
LINE
8
Layer 1
10
150.038999
20
236.745817
11
149.657865
21
234.704849
0
LINE
8
Layer 1
10
149.657865
20
234.704849
11
148.938468
21
232.184938
0
LINE
8
Layer 1
10
148.938468
20
232.184938
11
147.594517
21
227.459166
0
LINE
8
Layer 1
10
147.594517
20
227.459166
11
147.423358
21
226.121898
0
LINE
8
Layer 1
10
147.423358
20
226.121898
11
147.626051
21
225.430949
0
LINE
8
Layer 1
10
147.626051
20
225.430949
11
147.876961
21
225.319073
0
LINE
8
Layer 1
10
147.876961
20
225.319073
11
148.232575
21
225.358251
0
LINE
8
Layer 1
10
148.232575
20
225.358251
11
149.272909
21
225.875734
0
LINE
8
Layer 1
10
149.272909
20
225.875734
11
152.774927
21
228.568965
0
LINE
8
Layer 1
10
152.774927
20
228.568965
11
154.133691
21
229.894793
0
LINE
8
Layer 1
10
154.133691
20
229.894793
11
155.401338
21
231.514741
0
LINE
8
Layer 1
10
155.401338
20
231.514741
11
156.550111
21
233.365906
0
LINE
8
Layer 1
10
156.550111
20
233.365906
11
157.552256
21
235.385384
0
LINE
8
Layer 1
10
157.552256
20
235.385384
11
158.380017
21
237.510271
0
LINE
8
Layer 1
10
158.380017
20
237.510271
11
159.005638
21
239.677662
0
LINE
8
Layer 1
10
159.005638
20
239.677662
11
159.401365
21
241.824653
0
LINE
8
Layer 1
10
159.401365
20
241.824653
11
159.539440
21
243.888340
0
LINE
8
Layer 1
10
159.539440
20
243.888340
11
159.336942
21
246.481874
0
LINE
8
Layer 1
10
159.336942
20
246.481874
11
158.748453
21
248.802004
0
LINE
8
Layer 1
10
158.748453
20
248.802004
11
157.802484
21
250.843738
0
LINE
8
Layer 1
10
157.802484
20
250.843738
11
156.527544
21
252.602080
0
LINE
8
Layer 1
10
156.527544
20
252.602080
11
154.952144
21
254.072036
0
LINE
8
Layer 1
10
154.952144
20
254.072036
11
153.104792
21
255.248613
0
LINE
8
Layer 1
10
153.104792
20
255.248613
11
151.014001
21
256.126815
0
LINE
8
Layer 1
10
151.014001
20
256.126815
11
148.708278
21
256.701648
0
LINE
8
Layer 1
10
148.708278
20
256.701648
11
146.216134
21
256.968118
0
LINE
8
Layer 1
10
146.216134
20
256.968118
11
143.566080
21
256.921232
0
LINE
8
Layer 1
10
143.566080
20
256.921232
11
140.786624
21
256.555993
0
LINE
8
Layer 1
10
140.786624
20
256.555993
11
137.906277
21
255.867409
0
LINE
8
Layer 1
10
137.906277
20
255.867409
11
134.953549
21
254.850485
0
LINE
8
Layer 1
10
134.953549
20
254.850485
11
131.956950
21
253.500227
0
LINE
8
Layer 1
10
131.956950
20
253.500227
11
128.944989
21
251.811639
0
LINE
8
Layer 1
10
128.944989
20
251.811639
11
125.946177
21
249.779729
0
LINE
8
Layer 1
10
125.946177
20
249.779729
11
119.101007
21
244.825785
0
LINE
8
Layer 1
10
119.101007
20
244.825785
11
117.102948
21
243.561416
0
LINE
8
Layer 1
10
117.102948
20
243.561416
11
115.946166
21
243.095735
0
LINE
8
Layer 1
10
115.946166
20
243.095735
11
115.657846
21
243.160125
0
LINE
8
Layer 1
10
115.657846
20
243.160125
11
115.549355
21
243.421456
0
LINE
8
Layer 1
10
115.549355
20
243.421456
11
115.831209
21
244.531293
0
LINE
8
Layer 1
10
115.831209
20
244.531293
11
118.105690
21
249.074174
0
LINE
8
Layer 1
10
118.105690
20
249.074174
11
119.150468
21
250.845354
0
LINE
8
Layer 1
10
119.150468
20
250.845354
11
120.392448
21
252.647265
0
LINE
8
Layer 1
10
120.392448
20
252.647265
11
123.282944
21
256.142840
0
LINE
8
Layer 1
10
123.282944
20
256.142840
11
126.407036
21
259.160020
0
LINE
8
Layer 1
10
126.407036
20
259.160020
11
127.941010
21
260.363936
0
LINE
8
Layer 1
10
127.941010
20
260.363936
11
129.394579
21
261.297924
0
LINE
8
Layer 1
10
129.394579
20
261.297924
11
130.978895
21
262.353034
0
LINE
8
Layer 1
10
130.978895
20
262.353034
11
132.025568
21
263.425217
0
LINE
8
Layer 1
10
132.025568
20
263.425217
11
132.564539
21
264.502717
0
LINE
8
Layer 1
10
132.564539
20
264.502717
11
132.625748
21
265.573779
0
LINE
8
Layer 1
10
132.625748
20
265.573779
11
132.239136
21
266.626646
0
LINE
8
Layer 1
10
132.239136
20
266.626646
11
131.434643
21
267.649563
0
LINE
8
Layer 1
10
131.434643
20
267.649563
11
130.242210
21
268.630773
0
LINE
8
Layer 1
10
130.242210
20
268.630773
11
128.691777
21
269.558521
0
LINE
8
Layer 1
10
128.691777
20
269.558521
11
126.813285
21
270.421051
0
LINE
8
Layer 1
10
126.813285
20
270.421051
11
124.636674
21
271.206606
0
LINE
8
Layer 1
10
124.636674
20
271.206606
11
122.191886
21
271.903431
0
LINE
8
Layer 1
10
122.191886
20
271.903431
11
119.508860
21
272.499770
0
LINE
8
Layer 1
10
119.508860
20
272.499770
11
116.617537
21
272.983867
0
LINE
8
Layer 1
10
116.617537
20
272.983867
11
113.547857
21
273.343966
0
LINE
8
Layer 1
10
113.547857
20
273.343966
11
110.329761
21
273.568312
0
LINE
8
Layer 1
10
110.329761
20
273.568312
11
106.993190
21
273.645147
0
LINE
8
Layer 1
10
106.993190
20
273.645147
11
104.999996
21
273.618689
0
LINE
8
Layer 1
10
104.999996
20
273.618689
11
103.006802
21
273.645147
0
LINE
8
Layer 1
10
103.006802
20
273.645147
11
103.006802
21
273.645147
 0 
ENDSEC
 0 
EOF
