999
"DXF R12 Output" (www.mydxf.blogspot.com)
 0 
SECTION
 2 
HEADER
 9 
$ACADVER
 1 
AC1009
 9 
$EXTMIN
 10 
 0 
 20 
 0 
 9 
$EXTMAX
 10 
 8.5 
 20 
 11 
 0 
ENDSEC
 0 
SECTION
 2 
ENTITIES
0
LINE
8
Layer 1
10
-213.293751
20
331.441740
11
-213.293751
21
-34.441721
0
LINE
8
Layer 1
10
-213.293751
20
-34.441721
11
104.947082
21
-34.441721
0
LINE
8
Layer 1
10
104.947082
20
-34.441721
11
105.052916
21
-34.441721
0
LINE
8
Layer 1
10
105.052916
20
-34.441721
11
423.293738
21
-34.441721
0
LINE
8
Layer 1
10
423.293738
20
-34.441721
11
423.293738
21
331.441740
0
LINE
8
Layer 1
10
423.293738
20
331.441740
11
105.052916
21
331.441740
0
LINE
8
Layer 1
10
105.052916
20
331.441740
11
104.947082
21
331.441740
0
LINE
8
Layer 1
10
104.947082
20
331.441740
11
-213.293751
21
331.441740
0
LINE
8
Layer 1
10
-213.293751
20
331.441740
11
-213.293751
21
331.441740
0
LINE
8
Layer 1
10
-181.878890
20
284.407642
11
-148.091598
21
284.407642
0
LINE
8
Layer 1
10
-148.091598
20
284.407642
11
-148.230172
21
283.978390
0
LINE
8
Layer 1
10
-148.230172
20
283.978390
11
-148.627343
21
283.437491
0
LINE
8
Layer 1
10
-148.627343
20
283.437491
11
-150.086165
21
282.110095
0
LINE
8
Layer 1
10
-150.086165
20
282.110095
11
-152.245447
21
280.604146
0
LINE
8
Layer 1
10
-152.245447
20
280.604146
11
-154.882571
21
279.098337
0
LINE
8
Layer 1
10
-154.882571
20
279.098337
11
-158.290498
21
277.083961
0
LINE
8
Layer 1
10
-158.290498
20
277.083961
11
-161.750394
21
274.568180
0
LINE
8
Layer 1
10
-161.750394
20
274.568180
11
-165.160633
21
271.657626
0
LINE
8
Layer 1
10
-165.160633
20
271.657626
11
-168.419591
21
268.458932
0
LINE
8
Layer 1
10
-168.419591
20
268.458932
11
-171.425645
21
265.078731
0
LINE
8
Layer 1
10
-171.425645
20
265.078731
11
-174.077171
21
261.623657
0
LINE
8
Layer 1
10
-174.077171
20
261.623657
11
-176.272544
21
258.200342
0
LINE
8
Layer 1
10
-176.272544
20
258.200342
11
-177.910140
21
254.915420
0
LINE
8
Layer 1
10
-177.910140
20
254.915420
11
-179.098174
21
252.276922
0
LINE
8
Layer 1
10
-179.098174
20
252.276922
11
-180.241618
21
250.114608
0
LINE
8
Layer 1
10
-180.241618
20
250.114608
11
-181.211510
21
248.652752
0
LINE
8
Layer 1
10
-181.211510
20
248.652752
11
-181.878890
21
248.115628
0
LINE
8
Layer 1
10
-181.878890
20
248.115628
11
-181.878890
21
284.407642
0
LINE
8
Layer 1
10
-181.878890
20
284.407642
11
-181.878890
21
284.407642
0
LINE
8
Layer 1
10
-123.785209
20
284.407642
11
21.118263
21
284.407642
0
LINE
8
Layer 1
10
21.118263
20
284.407642
11
13.119027
21
281.100350
0
LINE
8
Layer 1
10
13.119027
20
281.100350
11
4.934356
21
276.837554
0
LINE
8
Layer 1
10
4.934356
20
276.837554
11
-0.753959
21
273.568545
0
LINE
8
Layer 1
10
-0.753959
20
273.568545
11
-1.984027
21
272.817162
0
LINE
8
Layer 1
10
-1.984027
20
272.817162
11
-3.054658
21
272.339074
0
LINE
8
Layer 1
10
-3.054658
20
272.339074
11
-4.056943
21
272.162144
0
LINE
8
Layer 1
10
-4.056943
20
272.162144
11
-5.081977
21
272.314233
0
LINE
8
Layer 1
10
-5.081977
20
272.314233
11
-6.220852
21
272.823201
0
LINE
8
Layer 1
10
-6.220852
20
272.823201
11
-7.564662
21
273.716911
0
LINE
8
Layer 1
10
-7.564662
20
273.716911
11
-11.231459
21
276.770003
0
LINE
8
Layer 1
10
-11.231459
20
276.770003
11
-14.295622
21
279.143649
0
LINE
8
Layer 1
10
-14.295622
20
279.143649
11
-17.356273
21
280.899948
0
LINE
8
Layer 1
10
-17.356273
20
280.899948
11
-20.377929
21
282.036515
0
LINE
8
Layer 1
10
-20.377929
20
282.036515
11
-23.325104
21
282.550965
0
LINE
8
Layer 1
10
-23.325104
20
282.550965
11
-24.759673
21
282.574149
0
LINE
8
Layer 1
10
-24.759673
20
282.574149
11
-26.162315
21
282.440910
0
LINE
8
Layer 1
10
-26.162315
20
282.440910
11
-27.528594
21
282.150948
0
LINE
8
Layer 1
10
-27.528594
20
282.150948
11
-28.854075
21
281.703966
0
LINE
8
Layer 1
10
-28.854075
20
281.703966
11
-30.134322
21
281.099664
0
LINE
8
Layer 1
10
-30.134322
20
281.099664
11
-31.364901
21
280.337746
0
LINE
8
Layer 1
10
-31.364901
20
280.337746
11
-32.541374
21
279.417912
0
LINE
8
Layer 1
10
-32.541374
20
279.417912
11
-33.659307
21
278.339864
0
LINE
8
Layer 1
10
-33.659307
20
278.339864
11
-35.370029
21
276.300700
0
LINE
8
Layer 1
10
-35.370029
20
276.300700
11
-36.583774
21
274.385203
0
LINE
8
Layer 1
10
-36.583774
20
274.385203
11
-37.301335
21
272.639058
0
LINE
8
Layer 1
10
-37.301335
20
272.639058
11
-37.523504
21
271.107949
0
LINE
8
Layer 1
10
-37.523504
20
271.107949
11
-37.251072
21
269.837561
0
LINE
8
Layer 1
10
-37.251072
20
269.837561
11
-36.484833
21
268.873580
0
LINE
8
Layer 1
10
-36.484833
20
268.873580
11
-35.225577
21
268.261689
0
LINE
8
Layer 1
10
-35.225577
20
268.261689
11
-33.474098
21
268.047573
0
LINE
8
Layer 1
10
-33.474098
20
268.047573
11
-31.556369
21
267.825110
0
LINE
8
Layer 1
10
-31.556369
20
267.825110
11
-29.384176
21
267.219889
0
LINE
8
Layer 1
10
-29.384176
20
267.219889
11
-27.224062
21
266.325159
0
LINE
8
Layer 1
10
-27.224062
20
266.325159
11
-25.342570
21
265.234170
0
LINE
8
Layer 1
10
-25.342570
20
265.234170
11
-23.225534
21
263.591704
0
LINE
8
Layer 1
10
-23.225534
20
263.591704
11
-22.644530
21
262.902919
0
LINE
8
Layer 1
10
-22.644530
20
262.902919
11
-22.366545
21
262.218544
0
LINE
8
Layer 1
10
-22.366545
20
262.218544
11
-22.380086
21
261.475662
0
LINE
8
Layer 1
10
-22.380086
20
261.475662
11
-22.673659
21
260.611357
0
LINE
8
Layer 1
10
-22.673659
20
260.611357
11
-24.054931
21
258.266809
0
LINE
8
Layer 1
10
-24.054931
20
258.266809
11
-25.047493
21
256.925333
0
LINE
8
Layer 1
10
-25.047493
20
256.925333
11
-26.189724
21
255.688126
0
LINE
8
Layer 1
10
-26.189724
20
255.688126
11
-27.464944
21
254.559597
0
LINE
8
Layer 1
10
-27.464944
20
254.559597
11
-28.856472
21
253.544156
0
LINE
8
Layer 1
10
-28.856472
20
253.544156
11
-31.921735
21
251.870172
0
LINE
8
Layer 1
10
-31.921735
20
251.870172
11
-35.252072
21
250.701444
0
LINE
8
Layer 1
10
-35.252072
20
250.701444
11
-38.714042
21
250.073244
0
LINE
8
Layer 1
10
-38.714042
20
250.073244
11
-42.174205
21
250.020842
0
LINE
8
Layer 1
10
-42.174205
20
250.020842
11
-43.861909
21
250.221588
0
LINE
8
Layer 1
10
-43.861909
20
250.221588
11
-45.499121
21
250.579509
0
LINE
8
Layer 1
10
-45.499121
20
250.579509
11
-47.069161
21
251.099016
0
LINE
8
Layer 1
10
-47.069161
20
251.099016
11
-48.555348
21
251.784517
0
LINE
8
Layer 1
10
-48.555348
20
251.784517
11
-50.099265
21
252.884048
0
LINE
8
Layer 1
10
-50.099265
20
252.884048
11
-51.738855
21
254.504815
0
LINE
8
Layer 1
10
-51.738855
20
254.504815
11
-53.279382
21
256.427898
0
LINE
8
Layer 1
10
-53.279382
20
256.427898
11
-54.526112
21
258.434378
0
LINE
8
Layer 1
10
-54.526112
20
258.434378
11
-57.039654
21
263.223337
0
LINE
8
Layer 1
10
-57.039654
20
263.223337
11
-60.232293
21
258.346184
0
LINE
8
Layer 1
10
-60.232293
20
258.346184
11
-61.632456
21
255.719738
0
LINE
8
Layer 1
10
-61.632456
20
255.719738
11
-62.112715
21
254.354949
0
LINE
8
Layer 1
10
-62.112715
20
254.354949
11
-62.451060
21
252.931016
0
LINE
8
Layer 1
10
-62.451060
20
252.931016
11
-62.715906
21
249.831422
0
LINE
8
Layer 1
10
-62.715906
20
249.831422
11
-62.454793
21
246.272365
0
LINE
8
Layer 1
10
-62.454793
20
246.272365
11
-61.493473
21
239.066878
0
LINE
8
Layer 1
10
-61.493473
20
239.066878
11
-69.016459
21
239.207990
0
LINE
8
Layer 1
10
-69.016459
20
239.207990
11
-75.127933
21
239.601494
0
LINE
8
Layer 1
10
-75.127933
20
239.601494
11
-77.607577
21
239.948543
0
LINE
8
Layer 1
10
-77.607577
20
239.948543
11
-79.255834
21
240.345698
0
LINE
8
Layer 1
10
-79.255834
20
240.345698
11
-81.365342
21
241.321715
0
LINE
8
Layer 1
10
-81.365342
20
241.321715
11
-83.368057
21
242.637007
0
LINE
8
Layer 1
10
-83.368057
20
242.637007
11
-85.210202
21
244.224725
0
LINE
8
Layer 1
10
-85.210202
20
244.224725
11
-86.838001
21
246.018020
0
LINE
8
Layer 1
10
-86.838001
20
246.018020
11
-88.197678
21
247.950044
0
LINE
8
Layer 1
10
-88.197678
20
247.950044
11
-89.235456
21
249.953948
0
LINE
8
Layer 1
10
-89.235456
20
249.953948
11
-89.897558
21
251.962884
0
LINE
8
Layer 1
10
-89.897558
20
251.962884
11
-90.130209
21
253.910003
0
LINE
8
Layer 1
10
-90.130209
20
253.910003
11
-90.045276
21
256.774282
0
LINE
8
Layer 1
10
-90.045276
20
256.774282
11
-89.870500
21
257.574736
0
LINE
8
Layer 1
10
-89.870500
20
257.574736
11
-89.546532
21
257.987553
0
LINE
8
Layer 1
10
-89.546532
20
257.987553
11
-89.027634
21
258.037852
0
LINE
8
Layer 1
10
-89.027634
20
258.037852
11
-88.268065
21
257.750747
0
LINE
8
Layer 1
10
-88.268065
20
257.750747
11
-85.843959
21
256.264795
0
LINE
8
Layer 1
10
-85.843959
20
256.264795
11
-83.723817
21
255.210562
0
LINE
8
Layer 1
10
-83.723817
20
255.210562
11
-81.482224
21
254.693910
0
LINE
8
Layer 1
10
-81.482224
20
254.693910
11
-79.199930
21
254.688629
0
LINE
8
Layer 1
10
-79.199930
20
254.688629
11
-76.957687
21
255.168506
0
LINE
8
Layer 1
10
-76.957687
20
255.168506
11
-74.836245
21
256.107329
0
LINE
8
Layer 1
10
-74.836245
20
256.107329
11
-72.916355
21
257.478885
0
LINE
8
Layer 1
10
-72.916355
20
257.478885
11
-71.278769
21
259.256963
0
LINE
8
Layer 1
10
-71.278769
20
259.256963
11
-70.004237
21
261.415351
0
LINE
8
Layer 1
10
-70.004237
20
261.415351
11
-69.586503
21
262.543807
0
LINE
8
Layer 1
10
-69.586503
20
262.543807
11
-69.330407
21
263.723479
0
LINE
8
Layer 1
10
-69.330407
20
263.723479
11
-69.229627
21
264.942334
0
LINE
8
Layer 1
10
-69.229627
20
264.942334
11
-69.277841
21
266.188338
0
LINE
8
Layer 1
10
-69.277841
20
266.188338
11
-69.795959
21
268.713660
0
LINE
8
Layer 1
10
-69.795959
20
268.713660
11
-70.834178
21
271.203178
0
LINE
8
Layer 1
10
-70.834178
20
271.203178
11
-72.341920
21
273.560624
0
LINE
8
Layer 1
10
-72.341920
20
273.560624
11
-74.268601
21
275.689729
0
LINE
8
Layer 1
10
-74.268601
20
275.689729
11
-76.563641
21
277.494228
0
LINE
8
Layer 1
10
-76.563641
20
277.494228
11
-79.176459
21
278.877850
0
LINE
8
Layer 1
10
-79.176459
20
278.877850
11
-82.077737
21
279.774477
0
LINE
8
Layer 1
10
-82.077737
20
279.774477
11
-83.511963
21
279.990034
0
LINE
8
Layer 1
10
-83.511963
20
279.990034
11
-84.932344
21
280.051782
0
LINE
8
Layer 1
10
-84.932344
20
280.051782
11
-86.336707
21
279.960744
0
LINE
8
Layer 1
10
-86.336707
20
279.960744
11
-87.722873
21
279.717941
0
LINE
8
Layer 1
10
-87.722873
20
279.717941
11
-90.431913
21
278.781128
0
LINE
8
Layer 1
10
-90.431913
20
278.781128
11
-93.042055
21
277.249518
0
LINE
8
Layer 1
10
-93.042055
20
277.249518
11
-95.535890
21
275.131283
0
LINE
8
Layer 1
10
-95.535890
20
275.131283
11
-97.896008
21
272.434600
0
LINE
8
Layer 1
10
-97.896008
20
272.434600
11
-100.105001
21
269.167642
0
LINE
8
Layer 1
10
-100.105001
20
269.167642
11
-101.844413
21
266.420456
0
LINE
8
Layer 1
10
-101.844413
20
266.420456
11
-103.273045
21
264.457110
0
LINE
8
Layer 1
10
-103.273045
20
264.457110
11
-104.242134
21
263.459967
0
LINE
8
Layer 1
10
-104.242134
20
263.459967
11
-104.507862
21
263.380711
0
LINE
8
Layer 1
10
-104.507862
20
263.380711
11
-104.602918
21
263.611392
0
LINE
8
Layer 1
10
-104.602918
20
263.611392
11
-104.773418
21
264.351586
0
LINE
8
Layer 1
10
-104.773418
20
264.351586
11
-105.250160
21
265.362886
0
LINE
8
Layer 1
10
-105.250160
20
265.362886
11
-106.977409
21
268.030381
0
LINE
8
Layer 1
10
-106.977409
20
268.030381
11
-109.494738
21
271.277024
0
LINE
8
Layer 1
10
-109.494738
20
271.277024
11
-112.512222
21
274.765964
0
LINE
8
Layer 1
10
-112.512222
20
274.765964
11
-115.739936
21
278.160348
0
LINE
8
Layer 1
10
-115.739936
20
278.160348
11
-118.887956
21
281.123324
0
LINE
8
Layer 1
10
-118.887956
20
281.123324
11
-121.666355
21
283.318039
0
LINE
8
Layer 1
10
-121.666355
20
283.318039
11
-122.826346
21
284.022033
0
LINE
8
Layer 1
10
-122.826346
20
284.022033
11
-123.785209
21
284.407642
0
LINE
8
Layer 1
10
-123.785209
20
284.407642
11
-123.785209
21
284.407642
0
LINE
8
Layer 1
10
39.074652
20
284.407642
11
98.552985
21
284.407642
0
LINE
8
Layer 1
10
98.552985
20
284.407642
11
96.435168
21
282.690311
0
LINE
8
Layer 1
10
96.435168
20
282.690311
11
94.524463
21
280.908472
0
LINE
8
Layer 1
10
94.524463
20
280.908472
11
92.801594
21
279.064634
0
LINE
8
Layer 1
10
92.801594
20
279.064634
11
91.247286
21
277.161305
0
LINE
8
Layer 1
10
91.247286
20
277.161305
11
88.567245
21
273.186203
0
LINE
8
Layer 1
10
88.567245
20
273.186203
11
86.330136
21
269.003230
0
LINE
8
Layer 1
10
86.330136
20
269.003230
11
84.381751
21
264.632449
0
LINE
8
Layer 1
10
84.381751
20
264.632449
11
82.567883
21
260.093924
0
LINE
8
Layer 1
10
82.567883
20
260.093924
11
80.734326
21
255.407717
0
LINE
8
Layer 1
10
80.734326
20
255.407717
11
78.726874
21
250.593892
0
LINE
8
Layer 1
10
78.726874
20
250.593892
11
77.473711
21
252.912657
0
LINE
8
Layer 1
10
77.473711
20
252.912657
11
76.086459
21
255.157887
0
LINE
8
Layer 1
10
76.086459
20
255.157887
11
72.950568
21
259.435544
0
LINE
8
Layer 1
10
72.950568
20
259.435544
11
69.400958
21
263.442476
0
LINE
8
Layer 1
10
69.400958
20
263.442476
11
65.519386
21
267.194293
0
LINE
8
Layer 1
10
65.519386
20
267.194293
11
61.387608
21
270.706607
0
LINE
8
Layer 1
10
61.387608
20
270.706607
11
57.087382
21
273.995029
0
LINE
8
Layer 1
10
57.087382
20
273.995029
11
52.700463
21
277.075170
0
LINE
8
Layer 1
10
52.700463
20
277.075170
11
48.308610
21
279.962642
0
LINE
8
Layer 1
10
48.308610
20
279.962642
11
39.074652
21
284.407642
0
LINE
8
Layer 1
10
39.074652
20
284.407642
11
39.074652
21
284.407642
0
LINE
8
Layer 1
10
111.447013
20
284.407642
11
170.925346
21
284.407642
0
LINE
8
Layer 1
10
170.925346
20
284.407642
11
161.691388
21
279.962642
0
LINE
8
Layer 1
10
161.691388
20
279.962642
11
157.299534
21
277.075170
0
LINE
8
Layer 1
10
157.299534
20
277.075170
11
152.912616
21
273.995029
0
LINE
8
Layer 1
10
152.912616
20
273.995029
11
148.612390
21
270.706607
0
LINE
8
Layer 1
10
148.612390
20
270.706607
11
144.480612
21
267.194293
0
LINE
8
Layer 1
10
144.480612
20
267.194293
11
140.599040
21
263.442476
0
LINE
8
Layer 1
10
140.599040
20
263.442476
11
137.049430
21
259.435544
0
LINE
8
Layer 1
10
137.049430
20
259.435544
11
133.913539
21
255.157887
0
LINE
8
Layer 1
10
133.913539
20
255.157887
11
132.526287
21
252.912657
0
LINE
8
Layer 1
10
132.526287
20
252.912657
11
131.273124
21
250.593892
0
LINE
8
Layer 1
10
131.273124
20
250.593892
11
129.265671
21
255.407717
0
LINE
8
Layer 1
10
129.265671
20
255.407717
11
127.432114
21
260.093924
0
LINE
8
Layer 1
10
127.432114
20
260.093924
11
125.618245
21
264.632449
0
LINE
8
Layer 1
10
125.618245
20
264.632449
11
123.669860
21
269.003230
0
LINE
8
Layer 1
10
123.669860
20
269.003230
11
121.432750
21
273.186203
0
LINE
8
Layer 1
10
121.432750
20
273.186203
11
118.752710
21
277.161305
0
LINE
8
Layer 1
10
118.752710
20
277.161305
11
117.198401
21
279.064634
0
LINE
8
Layer 1
10
117.198401
20
279.064634
11
115.475533
21
280.908472
0
LINE
8
Layer 1
10
115.475533
20
280.908472
11
113.564829
21
282.690311
0
LINE
8
Layer 1
10
113.564829
20
282.690311
11
111.447013
21
284.407642
0
LINE
8
Layer 1
10
111.447013
20
284.407642
11
111.447013
21
284.407642
0
LINE
8
Layer 1
10
188.881735
20
284.407642
11
333.785210
21
284.407642
0
LINE
8
Layer 1
10
333.785210
20
284.407642
11
332.826344
21
284.022033
0
LINE
8
Layer 1
10
332.826344
20
284.022033
11
331.666351
21
283.318039
0
LINE
8
Layer 1
10
331.666351
20
283.318039
11
328.887948
21
281.123324
0
LINE
8
Layer 1
10
328.887948
20
281.123324
11
325.739924
21
278.160348
0
LINE
8
Layer 1
10
325.739924
20
278.160348
11
322.512207
21
274.765964
0
LINE
8
Layer 1
10
322.512207
20
274.765964
11
319.494720
21
271.277024
0
LINE
8
Layer 1
10
319.494720
20
271.277024
11
316.977391
21
268.030381
0
LINE
8
Layer 1
10
316.977391
20
268.030381
11
315.250144
21
265.362886
0
LINE
8
Layer 1
10
315.250144
20
265.362886
11
314.773403
21
264.351586
0
LINE
8
Layer 1
10
314.773403
20
264.351586
11
314.602904
21
263.611392
0
LINE
8
Layer 1
10
314.602904
20
263.611392
11
314.507846
21
263.380711
0
LINE
8
Layer 1
10
314.507846
20
263.380711
11
314.242116
21
263.459967
0
LINE
8
Layer 1
10
314.242116
20
263.459967
11
313.273024
21
264.457110
0
LINE
8
Layer 1
10
313.273024
20
264.457110
11
311.844393
21
266.420456
0
LINE
8
Layer 1
10
311.844393
20
266.420456
11
310.104988
21
269.167642
0
LINE
8
Layer 1
10
310.104988
20
269.167642
11
307.895992
21
272.434600
0
LINE
8
Layer 1
10
307.895992
20
272.434600
11
305.535874
21
275.131283
0
LINE
8
Layer 1
10
305.535874
20
275.131283
11
303.042041
21
277.249518
0
LINE
8
Layer 1
10
303.042041
20
277.249518
11
300.431902
21
278.781128
0
LINE
8
Layer 1
10
300.431902
20
278.781128
11
297.722866
21
279.717941
0
LINE
8
Layer 1
10
297.722866
20
279.717941
11
296.336702
21
279.960744
0
LINE
8
Layer 1
10
296.336702
20
279.960744
11
294.932341
21
280.051782
0
LINE
8
Layer 1
10
294.932341
20
280.051782
11
293.511961
21
279.990034
0
LINE
8
Layer 1
10
293.511961
20
279.990034
11
292.077736
21
279.774477
0
LINE
8
Layer 1
10
292.077736
20
279.774477
11
289.176460
21
278.877850
0
LINE
8
Layer 1
10
289.176460
20
278.877850
11
286.563642
21
277.494228
0
LINE
8
Layer 1
10
286.563642
20
277.494228
11
284.268601
21
275.689729
0
LINE
8
Layer 1
10
284.268601
20
275.689729
11
282.341919
21
273.560624
0
LINE
8
Layer 1
10
282.341919
20
273.560624
11
280.834176
21
271.203178
0
LINE
8
Layer 1
10
280.834176
20
271.203178
11
279.795955
21
268.713660
0
LINE
8
Layer 1
10
279.795955
20
268.713660
11
279.277837
21
266.188338
0
LINE
8
Layer 1
10
279.277837
20
266.188338
11
279.229623
21
264.942334
0
LINE
8
Layer 1
10
279.229623
20
264.942334
11
279.330403
21
263.723479
0
LINE
8
Layer 1
10
279.330403
20
263.723479
11
279.586499
21
262.543807
0
LINE
8
Layer 1
10
279.586499
20
262.543807
11
280.004235
21
261.415351
0
LINE
8
Layer 1
10
280.004235
20
261.415351
11
281.278770
21
259.256963
0
LINE
8
Layer 1
10
281.278770
20
259.256963
11
282.916358
21
257.478885
0
LINE
8
Layer 1
10
282.916358
20
257.478885
11
284.836248
21
256.107329
0
LINE
8
Layer 1
10
284.836248
20
256.107329
11
286.957689
21
255.168506
0
LINE
8
Layer 1
10
286.957689
20
255.168506
11
289.199928
21
254.688629
0
LINE
8
Layer 1
10
289.199928
20
254.688629
11
291.482216
21
254.693910
0
LINE
8
Layer 1
10
291.482216
20
254.693910
11
293.723801
21
255.210562
0
LINE
8
Layer 1
10
293.723801
20
255.210562
11
295.843932
21
256.264795
0
LINE
8
Layer 1
10
295.843932
20
256.264795
11
298.268057
21
257.750747
0
LINE
8
Layer 1
10
298.268057
20
257.750747
11
299.027627
21
258.037852
0
LINE
8
Layer 1
10
299.027627
20
258.037852
11
299.546525
21
257.987553
0
LINE
8
Layer 1
10
299.546525
20
257.987553
11
299.870491
21
257.574736
0
LINE
8
Layer 1
10
299.870491
20
257.574736
11
300.045266
21
256.774282
0
LINE
8
Layer 1
10
300.045266
20
256.774282
11
300.130210
21
253.910003
0
LINE
8
Layer 1
10
300.130210
20
253.910003
11
299.897558
21
251.962884
0
LINE
8
Layer 1
10
299.897558
20
251.962884
11
299.235453
21
249.953948
0
LINE
8
Layer 1
10
299.235453
20
249.953948
11
298.197672
21
247.950044
0
LINE
8
Layer 1
10
298.197672
20
247.950044
11
296.837993
21
246.018020
0
LINE
8
Layer 1
10
296.837993
20
246.018020
11
295.210191
21
244.224725
0
LINE
8
Layer 1
10
295.210191
20
244.224725
11
293.368043
21
242.637007
0
LINE
8
Layer 1
10
293.368043
20
242.637007
11
291.365328
21
241.321715
0
LINE
8
Layer 1
10
291.365328
20
241.321715
11
289.255821
21
240.345698
0
LINE
8
Layer 1
10
289.255821
20
240.345698
11
287.607565
21
239.948543
0
LINE
8
Layer 1
10
287.607565
20
239.948543
11
285.127925
21
239.601494
0
LINE
8
Layer 1
10
285.127925
20
239.601494
11
279.016457
21
239.207990
0
LINE
8
Layer 1
10
279.016457
20
239.207990
11
271.493471
21
239.066878
0
LINE
8
Layer 1
10
271.493471
20
239.066878
11
272.454791
21
246.272365
0
LINE
8
Layer 1
10
272.454791
20
246.272365
11
272.715903
21
249.831422
0
LINE
8
Layer 1
10
272.715903
20
249.831422
11
272.451056
21
252.931016
0
LINE
8
Layer 1
10
272.451056
20
252.931016
11
272.112710
21
254.354949
0
LINE
8
Layer 1
10
272.112710
20
254.354949
11
271.632451
21
255.719738
0
LINE
8
Layer 1
10
271.632451
20
255.719738
11
270.232291
21
258.346184
0
LINE
8
Layer 1
10
270.232291
20
258.346184
11
267.039652
21
263.223337
0
LINE
8
Layer 1
10
267.039652
20
263.223337
11
264.526110
21
258.434378
0
LINE
8
Layer 1
10
264.526110
20
258.434378
11
263.279379
21
256.427898
0
LINE
8
Layer 1
10
263.279379
20
256.427898
11
261.738850
21
254.504815
0
LINE
8
Layer 1
10
261.738850
20
254.504815
11
260.099260
21
252.884048
0
LINE
8
Layer 1
10
260.099260
20
252.884048
11
258.555346
21
251.784517
0
LINE
8
Layer 1
10
258.555346
20
251.784517
11
257.069158
21
251.099016
0
LINE
8
Layer 1
10
257.069158
20
251.099016
11
255.499119
21
250.579509
0
LINE
8
Layer 1
10
255.499119
20
250.579509
11
253.861906
21
250.221588
0
LINE
8
Layer 1
10
253.861906
20
250.221588
11
252.174202
21
250.020842
0
LINE
8
Layer 1
10
252.174202
20
250.020842
11
248.714038
21
250.073244
0
LINE
8
Layer 1
10
248.714038
20
250.073244
11
245.252067
21
250.701444
0
LINE
8
Layer 1
10
245.252067
20
250.701444
11
241.921730
21
251.870172
0
LINE
8
Layer 1
10
241.921730
20
251.870172
11
238.856468
21
253.544156
0
LINE
8
Layer 1
10
238.856468
20
253.544156
11
237.464940
21
254.559597
0
LINE
8
Layer 1
10
237.464940
20
254.559597
11
236.189721
21
255.688126
0
LINE
8
Layer 1
10
236.189721
20
255.688126
11
235.047490
21
256.925333
0
LINE
8
Layer 1
10
235.047490
20
256.925333
11
234.054929
21
258.266809
0
LINE
8
Layer 1
10
234.054929
20
258.266809
11
232.673657
21
260.611357
0
LINE
8
Layer 1
10
232.673657
20
260.611357
11
232.380082
21
261.475662
0
LINE
8
Layer 1
10
232.380082
20
261.475662
11
232.366541
21
262.218544
0
LINE
8
Layer 1
10
232.366541
20
262.218544
11
232.644525
21
262.902919
0
LINE
8
Layer 1
10
232.644525
20
262.902919
11
233.225529
21
263.591704
0
LINE
8
Layer 1
10
233.225529
20
263.591704
11
235.342568
21
265.234170
0
LINE
8
Layer 1
10
235.342568
20
265.234170
11
237.224059
21
266.325159
0
LINE
8
Layer 1
10
237.224059
20
266.325159
11
239.384171
21
267.219889
0
LINE
8
Layer 1
10
239.384171
20
267.219889
11
241.556364
21
267.825110
0
LINE
8
Layer 1
10
241.556364
20
267.825110
11
243.474096
21
268.047573
0
LINE
8
Layer 1
10
243.474096
20
268.047573
11
245.225575
21
268.261689
0
LINE
8
Layer 1
10
245.225575
20
268.261689
11
246.484830
21
268.873580
0
LINE
8
Layer 1
10
246.484830
20
268.873580
11
247.251069
21
269.837561
0
LINE
8
Layer 1
10
247.251069
20
269.837561
11
247.523500
21
271.107949
0
LINE
8
Layer 1
10
247.523500
20
271.107949
11
247.301331
21
272.639058
0
LINE
8
Layer 1
10
247.301331
20
272.639058
11
246.583770
21
274.385203
0
LINE
8
Layer 1
10
246.583770
20
274.385203
11
245.370025
21
276.300700
0
LINE
8
Layer 1
10
245.370025
20
276.300700
11
243.659304
21
278.339864
0
LINE
8
Layer 1
10
243.659304
20
278.339864
11
242.541372
21
279.417912
0
LINE
8
Layer 1
10
242.541372
20
279.417912
11
241.364898
21
280.337746
0
LINE
8
Layer 1
10
241.364898
20
280.337746
11
240.134320
21
281.099664
0
LINE
8
Layer 1
10
240.134320
20
281.099664
11
238.854072
21
281.703966
0
LINE
8
Layer 1
10
238.854072
20
281.703966
11
237.528591
21
282.150948
0
LINE
8
Layer 1
10
237.528591
20
282.150948
11
236.162311
21
282.440910
0
LINE
8
Layer 1
10
236.162311
20
282.440910
11
234.759669
21
282.574149
0
LINE
8
Layer 1
10
234.759669
20
282.574149
11
233.325100
21
282.550965
0
LINE
8
Layer 1
10
233.325100
20
282.550965
11
230.377925
21
282.036515
0
LINE
8
Layer 1
10
230.377925
20
282.036515
11
227.356269
21
280.899948
0
LINE
8
Layer 1
10
227.356269
20
280.899948
11
224.295618
21
279.143649
0
LINE
8
Layer 1
10
224.295618
20
279.143649
11
221.231457
21
276.770003
0
LINE
8
Layer 1
10
221.231457
20
276.770003
11
217.564659
21
273.716911
0
LINE
8
Layer 1
10
217.564659
20
273.716911
11
216.220848
21
272.823201
0
LINE
8
Layer 1
10
216.220848
20
272.823201
11
215.081972
21
272.314233
0
LINE
8
Layer 1
10
215.081972
20
272.314233
11
214.056938
21
272.162144
0
LINE
8
Layer 1
10
214.056938
20
272.162144
11
213.054653
21
272.339074
0
LINE
8
Layer 1
10
213.054653
20
272.339074
11
211.984024
21
272.817162
0
LINE
8
Layer 1
10
211.984024
20
272.817162
11
210.753957
21
273.568545
0
LINE
8
Layer 1
10
210.753957
20
273.568545
11
205.065640
21
276.837554
0
LINE
8
Layer 1
10
205.065640
20
276.837554
11
196.880971
21
281.100350
0
LINE
8
Layer 1
10
196.880971
20
281.100350
11
188.881735
21
284.407642
0
LINE
8
Layer 1
10
188.881735
20
284.407642
11
188.881735
21
284.407642
0
LINE
8
Layer 1
10
358.091599
20
284.407642
11
391.878876
21
284.407642
0
LINE
8
Layer 1
10
391.878876
20
284.407642
11
391.878876
21
248.115628
0
LINE
8
Layer 1
10
391.878876
20
248.115628
11
391.211495
21
248.652752
0
LINE
8
Layer 1
10
391.211495
20
248.652752
11
390.241603
21
250.114608
0
LINE
8
Layer 1
10
390.241603
20
250.114608
11
389.098160
21
252.276922
0
LINE
8
Layer 1
10
389.098160
20
252.276922
11
387.910126
21
254.915420
0
LINE
8
Layer 1
10
387.910126
20
254.915420
11
386.272530
21
258.200342
0
LINE
8
Layer 1
10
386.272530
20
258.200342
11
384.077156
21
261.623657
0
LINE
8
Layer 1
10
384.077156
20
261.623657
11
381.425628
21
265.078731
0
LINE
8
Layer 1
10
381.425628
20
265.078731
11
378.419572
21
268.458932
0
LINE
8
Layer 1
10
378.419572
20
268.458932
11
375.160610
21
271.657626
0
LINE
8
Layer 1
10
375.160610
20
271.657626
11
371.750369
21
274.568180
0
LINE
8
Layer 1
10
371.750369
20
274.568180
11
368.290471
21
277.083961
0
LINE
8
Layer 1
10
368.290471
20
277.083961
11
364.882543
21
279.098337
0
LINE
8
Layer 1
10
364.882543
20
279.098337
11
362.245436
21
280.604146
0
LINE
8
Layer 1
10
362.245436
20
280.604146
11
360.086155
21
282.110095
0
LINE
8
Layer 1
10
360.086155
20
282.110095
11
358.627333
21
283.437491
0
LINE
8
Layer 1
10
358.627333
20
283.437491
11
358.230165
21
283.978390
0
LINE
8
Layer 1
10
358.230165
20
283.978390
11
358.091599
21
284.407642
0
LINE
8
Layer 1
10
358.091599
20
284.407642
11
358.091599
21
284.407642
0
LINE
8
Layer 1
10
104.999999
20
274.335837
11
107.440046
21
271.522975
0
LINE
8
Layer 1
10
107.440046
20
271.522975
11
109.748074
21
268.312841
0
LINE
8
Layer 1
10
109.748074
20
268.312841
11
111.854913
21
264.686499
0
LINE
8
Layer 1
10
111.854913
20
264.686499
11
113.691394
21
260.625014
0
LINE
8
Layer 1
10
113.691394
20
260.625014
11
115.188348
21
256.109453
0
LINE
8
Layer 1
10
115.188348
20
256.109453
11
116.276604
21
251.120880
0
LINE
8
Layer 1
10
116.276604
20
251.120880
11
116.886993
21
245.640361
0
LINE
8
Layer 1
10
116.886993
20
245.640361
11
116.950346
21
239.648962
0
LINE
8
Layer 1
10
116.950346
20
239.648962
11
116.040173
21
235.961568
0
LINE
8
Layer 1
10
116.040173
20
235.961568
11
114.694464
21
231.989601
0
LINE
8
Layer 1
10
114.694464
20
231.989601
11
113.047613
21
227.969020
0
LINE
8
Layer 1
10
113.047613
20
227.969020
11
111.234014
21
224.135786
0
LINE
8
Layer 1
10
111.234014
20
224.135786
11
109.388060
21
220.725856
0
LINE
8
Layer 1
10
109.388060
20
220.725856
11
107.644144
21
217.975190
0
LINE
8
Layer 1
10
107.644144
20
217.975190
11
106.136659
21
216.119748
0
LINE
8
Layer 1
10
106.136659
20
216.119748
11
105.513576
21
215.601474
0
LINE
8
Layer 1
10
105.513576
20
215.601474
11
104.999999
21
215.395490
0
LINE
8
Layer 1
10
104.999999
20
215.395490
11
104.486421
21
215.601474
0
LINE
8
Layer 1
10
104.486421
20
215.601474
11
103.863338
21
216.119748
0
LINE
8
Layer 1
10
103.863338
20
216.119748
11
102.355853
21
217.975190
0
LINE
8
Layer 1
10
102.355853
20
217.975190
11
100.611937
21
220.725856
0
LINE
8
Layer 1
10
100.611937
20
220.725856
11
98.765982
21
224.135786
0
LINE
8
Layer 1
10
98.765982
20
224.135786
11
96.952383
21
227.969020
0
LINE
8
Layer 1
10
96.952383
20
227.969020
11
95.305533
21
231.989601
0
LINE
8
Layer 1
10
95.305533
20
231.989601
11
93.959825
21
235.961568
0
LINE
8
Layer 1
10
93.959825
20
235.961568
11
93.049652
21
239.648962
0
LINE
8
Layer 1
10
93.049652
20
239.648962
11
93.113005
21
245.640361
0
LINE
8
Layer 1
10
93.113005
20
245.640361
11
93.723395
21
251.120880
0
LINE
8
Layer 1
10
93.723395
20
251.120880
11
94.811651
21
256.109453
0
LINE
8
Layer 1
10
94.811651
20
256.109453
11
96.308604
21
260.625014
0
LINE
8
Layer 1
10
96.308604
20
260.625014
11
98.145085
21
264.686499
0
LINE
8
Layer 1
10
98.145085
20
264.686499
11
100.251924
21
268.312841
0
LINE
8
Layer 1
10
100.251924
20
268.312841
11
102.559952
21
271.522975
0
LINE
8
Layer 1
10
102.559952
20
271.522975
11
104.999999
21
274.335837
0
LINE
8
Layer 1
10
104.999999
20
274.335837
11
104.999999
21
274.335837
0
LINE
8
Layer 1
10
-138.892918
20
263.858337
11
-136.037837
21
263.605793
0
LINE
8
Layer 1
10
-136.037837
20
263.605793
11
-133.177918
21
262.800003
0
LINE
8
Layer 1
10
-133.177918
20
262.800003
11
-130.817360
21
261.702512
0
LINE
8
Layer 1
10
-130.817360
20
261.702512
11
-128.567878
21
260.278893
0
LINE
8
Layer 1
10
-128.567878
20
260.278893
11
-126.492244
21
258.600474
0
LINE
8
Layer 1
10
-126.492244
20
258.600474
11
-124.653233
21
256.738586
0
LINE
8
Layer 1
10
-124.653233
20
256.738586
11
-123.113618
21
254.764557
0
LINE
8
Layer 1
10
-123.113618
20
254.764557
11
-121.936173
21
252.749716
0
LINE
8
Layer 1
10
-121.936173
20
252.749716
11
-121.183673
21
250.765394
0
LINE
8
Layer 1
10
-121.183673
20
250.765394
11
-120.918890
21
248.882920
0
LINE
8
Layer 1
10
-120.918890
20
248.882920
11
-121.020649
21
246.627854
0
LINE
8
Layer 1
10
-121.020649
20
246.627854
11
-121.261824
21
246.040532
0
LINE
8
Layer 1
10
-121.261824
20
246.040532
11
-121.731174
21
245.802984
0
LINE
8
Layer 1
10
-121.731174
20
245.802984
11
-122.504683
21
245.907433
0
LINE
8
Layer 1
10
-122.504683
20
245.907433
11
-123.658335
21
246.346103
0
LINE
8
Layer 1
10
-123.658335
20
246.346103
11
-127.410001
21
248.195003
0
LINE
8
Layer 1
10
-127.410001
20
248.195003
11
-129.798982
21
249.305621
0
LINE
8
Layer 1
10
-129.798982
20
249.305621
11
-131.949109
21
250.055902
0
LINE
8
Layer 1
10
-131.949109
20
250.055902
11
-133.918860
21
250.439951
0
LINE
8
Layer 1
10
-133.918860
20
250.439951
11
-135.766709
21
250.451875
0
LINE
8
Layer 1
10
-135.766709
20
250.451875
11
-137.551133
21
250.085778
0
LINE
8
Layer 1
10
-137.551133
20
250.085778
11
-139.330607
21
249.335766
0
LINE
8
Layer 1
10
-139.330607
20
249.335766
11
-141.163609
21
248.195945
0
LINE
8
Layer 1
10
-141.163609
20
248.195945
11
-143.108612
21
246.660420
0
LINE
8
Layer 1
10
-143.108612
20
246.660420
11
-144.395521
21
245.302275
0
LINE
8
Layer 1
10
-144.395521
20
245.302275
11
-145.344968
21
243.759294
0
LINE
8
Layer 1
10
-145.344968
20
243.759294
11
-145.972196
21
242.065099
0
LINE
8
Layer 1
10
-145.972196
20
242.065099
11
-146.292450
21
240.253312
0
LINE
8
Layer 1
10
-146.292450
20
240.253312
11
-146.320974
21
238.357553
0
LINE
8
Layer 1
10
-146.320974
20
238.357553
11
-146.073012
21
236.411445
0
LINE
8
Layer 1
10
-146.073012
20
236.411445
11
-145.563808
21
234.448610
0
LINE
8
Layer 1
10
-145.563808
20
234.448610
11
-144.808606
21
232.502669
0
LINE
8
Layer 1
10
-144.808606
20
232.502669
11
-143.822651
21
230.607243
0
LINE
8
Layer 1
10
-143.822651
20
230.607243
11
-142.621185
21
228.795954
0
LINE
8
Layer 1
10
-142.621185
20
228.795954
11
-141.219453
21
227.102425
0
LINE
8
Layer 1
10
-141.219453
20
227.102425
11
-139.632700
21
225.560276
0
LINE
8
Layer 1
10
-139.632700
20
225.560276
11
-137.876168
21
224.203130
0
LINE
8
Layer 1
10
-137.876168
20
224.203130
11
-135.965103
21
223.064607
0
LINE
8
Layer 1
10
-135.965103
20
223.064607
11
-133.914749
21
222.178330
0
LINE
8
Layer 1
10
-133.914749
20
222.178330
11
-131.740348
21
221.577920
0
LINE
8
Layer 1
10
-131.740348
20
221.577920
11
-129.116427
21
220.900346
0
LINE
8
Layer 1
10
-129.116427
20
220.900346
11
-128.231510
21
220.515051
0
LINE
8
Layer 1
10
-128.231510
20
220.515051
11
-127.610807
21
220.079254
0
LINE
8
Layer 1
10
-127.610807
20
220.079254
11
-127.238957
21
219.578334
0
LINE
8
Layer 1
10
-127.238957
20
219.578334
11
-127.100599
21
218.997669
0
LINE
8
Layer 1
10
-127.100599
20
218.997669
11
-127.180373
21
218.322636
0
LINE
8
Layer 1
10
-127.180373
20
218.322636
11
-127.462918
21
217.538615
0
LINE
8
Layer 1
10
-127.462918
20
217.538615
11
-128.033759
21
215.810973
0
LINE
8
Layer 1
10
-128.033759
20
215.810973
11
-128.616981
21
213.268790
0
LINE
8
Layer 1
10
-128.616981
20
213.268790
11
-129.544307
21
207.114031
0
LINE
8
Layer 1
10
-129.544307
20
207.114031
11
-130.127486
21
202.916839
0
LINE
8
Layer 1
10
-130.127486
20
202.916839
11
-130.564144
21
201.543500
0
LINE
8
Layer 1
10
-130.564144
20
201.543500
11
-131.200207
21
200.539562
0
LINE
8
Layer 1
10
-131.200207
20
200.539562
11
-132.112700
21
199.819447
0
LINE
8
Layer 1
10
-132.112700
20
199.819447
11
-133.378641
21
199.297576
0
LINE
8
Layer 1
10
-133.378641
20
199.297576
11
-135.075054
21
198.888371
0
LINE
8
Layer 1
10
-135.075054
20
198.888371
11
-137.278959
21
198.506253
0
LINE
8
Layer 1
10
-137.278959
20
198.506253
11
-140.303780
21
197.913745
0
LINE
8
Layer 1
10
-140.303780
20
197.913745
11
-142.623145
21
197.194281
0
LINE
8
Layer 1
10
-142.623145
20
197.194281
11
-144.256411
21
196.311563
0
LINE
8
Layer 1
10
-144.256411
20
196.311563
11
-144.821807
21
195.797640
0
LINE
8
Layer 1
10
-144.821807
20
195.797640
11
-145.222936
21
195.229291
0
LINE
8
Layer 1
10
-145.222936
20
195.229291
11
-145.462220
21
194.601979
0
LINE
8
Layer 1
10
-145.462220
20
194.601979
11
-145.542076
21
193.911166
0
LINE
8
Layer 1
10
-145.542076
20
193.911166
11
-145.233188
21
192.320890
0
LINE
8
Layer 1
10
-145.233188
20
192.320890
11
-144.315627
21
190.422162
0
LINE
8
Layer 1
10
-144.315627
20
190.422162
11
-142.808751
21
188.178684
0
LINE
8
Layer 1
10
-142.808751
20
188.178684
11
-141.361750
21
186.087092
0
LINE
8
Layer 1
10
-141.361750
20
186.087092
11
-140.523203
21
184.550864
0
LINE
8
Layer 1
10
-140.523203
20
184.550864
11
-140.291982
21
183.570330
0
LINE
8
Layer 1
10
-140.291982
20
183.570330
11
-140.403766
21
183.288550
0
LINE
8
Layer 1
10
-140.403766
20
183.288550
11
-140.666959
21
183.145816
0
LINE
8
Layer 1
10
-140.666959
20
183.145816
11
-141.647003
21
183.277650
0
LINE
8
Layer 1
10
-141.647003
20
183.277650
11
-143.230985
21
183.966160
0
LINE
8
Layer 1
10
-143.230985
20
183.966160
11
-145.417778
21
185.211673
0
LINE
8
Layer 1
10
-145.417778
20
185.211673
11
-148.206251
21
187.014517
0
LINE
8
Layer 1
10
-148.206251
20
187.014517
11
-150.232179
21
188.473173
0
LINE
8
Layer 1
10
-150.232179
20
188.473173
11
-152.141146
21
190.036098
0
LINE
8
Layer 1
10
-152.141146
20
190.036098
11
-155.606592
21
193.451551
0
LINE
8
Layer 1
10
-155.606592
20
193.451551
11
-158.599376
21
197.214466
0
LINE
8
Layer 1
10
-158.599376
20
197.214466
11
-161.116282
21
201.278435
0
LINE
8
Layer 1
10
-161.116282
20
201.278435
11
-163.154096
21
205.597047
0
LINE
8
Layer 1
10
-163.154096
20
205.597047
11
-164.709602
21
210.123895
0
LINE
8
Layer 1
10
-164.709602
20
210.123895
11
-165.779586
21
214.812567
0
LINE
8
Layer 1
10
-165.779586
20
214.812567
11
-166.360833
21
219.616655
0
LINE
8
Layer 1
10
-166.360833
20
219.616655
11
-166.450128
21
224.489750
0
LINE
8
Layer 1
10
-166.450128
20
224.489750
11
-166.044256
21
229.385442
0
LINE
8
Layer 1
10
-166.044256
20
229.385442
11
-165.140002
21
234.257322
0
LINE
8
Layer 1
10
-165.140002
20
234.257322
11
-163.734152
21
239.058980
0
LINE
8
Layer 1
10
-163.734152
20
239.058980
11
-161.823490
21
243.744008
0
LINE
8
Layer 1
10
-161.823490
20
243.744008
11
-159.404802
21
248.265995
0
LINE
8
Layer 1
10
-159.404802
20
248.265995
11
-156.474873
21
252.578533
0
LINE
8
Layer 1
10
-156.474873
20
252.578533
11
-153.030487
21
256.635212
0
LINE
8
Layer 1
10
-153.030487
20
256.635212
11
-151.329919
21
258.309698
0
LINE
8
Layer 1
10
-151.329919
20
258.309698
11
-149.605148
21
259.765480
0
LINE
8
Layer 1
10
-149.605148
20
259.765480
11
-147.858759
21
261.001682
0
LINE
8
Layer 1
10
-147.858759
20
261.001682
11
-146.093333
21
262.017427
0
LINE
8
Layer 1
10
-146.093333
20
262.017427
11
-144.311453
21
262.811841
0
LINE
8
Layer 1
10
-144.311453
20
262.811841
11
-142.515702
21
263.384048
0
LINE
8
Layer 1
10
-142.515702
20
263.384048
11
-140.708663
21
263.733172
0
LINE
8
Layer 1
10
-140.708663
20
263.733172
11
-138.892918
21
263.858337
0
LINE
8
Layer 1
10
-138.892918
20
263.858337
11
-138.892918
21
263.858337
0
LINE
8
Layer 1
10
348.892904
20
263.858337
11
350.708645
21
263.733172
0
LINE
8
Layer 1
10
350.708645
20
263.733172
11
352.515682
21
263.384048
0
LINE
8
Layer 1
10
352.515682
20
263.384048
11
354.311431
21
262.811841
0
LINE
8
Layer 1
10
354.311431
20
262.811841
11
356.093310
21
262.017427
0
LINE
8
Layer 1
10
356.093310
20
262.017427
11
357.858738
21
261.001682
0
LINE
8
Layer 1
10
357.858738
20
261.001682
11
359.605132
21
259.765480
0
LINE
8
Layer 1
10
359.605132
20
259.765480
11
361.329909
21
258.309698
0
LINE
8
Layer 1
10
361.329909
20
258.309698
11
363.030488
21
256.635212
0
LINE
8
Layer 1
10
363.030488
20
256.635212
11
366.474868
21
252.578533
0
LINE
8
Layer 1
10
366.474868
20
252.578533
11
369.404794
21
248.265995
0
LINE
8
Layer 1
10
369.404794
20
248.265995
11
371.823479
21
243.744008
0
LINE
8
Layer 1
10
371.823479
20
243.744008
11
373.734139
21
239.058980
0
LINE
8
Layer 1
10
373.734139
20
239.058980
11
375.139987
21
234.257322
0
LINE
8
Layer 1
10
375.139987
20
234.257322
11
376.044240
21
229.385442
0
LINE
8
Layer 1
10
376.044240
20
229.385442
11
376.450112
21
224.489750
0
LINE
8
Layer 1
10
376.450112
20
224.489750
11
376.360817
21
219.616655
0
LINE
8
Layer 1
10
376.360817
20
219.616655
11
375.779570
21
214.812567
0
LINE
8
Layer 1
10
375.779570
20
214.812567
11
374.709587
21
210.123895
0
LINE
8
Layer 1
10
374.709587
20
210.123895
11
373.154081
21
205.597047
0
LINE
8
Layer 1
10
373.154081
20
205.597047
11
371.116268
21
201.278435
0
LINE
8
Layer 1
10
371.116268
20
201.278435
11
368.599363
21
197.214466
0
LINE
8
Layer 1
10
368.599363
20
197.214466
11
365.606579
21
193.451551
0
LINE
8
Layer 1
10
365.606579
20
193.451551
11
362.141132
21
190.036098
0
LINE
8
Layer 1
10
362.141132
20
190.036098
11
360.232165
21
188.473173
0
LINE
8
Layer 1
10
360.232165
20
188.473173
11
358.206238
21
187.014517
0
LINE
8
Layer 1
10
358.206238
20
187.014517
11
355.417765
21
185.211673
0
LINE
8
Layer 1
10
355.417765
20
185.211673
11
353.230973
21
183.966160
0
LINE
8
Layer 1
10
353.230973
20
183.966160
11
351.646990
21
183.277650
0
LINE
8
Layer 1
10
351.646990
20
183.277650
11
350.666946
21
183.145816
0
LINE
8
Layer 1
10
350.666946
20
183.145816
11
350.403754
21
183.288550
0
LINE
8
Layer 1
10
350.403754
20
183.288550
11
350.291970
21
183.570330
0
LINE
8
Layer 1
10
350.291970
20
183.570330
11
350.523190
21
184.550864
0
LINE
8
Layer 1
10
350.523190
20
184.550864
11
351.361736
21
186.087092
0
LINE
8
Layer 1
10
351.361736
20
186.087092
11
352.808738
21
188.178684
0
LINE
8
Layer 1
10
352.808738
20
188.178684
11
354.315613
21
190.422162
0
LINE
8
Layer 1
10
354.315613
20
190.422162
11
355.233172
21
192.320890
0
LINE
8
Layer 1
10
355.233172
20
192.320890
11
355.542058
21
193.911166
0
LINE
8
Layer 1
10
355.542058
20
193.911166
11
355.462200
21
194.601979
0
LINE
8
Layer 1
10
355.462200
20
194.601979
11
355.222916
21
195.229291
0
LINE
8
Layer 1
10
355.222916
20
195.229291
11
354.821785
21
195.797640
0
LINE
8
Layer 1
10
354.821785
20
195.797640
11
354.256388
21
196.311563
0
LINE
8
Layer 1
10
354.256388
20
196.311563
11
352.623119
21
197.194281
0
LINE
8
Layer 1
10
352.623119
20
197.194281
11
350.303752
21
197.913745
0
LINE
8
Layer 1
10
350.303752
20
197.913745
11
347.278932
21
198.506253
0
LINE
8
Layer 1
10
347.278932
20
198.506253
11
345.075034
21
198.888371
0
LINE
8
Layer 1
10
345.075034
20
198.888371
11
343.378626
21
199.297576
0
LINE
8
Layer 1
10
343.378626
20
199.297576
11
342.112685
21
199.819447
0
LINE
8
Layer 1
10
342.112685
20
199.819447
11
341.200193
21
200.539562
0
LINE
8
Layer 1
10
341.200193
20
200.539562
11
340.564128
21
201.543500
0
LINE
8
Layer 1
10
340.564128
20
201.543500
11
340.127470
21
202.916839
0
LINE
8
Layer 1
10
340.127470
20
202.916839
11
339.544293
21
207.114031
0
LINE
8
Layer 1
10
339.544293
20
207.114031
11
338.616957
21
213.268790
0
LINE
8
Layer 1
10
338.616957
20
213.268790
11
338.033735
21
215.810973
0
LINE
8
Layer 1
10
338.033735
20
215.810973
11
337.462904
21
217.538615
0
LINE
8
Layer 1
10
337.462904
20
217.538615
11
337.180360
21
218.322636
0
LINE
8
Layer 1
10
337.180360
20
218.322636
11
337.100586
21
218.997669
0
LINE
8
Layer 1
10
337.100586
20
218.997669
11
337.238943
21
219.578334
0
LINE
8
Layer 1
10
337.238943
20
219.578334
11
337.610792
21
220.079254
0
LINE
8
Layer 1
10
337.610792
20
220.079254
11
338.231494
21
220.515051
0
LINE
8
Layer 1
10
338.231494
20
220.515051
11
339.116409
21
220.900346
0
LINE
8
Layer 1
10
339.116409
20
220.900346
11
341.740321
21
221.577920
0
LINE
8
Layer 1
10
341.740321
20
221.577920
11
343.914726
21
222.178330
0
LINE
8
Layer 1
10
343.914726
20
222.178330
11
345.965084
21
223.064607
0
LINE
8
Layer 1
10
345.965084
20
223.064607
11
347.876152
21
224.203130
0
LINE
8
Layer 1
10
347.876152
20
224.203130
11
349.632684
21
225.560276
0
LINE
8
Layer 1
10
349.632684
20
225.560276
11
351.219438
21
227.102425
0
LINE
8
Layer 1
10
351.219438
20
227.102425
11
352.621169
21
228.795954
0
LINE
8
Layer 1
10
352.621169
20
228.795954
11
353.822634
21
230.607243
0
LINE
8
Layer 1
10
353.822634
20
230.607243
11
354.808589
21
232.502669
0
LINE
8
Layer 1
10
354.808589
20
232.502669
11
355.563790
21
234.448610
0
LINE
8
Layer 1
10
355.563790
20
234.448610
11
356.072992
21
236.411445
0
LINE
8
Layer 1
10
356.072992
20
236.411445
11
356.320954
21
238.357553
0
LINE
8
Layer 1
10
356.320954
20
238.357553
11
356.292429
21
240.253312
0
LINE
8
Layer 1
10
356.292429
20
240.253312
11
355.972175
21
242.065099
0
LINE
8
Layer 1
10
355.972175
20
242.065099
11
355.344948
21
243.759294
0
LINE
8
Layer 1
10
355.344948
20
243.759294
11
354.395504
21
245.302275
0
LINE
8
Layer 1
10
354.395504
20
245.302275
11
353.108599
21
246.660420
0
LINE
8
Layer 1
10
353.108599
20
246.660420
11
351.163595
21
248.195945
0
LINE
8
Layer 1
10
351.163595
20
248.195945
11
349.330593
21
249.335766
0
LINE
8
Layer 1
10
349.330593
20
249.335766
11
347.551116
21
250.085778
0
LINE
8
Layer 1
10
347.551116
20
250.085778
11
345.766690
21
250.451875
0
LINE
8
Layer 1
10
345.766690
20
250.451875
11
343.918839
21
250.439951
0
LINE
8
Layer 1
10
343.918839
20
250.439951
11
341.949089
21
250.055902
0
LINE
8
Layer 1
10
341.949089
20
250.055902
11
339.798963
21
249.305621
0
LINE
8
Layer 1
10
339.798963
20
249.305621
11
337.409988
21
248.195003
0
LINE
8
Layer 1
10
337.409988
20
248.195003
11
333.658314
21
246.346103
0
LINE
8
Layer 1
10
333.658314
20
246.346103
11
332.504662
21
245.907433
0
LINE
8
Layer 1
10
332.504662
20
245.907433
11
331.731154
21
245.802984
0
LINE
8
Layer 1
10
331.731154
20
245.802984
11
331.261806
21
246.040532
0
LINE
8
Layer 1
10
331.261806
20
246.040532
11
331.020633
21
246.627854
0
LINE
8
Layer 1
10
331.020633
20
246.627854
11
330.918876
21
248.882920
0
LINE
8
Layer 1
10
330.918876
20
248.882920
11
331.183659
21
250.765394
0
LINE
8
Layer 1
10
331.183659
20
250.765394
11
331.936158
21
252.749716
0
LINE
8
Layer 1
10
331.936158
20
252.749716
11
333.113600
21
254.764557
0
LINE
8
Layer 1
10
333.113600
20
254.764557
11
334.653213
21
256.738586
0
LINE
8
Layer 1
10
334.653213
20
256.738586
11
336.492222
21
258.600474
0
LINE
8
Layer 1
10
336.492222
20
258.600474
11
338.567856
21
260.278893
0
LINE
8
Layer 1
10
338.567856
20
260.278893
11
340.817341
21
261.702512
0
LINE
8
Layer 1
10
340.817341
20
261.702512
11
343.177904
21
262.800003
0
LINE
8
Layer 1
10
343.177904
20
262.800003
11
346.037817
21
263.605793
0
LINE
8
Layer 1
10
346.037817
20
263.605793
11
348.892904
21
263.858337
0
LINE
8
Layer 1
10
348.892904
20
263.858337
11
348.892904
21
263.858337
0
LINE
8
Layer 1
10
23.984582
20
260.656878
11
26.603639
21
260.417990
0
LINE
8
Layer 1
10
26.603639
20
260.417990
11
29.012186
21
259.757773
0
LINE
8
Layer 1
10
29.012186
20
259.757773
11
31.171324
21
258.676189
0
LINE
8
Layer 1
10
31.171324
20
258.676189
11
33.042152
21
257.173198
0
LINE
8
Layer 1
10
33.042152
20
257.173198
11
34.105238
21
255.952694
0
LINE
8
Layer 1
10
34.105238
20
255.952694
11
34.973616
21
254.628604
0
LINE
8
Layer 1
10
34.973616
20
254.628604
11
35.651405
21
253.221616
0
LINE
8
Layer 1
10
35.651405
20
253.221616
11
36.142726
21
251.752419
0
LINE
8
Layer 1
10
36.142726
20
251.752419
11
36.451699
21
250.241702
0
LINE
8
Layer 1
10
36.451699
20
250.241702
11
36.582447
21
248.710151
0
LINE
8
Layer 1
10
36.582447
20
248.710151
11
36.539088
21
247.178457
0
LINE
8
Layer 1
10
36.539088
20
247.178457
11
36.325745
21
245.667306
0
LINE
8
Layer 1
10
36.325745
20
245.667306
11
35.946538
21
244.197387
0
LINE
8
Layer 1
10
35.946538
20
244.197387
11
35.405586
21
242.789390
0
LINE
8
Layer 1
10
35.405586
20
242.789390
11
34.707013
21
241.464001
0
LINE
8
Layer 1
10
34.707013
20
241.464001
11
33.854937
21
240.241909
0
LINE
8
Layer 1
10
33.854937
20
240.241909
11
32.853479
21
239.143803
0
LINE
8
Layer 1
10
32.853479
20
239.143803
11
31.706761
21
238.190371
0
LINE
8
Layer 1
10
31.706761
20
238.190371
11
30.418904
21
237.402301
0
LINE
8
Layer 1
10
30.418904
20
237.402301
11
28.994027
21
236.800281
0
LINE
8
Layer 1
10
28.994027
20
236.800281
11
27.987815
21
236.283793
0
LINE
8
Layer 1
10
27.987815
20
236.283793
11
27.748406
21
235.956068
0
LINE
8
Layer 1
10
27.748406
20
235.956068
11
27.685961
21
235.560357
0
LINE
8
Layer 1
10
27.685961
20
235.560357
11
28.095466
21
234.499973
0
LINE
8
Layer 1
10
28.095466
20
234.499973
11
29.223332
21
232.972642
0
LINE
8
Layer 1
10
29.223332
20
232.972642
11
30.767100
21
230.974147
0
LINE
8
Layer 1
10
30.767100
20
230.974147
11
31.035034
21
230.284933
0
LINE
8
Layer 1
10
31.035034
20
230.284933
11
30.902939
21
229.698619
0
LINE
8
Layer 1
10
30.902939
20
229.698619
11
30.322768
21
229.137360
0
LINE
8
Layer 1
10
30.322768
20
229.137360
11
29.246475
21
228.523314
0
LINE
8
Layer 1
10
29.246475
20
228.523314
11
25.413332
21
226.825490
0
LINE
8
Layer 1
10
25.413332
20
226.825490
11
24.373504
21
226.278264
0
LINE
8
Layer 1
10
24.373504
20
226.278264
11
23.314000
21
225.530838
0
LINE
8
Layer 1
10
23.314000
20
225.530838
11
21.183848
21
223.518082
0
LINE
8
Layer 1
10
21.183848
20
223.518082
11
19.118651
21
220.952618
0
LINE
8
Layer 1
10
19.118651
20
220.952618
11
17.214180
21
217.999842
0
LINE
8
Layer 1
10
17.214180
20
217.999842
11
15.566210
21
214.825151
0
LINE
8
Layer 1
10
15.566210
20
214.825151
11
14.270512
21
211.593940
0
LINE
8
Layer 1
10
14.270512
20
211.593940
11
13.422860
21
208.471606
0
LINE
8
Layer 1
10
13.422860
20
208.471606
11
13.119027
21
205.623545
0
LINE
8
Layer 1
10
13.119027
20
205.623545
11
12.929480
21
203.501809
0
LINE
8
Layer 1
10
12.929480
20
203.501809
11
12.682184
21
202.707411
0
LINE
8
Layer 1
10
12.682184
20
202.707411
11
12.323996
21
202.078276
0
LINE
8
Layer 1
10
12.323996
20
202.078276
11
11.848008
21
201.605117
0
LINE
8
Layer 1
10
11.848008
20
201.605117
11
11.247312
21
201.278645
0
LINE
8
Layer 1
10
11.247312
20
201.278645
11
10.515001
21
201.089574
0
LINE
8
Layer 1
10
10.515001
20
201.089574
11
9.644166
21
201.028615
0
LINE
8
Layer 1
10
9.644166
20
201.028615
11
6.283047
21
200.677482
0
LINE
8
Layer 1
10
6.283047
20
200.677482
11
3.082499
21
199.837990
0
LINE
8
Layer 1
10
3.082499
20
199.837990
11
2.152499
21
199.554969
0
LINE
8
Layer 1
10
2.152499
20
199.554969
11
1.454910
21
199.581968
0
LINE
8
Layer 1
10
1.454910
20
199.581968
11
0.974571
21
200.022846
0
LINE
8
Layer 1
10
0.974571
20
200.022846
11
0.696320
21
200.981464
0
LINE
8
Layer 1
10
0.696320
20
200.981464
11
0.604996
21
202.561684
0
LINE
8
Layer 1
10
0.604996
20
202.561684
11
0.685437
21
204.867366
0
LINE
8
Layer 1
10
0.685437
20
204.867366
11
1.300971
21
212.070559
0
LINE
8
Layer 1
10
1.300971
20
212.070559
11
2.348874
21
225.464029
0
LINE
8
Layer 1
10
2.348874
20
225.464029
11
3.038402
21
238.837573
0
LINE
8
Layer 1
10
3.038402
20
238.837573
11
3.470555
21
252.199031
0
LINE
8
Layer 1
10
3.470555
20
252.199031
11
10.561388
21
256.494101
0
LINE
8
Layer 1
10
10.561388
20
256.494101
11
13.836511
21
258.242080
0
LINE
8
Layer 1
10
13.836511
20
258.242080
11
17.075838
21
259.518050
0
LINE
8
Layer 1
10
17.075838
20
259.518050
11
20.230734
21
260.320535
0
LINE
8
Layer 1
10
20.230734
20
260.320535
11
23.252569
21
260.648059
0
LINE
8
Layer 1
10
23.252569
20
260.648059
11
23.984582
21
260.656878
0
LINE
8
Layer 1
10
23.984582
20
260.656878
11
23.984582
21
260.656878
0
LINE
8
Layer 1
10
186.015416
20
260.656878
11
186.747429
21
260.648059
0
LINE
8
Layer 1
10
186.747429
20
260.648059
11
189.769262
21
260.320535
0
LINE
8
Layer 1
10
189.769262
20
260.320535
11
192.924157
21
259.518050
0
LINE
8
Layer 1
10
192.924157
20
259.518050
11
196.163484
21
258.242080
0
LINE
8
Layer 1
10
196.163484
20
258.242080
11
199.438610
21
256.494101
0
LINE
8
Layer 1
10
199.438610
20
256.494101
11
206.529443
21
252.199031
0
LINE
8
Layer 1
10
206.529443
20
252.199031
11
206.961596
21
238.837573
0
LINE
8
Layer 1
10
206.961596
20
238.837573
11
207.651122
21
225.464029
0
LINE
8
Layer 1
10
207.651122
20
225.464029
11
208.699027
21
212.070559
0
LINE
8
Layer 1
10
208.699027
20
212.070559
11
209.314560
21
204.867366
0
LINE
8
Layer 1
10
209.314560
20
204.867366
11
209.395001
21
202.561684
0
LINE
8
Layer 1
10
209.395001
20
202.561684
11
209.303676
21
200.981464
0
LINE
8
Layer 1
10
209.303676
20
200.981464
11
209.025425
21
200.022846
0
LINE
8
Layer 1
10
209.025425
20
200.022846
11
208.545086
21
199.581968
0
LINE
8
Layer 1
10
208.545086
20
199.581968
11
207.847497
21
199.554969
0
LINE
8
Layer 1
10
207.847497
20
199.554969
11
206.917499
21
199.837990
0
LINE
8
Layer 1
10
206.917499
20
199.837990
11
203.716949
21
200.677482
0
LINE
8
Layer 1
10
203.716949
20
200.677482
11
200.355832
21
201.028615
0
LINE
8
Layer 1
10
200.355832
20
201.028615
11
199.484997
21
201.089574
0
LINE
8
Layer 1
10
199.484997
20
201.089574
11
198.752685
21
201.278645
0
LINE
8
Layer 1
10
198.752685
20
201.278645
11
198.151989
21
201.605117
0
LINE
8
Layer 1
10
198.151989
20
201.605117
11
197.676000
21
202.078276
0
LINE
8
Layer 1
10
197.676000
20
202.078276
11
197.317812
21
202.707411
0
LINE
8
Layer 1
10
197.317812
20
202.707411
11
197.070516
21
203.501809
0
LINE
8
Layer 1
10
197.070516
20
203.501809
11
196.880971
21
205.623545
0
LINE
8
Layer 1
10
196.880971
20
205.623545
11
196.577137
21
208.471606
0
LINE
8
Layer 1
10
196.577137
20
208.471606
11
195.729485
21
211.593940
0
LINE
8
Layer 1
10
195.729485
20
211.593940
11
194.433786
21
214.825151
0
LINE
8
Layer 1
10
194.433786
20
214.825151
11
192.785815
21
217.999842
0
LINE
8
Layer 1
10
192.785815
20
217.999842
11
190.881345
21
220.952618
0
LINE
8
Layer 1
10
190.881345
20
220.952618
11
188.816148
21
223.518082
0
LINE
8
Layer 1
10
188.816148
20
223.518082
11
186.685997
21
225.530838
0
LINE
8
Layer 1
10
186.685997
20
225.530838
11
185.626493
21
226.278264
0
LINE
8
Layer 1
10
185.626493
20
226.278264
11
184.586666
21
226.825490
0
LINE
8
Layer 1
10
184.586666
20
226.825490
11
180.753522
21
228.523314
0
LINE
8
Layer 1
10
180.753522
20
228.523314
11
179.677228
21
229.137360
0
LINE
8
Layer 1
10
179.677228
20
229.137360
11
179.097057
21
229.698619
0
LINE
8
Layer 1
10
179.097057
20
229.698619
11
178.964961
21
230.284933
0
LINE
8
Layer 1
10
178.964961
20
230.284933
11
179.232896
21
230.974147
0
LINE
8
Layer 1
10
179.232896
20
230.974147
11
180.776666
21
232.972642
0
LINE
8
Layer 1
10
180.776666
20
232.972642
11
181.904531
21
234.499973
0
LINE
8
Layer 1
10
181.904531
20
234.499973
11
182.314035
21
235.560357
0
LINE
8
Layer 1
10
182.314035
20
235.560357
11
182.251590
21
235.956068
0
LINE
8
Layer 1
10
182.251590
20
235.956068
11
182.012181
21
236.283793
0
LINE
8
Layer 1
10
182.012181
20
236.283793
11
181.005971
21
236.800281
0
LINE
8
Layer 1
10
181.005971
20
236.800281
11
179.581094
21
237.402301
0
LINE
8
Layer 1
10
179.581094
20
237.402301
11
178.293236
21
238.190371
0
LINE
8
Layer 1
10
178.293236
20
238.190371
11
177.146518
21
239.143803
0
LINE
8
Layer 1
10
177.146518
20
239.143803
11
176.145060
21
240.241909
0
LINE
8
Layer 1
10
176.145060
20
240.241909
11
175.292984
21
241.464001
0
LINE
8
Layer 1
10
175.292984
20
241.464001
11
174.594410
21
242.789390
0
LINE
8
Layer 1
10
174.594410
20
242.789390
11
174.053458
21
244.197387
0
LINE
8
Layer 1
10
174.053458
20
244.197387
11
173.674250
21
245.667306
0
LINE
8
Layer 1
10
173.674250
20
245.667306
11
173.460907
21
247.178457
0
LINE
8
Layer 1
10
173.460907
20
247.178457
11
173.417548
21
248.710151
0
LINE
8
Layer 1
10
173.417548
20
248.710151
11
173.548296
21
250.241702
0
LINE
8
Layer 1
10
173.548296
20
250.241702
11
173.857270
21
251.752419
0
LINE
8
Layer 1
10
173.857270
20
251.752419
11
174.348591
21
253.221616
0
LINE
8
Layer 1
10
174.348591
20
253.221616
11
175.026380
21
254.628604
0
LINE
8
Layer 1
10
175.026380
20
254.628604
11
175.894758
21
255.952694
0
LINE
8
Layer 1
10
175.894758
20
255.952694
11
176.957846
21
257.173198
0
LINE
8
Layer 1
10
176.957846
20
257.173198
11
178.828673
21
258.676189
0
LINE
8
Layer 1
10
178.828673
20
258.676189
11
180.987810
21
259.757773
0
LINE
8
Layer 1
10
180.987810
20
259.757773
11
183.396357
21
260.417990
0
LINE
8
Layer 1
10
183.396357
20
260.417990
11
186.015416
21
260.656878
0
LINE
8
Layer 1
10
186.015416
20
260.656878
11
186.015416
21
260.656878
0
LINE
8
Layer 1
10
57.957082
20
251.484656
11
58.436971
21
251.358662
0
LINE
8
Layer 1
10
58.436971
20
251.358662
11
58.990334
21
251.002923
0
LINE
8
Layer 1
10
58.990334
20
251.002923
11
60.319018
21
249.602010
0
LINE
8
Layer 1
10
60.319018
20
249.602010
11
61.946195
21
247.281517
0
LINE
8
Layer 1
10
61.946195
20
247.281517
11
63.874929
21
244.041045
0
LINE
8
Layer 1
10
63.874929
20
244.041045
11
65.383458
21
240.970698
0
LINE
8
Layer 1
10
65.383458
20
240.970698
11
66.580629
21
237.715106
0
LINE
8
Layer 1
10
66.580629
20
237.715106
11
67.473825
21
234.314075
0
LINE
8
Layer 1
10
67.473825
20
234.314075
11
68.070426
21
230.807415
0
LINE
8
Layer 1
10
68.070426
20
230.807415
11
68.377814
21
227.234933
0
LINE
8
Layer 1
10
68.377814
20
227.234933
11
68.403371
21
223.636438
0
LINE
8
Layer 1
10
68.403371
20
223.636438
11
68.154477
21
220.051736
0
LINE
8
Layer 1
10
68.154477
20
220.051736
11
67.638514
21
216.520637
0
LINE
8
Layer 1
10
67.638514
20
216.520637
11
66.862863
21
213.082947
0
LINE
8
Layer 1
10
66.862863
20
213.082947
11
65.834906
21
209.778476
0
LINE
8
Layer 1
10
65.834906
20
209.778476
11
64.562023
21
206.647031
0
LINE
8
Layer 1
10
64.562023
20
206.647031
11
63.051597
21
203.728420
0
LINE
8
Layer 1
10
63.051597
20
203.728420
11
61.311009
21
201.062451
0
LINE
8
Layer 1
10
61.311009
20
201.062451
11
59.347639
21
198.688932
0
LINE
8
Layer 1
10
59.347639
20
198.688932
11
57.168870
21
196.647671
0
LINE
8
Layer 1
10
57.168870
20
196.647671
11
54.782082
21
194.978476
0
LINE
8
Layer 1
10
54.782082
20
194.978476
11
52.243741
21
193.734556
0
LINE
8
Layer 1
10
52.243741
20
193.734556
11
49.487691
21
192.837924
0
LINE
8
Layer 1
10
49.487691
20
192.837924
11
46.604438
21
192.289331
0
LINE
8
Layer 1
10
46.604438
20
192.289331
11
43.684488
21
192.089529
0
LINE
8
Layer 1
10
43.684488
20
192.089529
11
40.818348
21
192.239270
0
LINE
8
Layer 1
10
40.818348
20
192.239270
11
38.096523
21
192.739306
0
LINE
8
Layer 1
10
38.096523
20
192.739306
11
35.609521
21
193.590388
0
LINE
8
Layer 1
10
35.609521
20
193.590388
11
33.447846
21
194.793267
0
LINE
8
Layer 1
10
33.447846
20
194.793267
11
31.592110
21
196.220910
0
LINE
8
Layer 1
10
31.592110
20
196.220910
11
30.349199
21
197.471615
0
LINE
8
Layer 1
10
30.349199
20
197.471615
11
29.717808
21
198.541247
0
LINE
8
Layer 1
10
29.717808
20
198.541247
11
29.631024
21
199.006870
0
LINE
8
Layer 1
10
29.631024
20
199.006870
11
29.696632
21
199.425673
0
LINE
8
Layer 1
10
29.696632
20
199.425673
11
30.284366
21
200.120757
0
LINE
8
Layer 1
10
30.284366
20
200.120757
11
31.479706
21
200.622365
0
LINE
8
Layer 1
10
31.479706
20
200.622365
11
33.281348
21
200.926363
0
LINE
8
Layer 1
10
33.281348
20
200.926363
11
35.687985
21
201.028615
0
LINE
8
Layer 1
10
35.687985
20
201.028615
11
37.496378
21
201.088362
0
LINE
8
Layer 1
10
37.496378
20
201.088362
11
39.050841
21
201.293782
0
LINE
8
Layer 1
10
39.050841
20
201.293782
11
40.414182
21
201.684141
0
LINE
8
Layer 1
10
40.414182
20
201.684141
11
41.649209
21
202.298703
0
LINE
8
Layer 1
10
41.649209
20
202.298703
11
42.818733
21
203.176735
0
LINE
8
Layer 1
10
42.818733
20
203.176735
11
43.985560
21
204.357503
0
LINE
8
Layer 1
10
43.985560
20
204.357503
11
46.562360
21
207.784309
0
LINE
8
Layer 1
10
46.562360
20
207.784309
11
48.388119
21
210.551176
0
LINE
8
Layer 1
10
48.388119
20
210.551176
11
49.708715
21
212.815831
0
LINE
8
Layer 1
10
49.708715
20
212.815831
11
50.532129
21
214.711769
0
LINE
8
Layer 1
10
50.532129
20
214.711769
11
50.866340
21
216.372483
0
LINE
8
Layer 1
10
50.866340
20
216.372483
11
50.719328
21
217.931469
0
LINE
8
Layer 1
10
50.719328
20
217.931469
11
50.099075
21
219.522219
0
LINE
8
Layer 1
10
50.099075
20
219.522219
11
49.013560
21
221.278228
0
LINE
8
Layer 1
10
49.013560
20
221.278228
11
47.470763
21
223.332990
0
LINE
8
Layer 1
10
47.470763
20
223.332990
11
43.793054
21
228.007295
0
LINE
8
Layer 1
10
43.793054
20
228.007295
11
47.453124
21
229.965212
0
LINE
8
Layer 1
10
47.453124
20
229.965212
11
49.153706
21
231.151620
0
LINE
8
Layer 1
10
49.153706
20
231.151620
11
50.802699
21
232.814686
0
LINE
8
Layer 1
10
50.802699
20
232.814686
11
52.346118
21
234.853069
0
LINE
8
Layer 1
10
52.346118
20
234.853069
11
53.729976
21
237.165430
0
LINE
8
Layer 1
10
53.729976
20
237.165430
11
54.900286
21
239.650428
0
LINE
8
Layer 1
10
54.900286
20
239.650428
11
55.803062
21
242.206724
0
LINE
8
Layer 1
10
55.803062
20
242.206724
11
56.384319
21
244.732979
0
LINE
8
Layer 1
10
56.384319
20
244.732979
11
56.590068
21
247.127851
0
LINE
8
Layer 1
10
56.590068
20
247.127851
11
56.674375
21
249.045966
0
LINE
8
Layer 1
10
56.674375
20
249.045966
11
56.928803
21
250.411908
0
LINE
8
Layer 1
10
56.928803
20
250.411908
11
57.355618
21
251.225023
0
LINE
8
Layer 1
10
57.355618
20
251.225023
11
57.957082
21
251.484656
0
LINE
8
Layer 1
10
57.957082
20
251.484656
11
57.957082
21
251.484656
0
LINE
8
Layer 1
10
152.042916
20
251.484656
11
152.644381
21
251.225023
0
LINE
8
Layer 1
10
152.644381
20
251.225023
11
153.071196
21
250.411908
0
LINE
8
Layer 1
10
153.071196
20
250.411908
11
153.325624
21
249.045966
0
LINE
8
Layer 1
10
153.325624
20
249.045966
11
153.409929
21
247.127851
0
LINE
8
Layer 1
10
153.409929
20
247.127851
11
153.615679
21
244.732979
0
LINE
8
Layer 1
10
153.615679
20
244.732979
11
154.196935
21
242.206724
0
LINE
8
Layer 1
10
154.196935
20
242.206724
11
155.099710
21
239.650428
0
LINE
8
Layer 1
10
155.099710
20
239.650428
11
156.270020
21
237.165430
0
LINE
8
Layer 1
10
156.270020
20
237.165430
11
157.653877
21
234.853069
0
LINE
8
Layer 1
10
157.653877
20
234.853069
11
159.197296
21
232.814686
0
LINE
8
Layer 1
10
159.197296
20
232.814686
11
160.846290
21
231.151620
0
LINE
8
Layer 1
10
160.846290
20
231.151620
11
162.546874
21
229.965212
0
LINE
8
Layer 1
10
162.546874
20
229.965212
11
166.206943
21
228.007295
0
LINE
8
Layer 1
10
166.206943
20
228.007295
11
162.529235
21
223.332990
0
LINE
8
Layer 1
10
162.529235
20
223.332990
11
160.986438
21
221.278228
0
LINE
8
Layer 1
10
160.986438
20
221.278228
11
159.900922
21
219.522219
0
LINE
8
Layer 1
10
159.900922
20
219.522219
11
159.280668
21
217.931469
0
LINE
8
Layer 1
10
159.280668
20
217.931469
11
159.133656
21
216.372483
0
LINE
8
Layer 1
10
159.133656
20
216.372483
11
159.467866
21
214.711769
0
LINE
8
Layer 1
10
159.467866
20
214.711769
11
160.291280
21
212.815831
0
LINE
8
Layer 1
10
160.291280
20
212.815831
11
161.611877
21
210.551176
0
LINE
8
Layer 1
10
161.611877
20
210.551176
11
163.437638
21
207.784309
0
LINE
8
Layer 1
10
163.437638
20
207.784309
11
166.014437
21
204.357503
0
LINE
8
Layer 1
10
166.014437
20
204.357503
11
167.181264
21
203.176735
0
LINE
8
Layer 1
10
167.181264
20
203.176735
11
168.350786
21
202.298703
0
LINE
8
Layer 1
10
168.350786
20
202.298703
11
169.585814
21
201.684141
0
LINE
8
Layer 1
10
169.585814
20
201.684141
11
170.949155
21
201.293782
0
LINE
8
Layer 1
10
170.949155
20
201.293782
11
172.503618
21
201.088362
0
LINE
8
Layer 1
10
172.503618
20
201.088362
11
174.312013
21
201.028615
0
LINE
8
Layer 1
10
174.312013
20
201.028615
11
176.718650
21
200.926363
0
LINE
8
Layer 1
10
176.718650
20
200.926363
11
178.520290
21
200.622365
0
LINE
8
Layer 1
10
178.520290
20
200.622365
11
179.715630
21
200.120757
0
LINE
8
Layer 1
10
179.715630
20
200.120757
11
180.303364
21
199.425673
0
LINE
8
Layer 1
10
180.303364
20
199.425673
11
180.368971
21
199.006870
0
LINE
8
Layer 1
10
180.368971
20
199.006870
11
180.282188
21
198.541247
0
LINE
8
Layer 1
10
180.282188
20
198.541247
11
179.650797
21
197.471615
0
LINE
8
Layer 1
10
179.650797
20
197.471615
11
178.407886
21
196.220910
0
LINE
8
Layer 1
10
178.407886
20
196.220910
11
176.552152
21
194.793267
0
LINE
8
Layer 1
10
176.552152
20
194.793267
11
174.390477
21
193.590388
0
LINE
8
Layer 1
10
174.390477
20
193.590388
11
171.903474
21
192.739306
0
LINE
8
Layer 1
10
171.903474
20
192.739306
11
169.181648
21
192.239270
0
LINE
8
Layer 1
10
169.181648
20
192.239270
11
166.315507
21
192.089529
0
LINE
8
Layer 1
10
166.315507
20
192.089529
11
163.395557
21
192.289331
0
LINE
8
Layer 1
10
163.395557
20
192.289331
11
160.512304
21
192.837924
0
LINE
8
Layer 1
10
160.512304
20
192.837924
11
157.756255
21
193.734556
0
LINE
8
Layer 1
10
157.756255
20
193.734556
11
155.217916
21
194.978476
0
LINE
8
Layer 1
10
155.217916
20
194.978476
11
152.831128
21
196.647671
0
LINE
8
Layer 1
10
152.831128
20
196.647671
11
150.652359
21
198.688932
0
LINE
8
Layer 1
10
150.652359
20
198.688932
11
148.688989
21
201.062451
0
LINE
8
Layer 1
10
148.688989
20
201.062451
11
146.948401
21
203.728420
0
LINE
8
Layer 1
10
146.948401
20
203.728420
11
145.437975
21
206.647031
0
LINE
8
Layer 1
10
145.437975
20
206.647031
11
144.165093
21
209.778476
0
LINE
8
Layer 1
10
144.165093
20
209.778476
11
143.137136
21
213.082947
0
LINE
8
Layer 1
10
143.137136
20
213.082947
11
142.361485
21
216.520637
0
LINE
8
Layer 1
10
142.361485
20
216.520637
11
141.845522
21
220.051736
0
LINE
8
Layer 1
10
141.845522
20
220.051736
11
141.596628
21
223.636438
0
LINE
8
Layer 1
10
141.596628
20
223.636438
11
141.622184
21
227.234933
0
LINE
8
Layer 1
10
141.622184
20
227.234933
11
141.929573
21
230.807415
0
LINE
8
Layer 1
10
141.929573
20
230.807415
11
142.526174
21
234.314075
0
LINE
8
Layer 1
10
142.526174
20
234.314075
11
143.419369
21
237.715106
0
LINE
8
Layer 1
10
143.419369
20
237.715106
11
144.616540
21
240.970698
0
LINE
8
Layer 1
10
144.616540
20
240.970698
11
146.125068
21
244.041045
0
LINE
8
Layer 1
10
146.125068
20
244.041045
11
148.053803
21
247.281517
0
LINE
8
Layer 1
10
148.053803
20
247.281517
11
149.680981
21
249.602010
0
LINE
8
Layer 1
10
149.680981
20
249.602010
11
151.009665
21
251.002923
0
LINE
8
Layer 1
10
151.009665
20
251.002923
11
151.563028
21
251.358662
0
LINE
8
Layer 1
10
151.563028
20
251.358662
11
152.042916
21
251.484656
0
LINE
8
Layer 1
10
152.042916
20
251.484656
11
152.042916
21
251.484656
0
LINE
8
Layer 1
10
-13.789098
20
240.283962
11
-13.296186
21
240.132815
0
LINE
8
Layer 1
10
-13.296186
20
240.132815
11
-12.969295
21
239.586392
0
LINE
8
Layer 1
10
-12.969295
20
239.586392
11
-12.536737
21
237.373545
0
LINE
8
Layer 1
10
-12.536737
20
237.373545
11
-12.455388
21
235.122716
0
LINE
8
Layer 1
10
-12.455388
20
235.122716
11
-12.684321
21
232.106440
0
LINE
8
Layer 1
10
-12.684321
20
232.106440
11
-13.179011
21
228.718490
0
LINE
8
Layer 1
10
-13.179011
20
228.718490
11
-13.894931
21
225.352642
0
LINE
8
Layer 1
10
-13.894931
20
225.352642
11
-14.658812
21
221.737561
0
LINE
8
Layer 1
10
-14.658812
20
221.737561
11
-15.284147
21
217.671829
0
LINE
8
Layer 1
10
-15.284147
20
217.671829
11
-15.706558
21
213.654143
0
LINE
8
Layer 1
10
-15.706558
20
213.654143
11
-15.861668
21
210.183198
0
LINE
8
Layer 1
10
-15.861668
20
210.183198
11
-15.910038
21
207.530500
0
LINE
8
Layer 1
10
-15.910038
20
207.530500
11
-16.083181
21
205.534627
0
LINE
8
Layer 1
10
-16.083181
20
205.534627
11
-16.423146
21
204.164544
0
LINE
8
Layer 1
10
-16.423146
20
204.164544
11
-16.971983
21
203.389215
0
LINE
8
Layer 1
10
-16.971983
20
203.389215
11
-17.337868
21
203.214885
0
LINE
8
Layer 1
10
-17.337868
20
203.214885
11
-17.771739
21
203.177605
0
LINE
8
Layer 1
10
-17.771739
20
203.177605
11
-18.864463
21
203.498677
0
LINE
8
Layer 1
10
-18.864463
20
203.498677
11
-20.292206
21
204.321396
0
LINE
8
Layer 1
10
-20.292206
20
204.321396
11
-22.097015
21
205.614726
0
LINE
8
Layer 1
10
-22.097015
20
205.614726
11
-23.900441
21
206.896093
0
LINE
8
Layer 1
10
-23.900441
20
206.896093
11
-25.347155
21
207.709192
0
LINE
8
Layer 1
10
-25.347155
20
207.709192
11
-26.472691
21
208.031243
0
LINE
8
Layer 1
10
-26.472691
20
208.031243
11
-27.312583
21
207.839462
0
LINE
8
Layer 1
10
-27.312583
20
207.839462
11
-27.902365
21
207.111070
0
LINE
8
Layer 1
10
-27.902365
20
207.111070
11
-28.277571
21
205.823284
0
LINE
8
Layer 1
10
-28.277571
20
205.823284
11
-28.473734
21
203.953324
0
LINE
8
Layer 1
10
-28.473734
20
203.953324
11
-28.526390
21
201.478406
0
LINE
8
Layer 1
10
-28.526390
20
201.478406
11
-28.234277
21
198.229916
0
LINE
8
Layer 1
10
-28.234277
20
198.229916
11
-27.416370
21
194.515223
0
LINE
8
Layer 1
10
-27.416370
20
194.515223
11
-26.137122
21
190.481700
0
LINE
8
Layer 1
10
-26.137122
20
190.481700
11
-24.460991
21
186.276723
0
LINE
8
Layer 1
10
-24.460991
20
186.276723
11
-22.452431
21
182.047663
0
LINE
8
Layer 1
10
-22.452431
20
182.047663
11
-20.175899
21
177.941895
0
LINE
8
Layer 1
10
-20.175899
20
177.941895
11
-17.695849
21
174.106791
0
LINE
8
Layer 1
10
-17.695849
20
174.106791
11
-15.076737
21
170.689726
0
LINE
8
Layer 1
10
-15.076737
20
170.689726
11
-13.213779
21
168.471085
0
LINE
8
Layer 1
10
-13.213779
20
168.471085
11
-11.994251
21
166.865436
0
LINE
8
Layer 1
10
-11.994251
20
166.865436
11
-11.554554
21
165.847324
0
LINE
8
Layer 1
10
-11.554554
20
165.847324
11
-11.669768
21
165.550640
0
LINE
8
Layer 1
10
-11.669768
20
165.550640
11
-12.031092
21
165.391294
0
LINE
8
Layer 1
10
-12.031092
20
165.391294
11
-13.560267
21
165.471891
0
LINE
8
Layer 1
10
-13.560267
20
165.471891
11
-16.278481
21
166.063659
0
LINE
8
Layer 1
10
-16.278481
20
166.063659
11
-25.827640
21
168.678892
0
LINE
8
Layer 1
10
-25.827640
20
168.678892
11
-32.418908
21
170.163450
0
LINE
8
Layer 1
10
-32.418908
20
170.163450
11
-40.807767
21
171.518032
0
LINE
8
Layer 1
10
-40.807767
20
171.518032
11
-50.043142
21
172.610596
0
LINE
8
Layer 1
10
-50.043142
20
172.610596
11
-59.173959
21
173.309101
0
LINE
8
Layer 1
10
-59.173959
20
173.309101
11
-79.837918
21
174.385073
0
LINE
8
Layer 1
10
-79.837918
20
174.385073
11
-73.549654
21
177.612990
0
LINE
8
Layer 1
10
-73.549654
20
177.612990
11
-69.424314
21
180.035310
0
LINE
8
Layer 1
10
-69.424314
20
180.035310
11
-65.091434
21
183.157499
0
LINE
8
Layer 1
10
-65.091434
20
183.157499
11
-60.607230
21
186.923145
0
LINE
8
Layer 1
10
-60.607230
20
186.923145
11
-56.027914
21
191.275833
0
LINE
8
Layer 1
10
-56.027914
20
191.275833
11
-51.409701
21
196.159151
0
LINE
8
Layer 1
10
-51.409701
20
196.159151
11
-46.808805
21
201.516686
0
LINE
8
Layer 1
10
-46.808805
20
201.516686
11
-42.281440
21
207.292024
0
LINE
8
Layer 1
10
-42.281440
20
207.292024
11
-37.883821
21
213.428753
0
LINE
8
Layer 1
10
-37.883821
20
213.428753
11
-33.068008
21
220.147875
0
LINE
8
Layer 1
10
-33.068008
20
220.147875
11
-28.094645
21
226.558178
0
LINE
8
Layer 1
10
-28.094645
20
226.558178
11
-23.548821
21
231.933560
0
LINE
8
Layer 1
10
-23.548821
20
231.933560
11
-20.015626
21
235.547920
0
LINE
8
Layer 1
10
-20.015626
20
235.547920
11
-15.889812
21
239.076128
0
LINE
8
Layer 1
10
-15.889812
20
239.076128
11
-14.636859
21
239.956935
0
LINE
8
Layer 1
10
-14.636859
20
239.956935
11
-13.789098
21
240.283962
0
LINE
8
Layer 1
10
-13.789098
20
240.283962
11
-13.789098
21
240.283962
0
LINE
8
Layer 1
10
223.647985
20
240.283962
11
223.789096
21
240.283962
0
LINE
8
Layer 1
10
223.789096
20
240.283962
11
224.636856
21
239.956935
0
LINE
8
Layer 1
10
224.636856
20
239.956935
11
225.889808
21
239.076128
0
LINE
8
Layer 1
10
225.889808
20
239.076128
11
230.015624
21
235.547920
0
LINE
8
Layer 1
10
230.015624
20
235.547920
11
233.548818
21
231.933560
0
LINE
8
Layer 1
10
233.548818
20
231.933560
11
238.094641
21
226.558178
0
LINE
8
Layer 1
10
238.094641
20
226.558178
11
243.068004
21
220.147875
0
LINE
8
Layer 1
10
243.068004
20
220.147875
11
247.883818
21
213.428753
0
LINE
8
Layer 1
10
247.883818
20
213.428753
11
252.281438
21
207.292024
0
LINE
8
Layer 1
10
252.281438
20
207.292024
11
256.808802
21
201.516686
0
LINE
8
Layer 1
10
256.808802
20
201.516686
11
261.409697
21
196.159151
0
LINE
8
Layer 1
10
261.409697
20
196.159151
11
266.027910
21
191.275833
0
LINE
8
Layer 1
10
266.027910
20
191.275833
11
270.607225
21
186.923145
0
LINE
8
Layer 1
10
270.607225
20
186.923145
11
275.091431
21
183.157499
0
LINE
8
Layer 1
10
275.091431
20
183.157499
11
279.424312
21
180.035310
0
LINE
8
Layer 1
10
279.424312
20
180.035310
11
283.549654
21
177.612990
0
LINE
8
Layer 1
10
283.549654
20
177.612990
11
289.837904
21
174.385073
0
LINE
8
Layer 1
10
289.837904
20
174.385073
11
269.173957
21
173.309101
0
LINE
8
Layer 1
10
269.173957
20
173.309101
11
260.043139
21
172.610596
0
LINE
8
Layer 1
10
260.043139
20
172.610596
11
250.807763
21
171.518032
0
LINE
8
Layer 1
10
250.807763
20
171.518032
11
242.418904
21
170.163450
0
LINE
8
Layer 1
10
242.418904
20
170.163450
11
235.827638
21
168.678892
0
LINE
8
Layer 1
10
235.827638
20
168.678892
11
226.278478
21
166.063659
0
LINE
8
Layer 1
10
226.278478
20
166.063659
11
223.560263
21
165.471891
0
LINE
8
Layer 1
10
223.560263
20
165.471891
11
222.031087
21
165.391294
0
LINE
8
Layer 1
10
222.031087
20
165.391294
11
221.669764
21
165.550640
0
LINE
8
Layer 1
10
221.669764
20
165.550640
11
221.554549
21
165.847324
0
LINE
8
Layer 1
10
221.554549
20
165.847324
11
221.994246
21
166.865436
0
LINE
8
Layer 1
10
221.994246
20
166.865436
11
223.213775
21
168.471085
0
LINE
8
Layer 1
10
223.213775
20
168.471085
11
225.076735
21
170.689726
0
LINE
8
Layer 1
10
225.076735
20
170.689726
11
227.695847
21
174.106791
0
LINE
8
Layer 1
10
227.695847
20
174.106791
11
230.175896
21
177.941895
0
LINE
8
Layer 1
10
230.175896
20
177.941895
11
232.452428
21
182.047663
0
LINE
8
Layer 1
10
232.452428
20
182.047663
11
234.460987
21
186.276723
0
LINE
8
Layer 1
10
234.460987
20
186.276723
11
236.137118
21
190.481700
0
LINE
8
Layer 1
10
236.137118
20
190.481700
11
237.416365
21
194.515223
0
LINE
8
Layer 1
10
237.416365
20
194.515223
11
238.234273
21
198.229916
0
LINE
8
Layer 1
10
238.234273
20
198.229916
11
238.526388
21
201.478406
0
LINE
8
Layer 1
10
238.526388
20
201.478406
11
238.473732
21
203.953324
0
LINE
8
Layer 1
10
238.473732
20
203.953324
11
238.277568
21
205.823284
0
LINE
8
Layer 1
10
238.277568
20
205.823284
11
237.902361
21
207.111070
0
LINE
8
Layer 1
10
237.902361
20
207.111070
11
237.312579
21
207.839462
0
LINE
8
Layer 1
10
237.312579
20
207.839462
11
236.472687
21
208.031243
0
LINE
8
Layer 1
10
236.472687
20
208.031243
11
235.347151
21
207.709192
0
LINE
8
Layer 1
10
235.347151
20
207.709192
11
233.900437
21
206.896093
0
LINE
8
Layer 1
10
233.900437
20
206.896093
11
232.097013
21
205.614726
0
LINE
8
Layer 1
10
232.097013
20
205.614726
11
230.292203
21
204.321396
0
LINE
8
Layer 1
10
230.292203
20
204.321396
11
228.864460
21
203.498677
0
LINE
8
Layer 1
10
228.864460
20
203.498677
11
227.771735
21
203.177605
0
LINE
8
Layer 1
10
227.771735
20
203.177605
11
227.337863
21
203.214885
0
LINE
8
Layer 1
10
227.337863
20
203.214885
11
226.971978
21
203.389215
0
LINE
8
Layer 1
10
226.971978
20
203.389215
11
226.423142
21
204.164544
0
LINE
8
Layer 1
10
226.423142
20
204.164544
11
226.083177
21
205.534627
0
LINE
8
Layer 1
10
226.083177
20
205.534627
11
225.910034
21
207.530500
0
LINE
8
Layer 1
10
225.910034
20
207.530500
11
225.861666
21
210.183198
0
LINE
8
Layer 1
10
225.861666
20
210.183198
11
225.706555
21
213.654143
0
LINE
8
Layer 1
10
225.706555
20
213.654143
11
225.284143
21
217.671829
0
LINE
8
Layer 1
10
225.284143
20
217.671829
11
224.658808
21
221.737561
0
LINE
8
Layer 1
10
224.658808
20
221.737561
11
223.894929
21
225.352642
0
LINE
8
Layer 1
10
223.894929
20
225.352642
11
223.179008
21
228.718490
0
LINE
8
Layer 1
10
223.179008
20
228.718490
11
222.684317
21
232.106440
0
LINE
8
Layer 1
10
222.684317
20
232.106440
11
222.455384
21
235.122716
0
LINE
8
Layer 1
10
222.455384
20
235.122716
11
222.536735
21
237.373545
0
LINE
8
Layer 1
10
222.536735
20
237.373545
11
222.937389
21
239.491031
0
LINE
8
Layer 1
10
222.937389
20
239.491031
11
223.225567
21
240.059830
0
LINE
8
Layer 1
10
223.225567
20
240.059830
11
223.647985
21
240.283962
0
LINE
8
Layer 1
10
223.647985
20
240.283962
11
223.647985
21
240.283962
0
LINE
8
Layer 1
10
86.117568
20
222.944934
11
88.288169
21
217.794479
0
LINE
8
Layer 1
10
88.288169
20
217.794479
11
90.784628
21
213.204145
0
LINE
8
Layer 1
10
90.784628
20
213.204145
11
93.714659
21
208.794466
0
LINE
8
Layer 1
10
93.714659
20
208.794466
11
97.185971
21
204.185976
0
LINE
8
Layer 1
10
97.185971
20
204.185976
11
79.353054
21
198.885490
0
LINE
8
Layer 1
10
79.353054
20
198.885490
11
86.117568
21
222.944934
0
LINE
8
Layer 1
10
86.117568
20
222.944934
11
86.117568
21
222.944934
0
LINE
8
Layer 1
10
123.882429
20
222.944934
11
130.646943
21
198.885490
0
LINE
8
Layer 1
10
130.646943
20
198.885490
11
112.814027
21
204.185976
0
LINE
8
Layer 1
10
112.814027
20
204.185976
11
116.285339
21
208.794466
0
LINE
8
Layer 1
10
116.285339
20
208.794466
11
119.215370
21
213.204145
0
LINE
8
Layer 1
10
119.215370
20
213.204145
11
121.711830
21
217.794479
0
LINE
8
Layer 1
10
121.711830
20
217.794479
11
123.882429
21
222.944934
0
LINE
8
Layer 1
10
123.882429
20
222.944934
11
123.882429
21
222.944934
0
LINE
8
Layer 1
10
-181.878890
20
207.281601
11
-177.575001
21
197.403823
0
LINE
8
Layer 1
10
-177.575001
20
197.403823
11
-176.416939
21
195.212383
0
LINE
8
Layer 1
10
-176.416939
20
195.212383
11
-174.960664
21
192.800114
0
LINE
8
Layer 1
10
-174.960664
20
192.800114
11
-171.388593
21
187.629273
0
LINE
8
Layer 1
10
-171.388593
20
187.629273
11
-167.329032
21
182.523676
0
LINE
8
Layer 1
10
-167.329032
20
182.523676
11
-163.252223
21
178.115698
0
LINE
8
Layer 1
10
-163.252223
20
178.115698
11
-159.275720
21
174.477948
0
LINE
8
Layer 1
10
-159.275720
20
174.477948
11
-155.305014
21
171.412075
0
LINE
8
Layer 1
10
-155.305014
20
171.412075
11
-151.204132
21
168.861880
0
LINE
8
Layer 1
10
-151.204132
20
168.861880
11
-146.837102
21
166.771164
0
LINE
8
Layer 1
10
-146.837102
20
166.771164
11
-142.067952
21
165.083728
0
LINE
8
Layer 1
10
-142.067952
20
165.083728
11
-136.760709
21
163.743371
0
LINE
8
Layer 1
10
-136.760709
20
163.743371
11
-130.779401
21
162.693895
0
LINE
8
Layer 1
10
-130.779401
20
162.693895
11
-123.988057
21
161.879101
0
LINE
8
Layer 1
10
-123.988057
20
161.879101
11
-119.405880
21
161.358482
0
LINE
8
Layer 1
10
-119.405880
20
161.358482
11
-116.166424
21
160.794262
0
LINE
8
Layer 1
10
-116.166424
20
160.794262
11
-114.280328
21
160.125283
0
LINE
8
Layer 1
10
-114.280328
20
160.125283
11
-113.848115
21
159.732397
0
LINE
8
Layer 1
10
-113.848115
20
159.732397
11
-113.758232
21
159.290387
0
LINE
8
Layer 1
10
-113.758232
20
159.290387
11
-114.012009
21
158.791608
0
LINE
8
Layer 1
10
-114.012009
20
158.791608
11
-114.610776
21
158.228416
0
LINE
8
Layer 1
10
-114.610776
20
158.228416
11
-116.848599
21
156.878213
0
LINE
8
Layer 1
10
-116.848599
20
156.878213
11
-120.482340
21
155.178618
0
LINE
8
Layer 1
10
-120.482340
20
155.178618
11
-125.522640
21
153.068476
0
LINE
8
Layer 1
10
-125.522640
20
153.068476
11
-136.097154
21
148.773406
0
LINE
8
Layer 1
10
-136.097154
20
148.773406
11
-142.923404
21
152.257087
0
LINE
8
Layer 1
10
-142.923404
20
152.257087
11
-145.012204
21
153.226223
0
LINE
8
Layer 1
10
-145.012204
20
153.226223
11
-147.125211
21
154.019270
0
LINE
8
Layer 1
10
-147.125211
20
154.019270
11
-149.252190
21
154.637797
0
LINE
8
Layer 1
10
-149.252190
20
154.637797
11
-151.382908
21
155.083376
0
LINE
8
Layer 1
10
-151.382908
20
155.083376
11
-153.507130
21
155.357579
0
LINE
8
Layer 1
10
-153.507130
20
155.357579
11
-155.614624
21
155.461975
0
LINE
8
Layer 1
10
-155.614624
20
155.461975
11
-157.695155
21
155.398136
0
LINE
8
Layer 1
10
-157.695155
20
155.398136
11
-159.738490
21
155.167633
0
LINE
8
Layer 1
10
-159.738490
20
155.167633
11
-161.734395
21
154.772037
0
LINE
8
Layer 1
10
-161.734395
20
154.772037
11
-163.672637
21
154.212919
0
LINE
8
Layer 1
10
-163.672637
20
154.212919
11
-165.542981
21
153.491850
0
LINE
8
Layer 1
10
-165.542981
20
153.491850
11
-167.335193
21
152.610401
0
LINE
8
Layer 1
10
-167.335193
20
152.610401
11
-169.039041
21
151.570143
0
LINE
8
Layer 1
10
-169.039041
20
151.570143
11
-170.644290
21
150.372647
0
LINE
8
Layer 1
10
-170.644290
20
150.372647
11
-172.140706
21
149.019485
0
LINE
8
Layer 1
10
-172.140706
20
149.019485
11
-173.518057
21
147.512226
0
LINE
8
Layer 1
10
-173.518057
20
147.512226
11
-174.224911
21
146.576519
0
LINE
8
Layer 1
10
-174.224911
20
146.576519
11
-174.660843
21
145.737425
0
LINE
8
Layer 1
10
-174.660843
20
145.737425
11
-174.800803
21
144.932585
0
LINE
8
Layer 1
10
-174.800803
20
144.932585
11
-174.619741
21
144.099639
0
LINE
8
Layer 1
10
-174.619741
20
144.099639
11
-174.092610
21
143.176226
0
LINE
8
Layer 1
10
-174.092610
20
143.176226
11
-173.194360
21
142.099987
0
LINE
8
Layer 1
10
-173.194360
20
142.099987
11
-170.184307
21
139.239587
0
LINE
8
Layer 1
10
-170.184307
20
139.239587
11
-166.991200
21
136.716051
0
LINE
8
Layer 1
10
-166.991200
20
136.716051
11
-165.469301
21
135.807347
0
LINE
8
Layer 1
10
-165.469301
20
135.807347
11
-163.928902
21
135.107858
0
LINE
8
Layer 1
10
-163.928902
20
135.107858
11
-162.318800
21
134.597965
0
LINE
8
Layer 1
10
-162.318800
20
134.597965
11
-160.587795
21
134.258048
0
LINE
8
Layer 1
10
-160.587795
20
134.258048
11
-156.558265
21
134.009656
0
LINE
8
Layer 1
10
-156.558265
20
134.009656
11
-153.260672
21
134.218765
0
LINE
8
Layer 1
10
-153.260672
20
134.218765
11
-150.030785
21
134.788500
0
LINE
8
Layer 1
10
-150.030785
20
134.788500
11
-147.240210
21
135.632477
0
LINE
8
Layer 1
10
-147.240210
20
135.632477
11
-146.125793
21
136.130310
0
LINE
8
Layer 1
10
-146.125793
20
136.130310
11
-145.260557
21
136.664309
0
LINE
8
Layer 1
10
-145.260557
20
136.664309
11
-143.295585
21
137.922641
0
LINE
8
Layer 1
10
-143.295585
20
137.922641
11
-141.246739
21
138.756389
0
LINE
8
Layer 1
10
-141.246739
20
138.756389
11
-139.057586
21
139.159815
0
LINE
8
Layer 1
10
-139.057586
20
139.159815
11
-136.671696
21
139.127177
0
LINE
8
Layer 1
10
-136.671696
20
139.127177
11
-134.032639
21
138.652735
0
LINE
8
Layer 1
10
-134.032639
20
138.652735
11
-131.083983
21
137.730749
0
LINE
8
Layer 1
10
-131.083983
20
137.730749
11
-127.769299
21
136.355479
0
LINE
8
Layer 1
10
-127.769299
20
136.355479
11
-124.032154
21
134.521184
0
LINE
8
Layer 1
10
-124.032154
20
134.521184
11
-114.577709
21
129.599934
0
LINE
8
Layer 1
10
-114.577709
20
129.599934
11
-125.443265
21
128.409309
0
LINE
8
Layer 1
10
-125.443265
20
128.409309
11
-131.884841
21
127.445724
0
LINE
8
Layer 1
10
-131.884841
20
127.445724
11
-137.893695
21
126.003074
0
LINE
8
Layer 1
10
-137.893695
20
126.003074
11
-140.748242
21
125.095406
0
LINE
8
Layer 1
10
-140.748242
20
125.095406
11
-143.509475
21
124.059940
0
LINE
8
Layer 1
10
-143.509475
20
124.059940
11
-146.182352
21
122.893997
0
LINE
8
Layer 1
10
-146.182352
20
122.893997
11
-148.771827
21
121.594900
0
LINE
8
Layer 1
10
-148.771827
20
121.594900
11
-151.282856
21
120.159973
0
LINE
8
Layer 1
10
-151.282856
20
120.159973
11
-153.720395
21
118.586536
0
LINE
8
Layer 1
10
-153.720395
20
118.586536
11
-156.089400
21
116.871914
0
LINE
8
Layer 1
10
-156.089400
20
116.871914
11
-158.394826
21
115.013428
0
LINE
8
Layer 1
10
-158.394826
20
115.013428
11
-162.834767
21
110.854154
0
LINE
8
Layer 1
10
-162.834767
20
110.854154
11
-167.079862
21
106.087295
0
LINE
8
Layer 1
10
-167.079862
20
106.087295
11
-170.034879
21
102.069007
0
LINE
8
Layer 1
10
-170.034879
20
102.069007
11
-173.099621
21
97.207445
0
LINE
8
Layer 1
10
-173.099621
20
97.207445
11
-175.912765
21
92.115912
0
LINE
8
Layer 1
10
-175.912765
20
92.115912
11
-178.112987
21
87.407712
0
LINE
8
Layer 1
10
-178.112987
20
87.407712
11
-181.878890
21
76.939031
0
LINE
8
Layer 1
10
-181.878890
20
76.939031
11
-181.878890
21
207.281601
0
LINE
8
Layer 1
10
-181.878890
20
207.281601
11
-181.878890
21
207.281601
0
LINE
8
Layer 1
10
391.878876
20
207.281601
11
391.878876
21
76.939031
0
LINE
8
Layer 1
10
391.878876
20
76.939031
11
388.112988
21
87.407712
0
LINE
8
Layer 1
10
388.112988
20
87.407712
11
385.912762
21
92.115912
0
LINE
8
Layer 1
10
385.912762
20
92.115912
11
383.099613
21
97.207445
0
LINE
8
Layer 1
10
383.099613
20
97.207445
11
380.034867
21
102.069007
0
LINE
8
Layer 1
10
380.034867
20
102.069007
11
377.079849
21
106.087295
0
LINE
8
Layer 1
10
377.079849
20
106.087295
11
372.834751
21
110.854154
0
LINE
8
Layer 1
10
372.834751
20
110.854154
11
368.394809
21
115.013428
0
LINE
8
Layer 1
10
368.394809
20
115.013428
11
366.089381
21
116.871914
0
LINE
8
Layer 1
10
366.089381
20
116.871914
11
363.720376
21
118.586536
0
LINE
8
Layer 1
10
363.720376
20
118.586536
11
361.282836
21
120.159973
0
LINE
8
Layer 1
10
361.282836
20
120.159973
11
358.771807
21
121.594900
0
LINE
8
Layer 1
10
358.771807
20
121.594900
11
356.182333
21
122.893997
0
LINE
8
Layer 1
10
356.182333
20
122.893997
11
353.509458
21
124.059940
0
LINE
8
Layer 1
10
353.509458
20
124.059940
11
350.748225
21
125.095406
0
LINE
8
Layer 1
10
350.748225
20
125.095406
11
347.893681
21
126.003074
0
LINE
8
Layer 1
10
347.893681
20
126.003074
11
341.884832
21
127.445724
0
LINE
8
Layer 1
10
341.884832
20
127.445724
11
335.443266
21
128.409309
0
LINE
8
Layer 1
10
335.443266
20
128.409309
11
324.577710
21
129.599934
0
LINE
8
Layer 1
10
324.577710
20
129.599934
11
334.032154
21
134.521184
0
LINE
8
Layer 1
10
334.032154
20
134.521184
11
337.769297
21
136.355479
0
LINE
8
Layer 1
10
337.769297
20
136.355479
11
341.083978
21
137.730749
0
LINE
8
Layer 1
10
341.083978
20
137.730749
11
344.032629
21
138.652735
0
LINE
8
Layer 1
10
344.032629
20
138.652735
11
346.671681
21
139.127177
0
LINE
8
Layer 1
10
346.671681
20
139.127177
11
349.057567
21
139.159815
0
LINE
8
Layer 1
10
349.057567
20
139.159815
11
351.246719
21
138.756389
0
LINE
8
Layer 1
10
351.246719
20
138.756389
11
353.295567
21
137.922641
0
LINE
8
Layer 1
10
353.295567
20
137.922641
11
355.260543
21
136.664309
0
LINE
8
Layer 1
10
355.260543
20
136.664309
11
356.125777
21
136.130310
0
LINE
8
Layer 1
10
356.125777
20
136.130310
11
357.240192
21
135.632477
0
LINE
8
Layer 1
10
357.240192
20
135.632477
11
360.030765
21
134.788500
0
LINE
8
Layer 1
10
360.030765
20
134.788500
11
363.260658
21
134.218765
0
LINE
8
Layer 1
10
363.260658
20
134.218765
11
366.558266
21
134.009656
0
LINE
8
Layer 1
10
366.558266
20
134.009656
11
370.587792
21
134.258048
0
LINE
8
Layer 1
10
370.587792
20
134.258048
11
372.318795
21
134.597965
0
LINE
8
Layer 1
10
372.318795
20
134.597965
11
373.928894
21
135.107858
0
LINE
8
Layer 1
10
373.928894
20
135.107858
11
375.469291
21
135.807347
0
LINE
8
Layer 1
10
375.469291
20
135.807347
11
376.991189
21
136.716051
0
LINE
8
Layer 1
10
376.991189
20
136.716051
11
380.184293
21
139.239587
0
LINE
8
Layer 1
10
380.184293
20
139.239587
11
383.194344
21
142.099987
0
LINE
8
Layer 1
10
383.194344
20
142.099987
11
384.092594
21
143.176226
0
LINE
8
Layer 1
10
384.092594
20
143.176226
11
384.619726
21
144.099639
0
LINE
8
Layer 1
10
384.619726
20
144.099639
11
384.800788
21
144.932585
0
LINE
8
Layer 1
10
384.800788
20
144.932585
11
384.660829
21
145.737425
0
LINE
8
Layer 1
10
384.660829
20
145.737425
11
384.224898
21
146.576519
0
LINE
8
Layer 1
10
384.224898
20
146.576519
11
383.518043
21
147.512226
0
LINE
8
Layer 1
10
383.518043
20
147.512226
11
382.140691
21
149.019485
0
LINE
8
Layer 1
10
382.140691
20
149.019485
11
380.644273
21
150.372647
0
LINE
8
Layer 1
10
380.644273
20
150.372647
11
379.039022
21
151.570143
0
LINE
8
Layer 1
10
379.039022
20
151.570143
11
377.335173
21
152.610401
0
LINE
8
Layer 1
10
377.335173
20
152.610401
11
375.542959
21
153.491850
0
LINE
8
Layer 1
10
375.542959
20
153.491850
11
373.672614
21
154.212919
0
LINE
8
Layer 1
10
373.672614
20
154.212919
11
371.734372
21
154.772037
0
LINE
8
Layer 1
10
371.734372
20
154.772037
11
369.738465
21
155.167633
0
LINE
8
Layer 1
10
369.738465
20
155.167633
11
367.695129
21
155.398136
0
LINE
8
Layer 1
10
367.695129
20
155.398136
11
365.614597
21
155.461975
0
LINE
8
Layer 1
10
365.614597
20
155.461975
11
363.507103
21
155.357579
0
LINE
8
Layer 1
10
363.507103
20
155.357579
11
361.382880
21
155.083376
0
LINE
8
Layer 1
10
361.382880
20
155.083376
11
359.252162
21
154.637797
0
LINE
8
Layer 1
10
359.252162
20
154.637797
11
357.125183
21
154.019270
0
LINE
8
Layer 1
10
357.125183
20
154.019270
11
355.012176
21
153.226223
0
LINE
8
Layer 1
10
355.012176
20
153.226223
11
352.923376
21
152.257087
0
LINE
8
Layer 1
10
352.923376
20
152.257087
11
346.097154
21
148.773406
0
LINE
8
Layer 1
10
346.097154
20
148.773406
11
335.522626
21
153.068476
0
LINE
8
Layer 1
10
335.522626
20
153.068476
11
330.482323
21
155.178618
0
LINE
8
Layer 1
10
330.482323
20
155.178618
11
326.848579
21
156.878213
0
LINE
8
Layer 1
10
326.848579
20
156.878213
11
324.610757
21
158.228416
0
LINE
8
Layer 1
10
324.610757
20
158.228416
11
324.011990
21
158.791608
0
LINE
8
Layer 1
10
324.011990
20
158.791608
11
323.758214
21
159.290387
0
LINE
8
Layer 1
10
323.758214
20
159.290387
11
323.848098
21
159.732397
0
LINE
8
Layer 1
10
323.848098
20
159.732397
11
324.280312
21
160.125283
0
LINE
8
Layer 1
10
324.280312
20
160.125283
11
326.166409
21
160.794262
0
LINE
8
Layer 1
10
326.166409
20
160.794262
11
329.405867
21
161.358482
0
LINE
8
Layer 1
10
329.405867
20
161.358482
11
333.988043
21
161.879101
0
LINE
8
Layer 1
10
333.988043
20
161.879101
11
340.779388
21
162.693895
0
LINE
8
Layer 1
10
340.779388
20
162.693895
11
346.760696
21
163.743371
0
LINE
8
Layer 1
10
346.760696
20
163.743371
11
352.067939
21
165.083728
0
LINE
8
Layer 1
10
352.067939
20
165.083728
11
356.837089
21
166.771164
0
LINE
8
Layer 1
10
356.837089
20
166.771164
11
361.204119
21
168.861880
0
LINE
8
Layer 1
10
361.204119
20
168.861880
11
365.305001
21
171.412075
0
LINE
8
Layer 1
10
365.305001
20
171.412075
11
369.275707
21
174.477948
0
LINE
8
Layer 1
10
369.275707
20
174.477948
11
373.252210
21
178.115698
0
LINE
8
Layer 1
10
373.252210
20
178.115698
11
377.329016
21
182.523676
0
LINE
8
Layer 1
10
377.329016
20
182.523676
11
381.388578
21
187.629273
0
LINE
8
Layer 1
10
381.388578
20
187.629273
11
384.960649
21
192.800114
0
LINE
8
Layer 1
10
384.960649
20
192.800114
11
386.416925
21
195.212383
0
LINE
8
Layer 1
10
386.416925
20
195.212383
11
387.574988
21
197.403823
0
LINE
8
Layer 1
10
387.574988
20
197.403823
11
391.878876
21
207.281601
0
LINE
8
Layer 1
10
391.878876
20
207.281601
11
391.878876
21
207.281601
0
LINE
8
Layer 1
10
101.207638
20
193.232226
11
97.274166
21
172.691740
0
LINE
8
Layer 1
10
97.274166
20
172.691740
11
78.144791
21
180.302920
0
LINE
8
Layer 1
10
78.144791
20
180.302920
11
83.144535
21
184.729541
0
LINE
8
Layer 1
10
83.144535
20
184.729541
11
85.878148
21
186.858984
0
LINE
8
Layer 1
10
85.878148
20
186.858984
11
88.745056
21
188.818006
0
LINE
8
Layer 1
10
88.745056
20
188.818006
11
91.728359
21
190.520723
0
LINE
8
Layer 1
10
91.728359
20
190.520723
11
94.811157
21
191.881254
0
LINE
8
Layer 1
10
94.811157
20
191.881254
11
97.976550
21
192.813716
0
LINE
8
Layer 1
10
97.976550
20
192.813716
11
101.207638
21
193.232226
0
LINE
8
Layer 1
10
101.207638
20
193.232226
11
101.207638
21
193.232226
0
LINE
8
Layer 1
10
108.792360
20
193.232226
11
112.023448
21
192.813716
0
LINE
8
Layer 1
10
112.023448
20
192.813716
11
115.188841
21
191.881254
0
LINE
8
Layer 1
10
115.188841
20
191.881254
11
118.271639
21
190.520723
0
LINE
8
Layer 1
10
118.271639
20
190.520723
11
121.254942
21
188.818006
0
LINE
8
Layer 1
10
121.254942
20
188.818006
11
124.121851
21
186.858984
0
LINE
8
Layer 1
10
124.121851
20
186.858984
11
126.855464
21
184.729541
0
LINE
8
Layer 1
10
126.855464
20
184.729541
11
131.855207
21
180.302920
0
LINE
8
Layer 1
10
131.855207
20
180.302920
11
112.725832
21
172.691740
0
LINE
8
Layer 1
10
112.725832
20
172.691740
11
108.792360
21
193.232226
0
LINE
8
Layer 1
10
108.792360
20
193.232226
11
108.792360
21
193.232226
0
LINE
8
Layer 1
10
13.224860
20
188.725490
11
14.254320
21
188.508705
0
LINE
8
Layer 1
10
14.254320
20
188.508705
11
15.534498
21
187.660539
0
LINE
8
Layer 1
10
15.534498
20
187.660539
11
17.231924
21
186.134379
0
LINE
8
Layer 1
10
17.231924
20
186.134379
11
19.513124
21
183.883615
0
LINE
8
Layer 1
10
19.513124
20
183.883615
11
22.434686
21
181.249672
0
LINE
8
Layer 1
10
22.434686
20
181.249672
11
25.518888
21
179.032015
0
LINE
8
Layer 1
10
25.518888
20
179.032015
11
28.774164
21
177.227744
0
LINE
8
Layer 1
10
28.774164
20
177.227744
11
32.208943
21
175.833960
0
LINE
8
Layer 1
10
32.208943
20
175.833960
11
35.831659
21
174.847762
0
LINE
8
Layer 1
10
35.831659
20
174.847762
11
39.650741
21
174.266253
0
LINE
8
Layer 1
10
39.650741
20
174.266253
11
43.674623
21
174.086531
0
LINE
8
Layer 1
10
43.674623
20
174.086531
11
47.911735
21
174.305698
0
LINE
8
Layer 1
10
47.911735
20
174.305698
11
56.925207
21
175.170003
0
LINE
8
Layer 1
10
56.925207
20
175.170003
11
51.774652
21
170.857295
0
LINE
8
Layer 1
10
51.774652
20
170.857295
11
49.244483
21
168.899165
0
LINE
8
Layer 1
10
49.244483
20
168.899165
11
46.162895
21
166.756446
0
LINE
8
Layer 1
10
46.162895
20
166.756446
11
42.919442
21
164.688596
0
LINE
8
Layer 1
10
42.919442
20
164.688596
11
39.903679
21
162.955073
0
LINE
8
Layer 1
10
39.903679
20
162.955073
11
37.122997
21
161.622652
0
LINE
8
Layer 1
10
37.122997
20
161.622652
11
34.391986
21
160.612661
0
LINE
8
Layer 1
10
34.391986
20
160.612661
11
31.723146
21
159.919466
0
LINE
8
Layer 1
10
31.723146
20
159.919466
11
29.128981
21
159.537430
0
LINE
8
Layer 1
10
29.128981
20
159.537430
11
26.621991
21
159.460917
0
LINE
8
Layer 1
10
26.621991
20
159.460917
11
24.214678
21
159.684292
0
LINE
8
Layer 1
10
24.214678
20
159.684292
11
21.919544
21
160.201919
0
LINE
8
Layer 1
10
21.919544
20
160.201919
11
19.749091
21
161.008163
0
LINE
8
Layer 1
10
19.749091
20
161.008163
11
17.715820
21
162.097387
0
LINE
8
Layer 1
10
17.715820
20
162.097387
11
15.832233
21
163.463956
0
LINE
8
Layer 1
10
15.832233
20
163.463956
11
14.110832
21
165.102235
0
LINE
8
Layer 1
10
14.110832
20
165.102235
11
12.564117
21
167.006587
0
LINE
8
Layer 1
10
12.564117
20
167.006587
11
11.204592
21
169.171377
0
LINE
8
Layer 1
10
11.204592
20
169.171377
11
10.044757
21
171.590969
0
LINE
8
Layer 1
10
10.044757
20
171.590969
11
9.097114
21
174.259728
0
LINE
8
Layer 1
10
9.097114
20
174.259728
11
8.374166
21
177.172017
0
LINE
8
Layer 1
10
8.374166
20
177.172017
11
8.005955
21
180.056740
0
LINE
8
Layer 1
10
8.005955
20
180.056740
11
8.027261
21
181.311770
0
LINE
8
Layer 1
10
8.027261
20
181.311770
11
8.190608
21
182.467049
0
LINE
8
Layer 1
10
8.190608
20
182.467049
11
8.499821
21
183.541431
0
LINE
8
Layer 1
10
8.499821
20
183.541431
11
8.958724
21
184.553767
0
LINE
8
Layer 1
10
8.958724
20
184.553767
11
10.340902
21
186.467712
0
LINE
8
Layer 1
10
10.340902
20
186.467712
11
11.920181
21
188.082549
0
LINE
8
Layer 1
10
11.920181
20
188.082549
11
12.579514
21
188.533552
0
LINE
8
Layer 1
10
12.579514
20
188.533552
11
13.224860
21
188.725490
0
LINE
8
Layer 1
10
13.224860
20
188.725490
11
13.224860
21
188.725490
0
LINE
8
Layer 1
10
196.528193
20
188.725490
11
196.775138
21
188.725490
0
LINE
8
Layer 1
10
196.775138
20
188.725490
11
197.420484
21
188.533552
0
LINE
8
Layer 1
10
197.420484
20
188.533552
11
198.079815
21
188.082549
0
LINE
8
Layer 1
10
198.079815
20
188.082549
11
199.659096
21
186.467712
0
LINE
8
Layer 1
10
199.659096
20
186.467712
11
201.041273
21
184.553767
0
LINE
8
Layer 1
10
201.041273
20
184.553767
11
201.500176
21
183.541431
0
LINE
8
Layer 1
10
201.500176
20
183.541431
11
201.809388
21
182.467049
0
LINE
8
Layer 1
10
201.809388
20
182.467049
11
201.972734
21
181.311770
0
LINE
8
Layer 1
10
201.972734
20
181.311770
11
201.994041
21
180.056740
0
LINE
8
Layer 1
10
201.994041
20
180.056740
11
201.625832
21
177.172017
0
LINE
8
Layer 1
10
201.625832
20
177.172017
11
200.902883
21
174.259728
0
LINE
8
Layer 1
10
200.902883
20
174.259728
11
199.955241
21
171.590969
0
LINE
8
Layer 1
10
199.955241
20
171.590969
11
198.795406
21
169.171377
0
LINE
8
Layer 1
10
198.795406
20
169.171377
11
197.435880
21
167.006587
0
LINE
8
Layer 1
10
197.435880
20
167.006587
11
195.889165
21
165.102235
0
LINE
8
Layer 1
10
195.889165
20
165.102235
11
194.167763
21
163.463956
0
LINE
8
Layer 1
10
194.167763
20
163.463956
11
192.284176
21
162.097387
0
LINE
8
Layer 1
10
192.284176
20
162.097387
11
190.250904
21
161.008163
0
LINE
8
Layer 1
10
190.250904
20
161.008163
11
188.080451
21
160.201919
0
LINE
8
Layer 1
10
188.080451
20
160.201919
11
185.785317
21
159.684292
0
LINE
8
Layer 1
10
185.785317
20
159.684292
11
183.378004
21
159.460917
0
LINE
8
Layer 1
10
183.378004
20
159.460917
11
180.871014
21
159.537430
0
LINE
8
Layer 1
10
180.871014
20
159.537430
11
178.276849
21
159.919466
0
LINE
8
Layer 1
10
178.276849
20
159.919466
11
175.608010
21
160.612661
0
LINE
8
Layer 1
10
175.608010
20
160.612661
11
172.876999
21
161.622652
0
LINE
8
Layer 1
10
172.876999
20
161.622652
11
170.096318
21
162.955073
0
LINE
8
Layer 1
10
170.096318
20
162.955073
11
167.080554
21
164.688596
0
LINE
8
Layer 1
10
167.080554
20
164.688596
11
163.837101
21
166.756446
0
LINE
8
Layer 1
10
163.837101
20
166.756446
11
160.755513
21
168.899165
0
LINE
8
Layer 1
10
160.755513
20
168.899165
11
158.225346
21
170.857295
0
LINE
8
Layer 1
10
158.225346
20
170.857295
11
153.074791
21
175.170003
0
LINE
8
Layer 1
10
153.074791
20
175.170003
11
162.088263
21
174.305698
0
LINE
8
Layer 1
10
162.088263
20
174.305698
11
166.325375
21
174.086531
0
LINE
8
Layer 1
10
166.325375
20
174.086531
11
170.349257
21
174.266253
0
LINE
8
Layer 1
10
170.349257
20
174.266253
11
174.168339
21
174.847762
0
LINE
8
Layer 1
10
174.168339
20
174.847762
11
177.791054
21
175.833960
0
LINE
8
Layer 1
10
177.791054
20
175.833960
11
181.225832
21
177.227744
0
LINE
8
Layer 1
10
181.225832
20
177.227744
11
184.481108
21
179.032015
0
LINE
8
Layer 1
10
184.481108
20
179.032015
11
187.565311
21
181.249672
0
LINE
8
Layer 1
10
187.565311
20
181.249672
11
190.486874
21
183.883615
0
LINE
8
Layer 1
10
190.486874
20
183.883615
11
194.277564
21
187.506579
0
LINE
8
Layer 1
10
194.277564
20
187.506579
11
195.526405
21
188.397108
0
LINE
8
Layer 1
10
195.526405
20
188.397108
11
196.528193
21
188.725490
0
LINE
8
Layer 1
10
196.528193
20
188.725490
11
196.528193
21
188.725490
0
LINE
8
Layer 1
10
74.140763
20
176.113684
11
83.947985
21
156.349309
0
LINE
8
Layer 1
10
83.947985
20
156.349309
11
65.118471
21
150.766601
0
LINE
8
Layer 1
10
65.118471
20
150.766601
11
65.202989
21
154.646091
0
LINE
8
Layer 1
10
65.202989
20
154.646091
11
65.531381
21
158.132847
0
LINE
8
Layer 1
10
65.531381
20
158.132847
11
66.130749
21
161.321651
0
LINE
8
Layer 1
10
66.130749
20
161.321651
11
67.028193
21
164.307282
0
LINE
8
Layer 1
10
67.028193
20
164.307282
11
68.250816
21
167.184521
0
LINE
8
Layer 1
10
68.250816
20
167.184521
11
69.825717
21
170.048148
0
LINE
8
Layer 1
10
69.825717
20
170.048148
11
71.779999
21
172.992942
0
LINE
8
Layer 1
10
71.779999
20
172.992942
11
74.140763
21
176.113684
0
LINE
8
Layer 1
10
74.140763
20
176.113684
11
74.140763
21
176.113684
0
LINE
8
Layer 1
10
135.859235
20
176.113684
11
138.219999
21
172.992942
0
LINE
8
Layer 1
10
138.219999
20
172.992942
11
140.174281
21
170.048148
0
LINE
8
Layer 1
10
140.174281
20
170.048148
11
141.749183
21
167.184521
0
LINE
8
Layer 1
10
141.749183
20
167.184521
11
142.971805
21
164.307282
0
LINE
8
Layer 1
10
142.971805
20
164.307282
11
143.869250
21
161.321651
0
LINE
8
Layer 1
10
143.869250
20
161.321651
11
144.468618
21
158.132847
0
LINE
8
Layer 1
10
144.468618
20
158.132847
11
144.797010
21
154.646091
0
LINE
8
Layer 1
10
144.797010
20
154.646091
11
144.881527
21
150.766601
0
LINE
8
Layer 1
10
144.881527
20
150.766601
11
126.052013
21
156.349309
0
LINE
8
Layer 1
10
126.052013
20
156.349309
11
135.859235
21
176.113684
0
LINE
8
Layer 1
10
135.859235
20
176.113684
11
135.859235
21
176.113684
0
LINE
8
Layer 1
10
-76.345418
20
161.182365
11
-70.004135
21
161.075715
0
LINE
8
Layer 1
10
-70.004135
20
161.075715
11
-67.951491
21
160.886691
0
LINE
8
Layer 1
10
-67.951491
20
160.886691
11
-66.500365
21
160.557682
0
LINE
8
Layer 1
10
-66.500365
20
160.557682
11
-65.542895
21
160.051544
0
LINE
8
Layer 1
10
-65.542895
20
160.051544
11
-64.971222
21
159.331139
0
LINE
8
Layer 1
10
-64.971222
20
159.331139
11
-64.677484
21
158.359325
0
LINE
8
Layer 1
10
-64.677484
20
158.359325
11
-64.553821
21
157.098962
0
LINE
8
Layer 1
10
-64.553821
20
157.098962
11
-64.489122
21
153.755286
0
LINE
8
Layer 1
10
-64.489122
20
153.755286
11
-64.633196
21
151.436878
0
LINE
8
Layer 1
10
-64.633196
20
151.436878
11
-64.606941
21
151.146743
0
LINE
8
Layer 1
10
-64.606941
20
151.146743
11
-64.418460
21
150.932580
0
LINE
8
Layer 1
10
-64.418460
20
150.932580
11
-63.618352
21
150.734677
0
LINE
8
Layer 1
10
-63.618352
20
150.734677
11
-62.359937
21
150.848188
0
LINE
8
Layer 1
10
-62.359937
20
150.848188
11
-60.770279
21
151.278128
0
LINE
8
Layer 1
10
-60.770279
20
151.278128
11
-58.953022
21
151.803895
0
LINE
8
Layer 1
10
-58.953022
20
151.803895
11
-56.789128
21
152.258041
0
LINE
8
Layer 1
10
-56.789128
20
152.258041
11
-51.576794
21
152.951891
0
LINE
8
Layer 1
10
-51.576794
20
152.951891
11
-45.444006
21
153.360518
0
LINE
8
Layer 1
10
-45.444006
20
153.360518
11
-38.701495
21
153.484761
0
LINE
8
Layer 1
10
-38.701495
20
153.484761
11
-31.659991
21
153.325457
0
LINE
8
Layer 1
10
-31.659991
20
153.325457
11
-24.630224
21
152.883446
0
LINE
8
Layer 1
10
-24.630224
20
152.883446
11
-17.922923
21
152.159566
0
LINE
8
Layer 1
10
-17.922923
20
152.159566
11
-11.848820
21
151.154656
0
LINE
8
Layer 1
10
-11.848820
20
151.154656
11
-5.070633
21
149.731916
0
LINE
8
Layer 1
10
-5.070633
20
149.731916
11
0.021087
21
148.529751
0
LINE
8
Layer 1
10
0.021087
20
148.529751
11
3.485052
21
147.504421
0
LINE
8
Layer 1
10
3.485052
20
147.504421
11
5.379973
21
146.612184
0
LINE
8
Layer 1
10
5.379973
20
146.612184
11
5.757390
21
146.202307
0
LINE
8
Layer 1
10
5.757390
20
146.202307
11
5.764564
21
145.809302
0
LINE
8
Layer 1
10
5.764564
20
145.809302
11
5.408832
21
145.427700
0
LINE
8
Layer 1
10
5.408832
20
145.427700
11
4.697535
21
145.052034
0
LINE
8
Layer 1
10
4.697535
20
145.052034
11
2.237601
21
144.296639
0
LINE
8
Layer 1
10
2.237601
20
144.296639
11
-1.556529
21
143.499378
0
LINE
8
Layer 1
10
-1.556529
20
143.499378
11
-25.554237
21
138.569309
0
LINE
8
Layer 1
10
-25.554237
20
138.569309
11
-32.916478
21
137.130176
0
LINE
8
Layer 1
10
-32.916478
20
137.130176
11
-35.879093
21
136.713834
0
LINE
8
Layer 1
10
-35.879093
20
136.713834
11
-38.500406
21
136.492764
0
LINE
8
Layer 1
10
-38.500406
20
136.492764
11
-40.883690
21
136.461809
0
LINE
8
Layer 1
10
-40.883690
20
136.461809
11
-43.132222
21
136.615812
0
LINE
8
Layer 1
10
-43.132222
20
136.615812
11
-45.349275
21
136.949614
0
LINE
8
Layer 1
10
-45.349275
20
136.949614
11
-47.638126
21
137.458059
0
LINE
8
Layer 1
10
-47.638126
20
137.458059
11
-51.060859
21
138.227776
0
LINE
8
Layer 1
10
-51.060859
20
138.227776
11
-54.564539
21
138.858833
0
LINE
8
Layer 1
10
-54.564539
20
138.858833
11
-57.738121
21
139.285597
0
LINE
8
Layer 1
10
-57.738121
20
139.285597
11
-60.170557
21
139.442434
0
LINE
8
Layer 1
10
-60.170557
20
139.442434
11
-62.602065
21
139.292141
0
LINE
8
Layer 1
10
-62.602065
20
139.292141
11
-63.361395
21
139.050047
0
LINE
8
Layer 1
10
-63.361395
20
139.050047
11
-63.851791
21
138.648453
0
LINE
8
Layer 1
10
-63.851791
20
138.648453
11
-64.099762
21
138.051206
0
LINE
8
Layer 1
10
-64.099762
20
138.051206
11
-64.131819
21
137.222154
0
LINE
8
Layer 1
10
-64.131819
20
137.222154
11
-63.654237
21
134.724031
0
LINE
8
Layer 1
10
-63.654237
20
134.724031
11
-63.296328
21
132.566392
0
LINE
8
Layer 1
10
-63.296328
20
132.566392
11
-63.398544
21
130.788807
0
LINE
8
Layer 1
10
-63.398544
20
130.788807
11
-63.959336
21
129.400153
0
LINE
8
Layer 1
10
-63.959336
20
129.400153
11
-64.411213
21
128.854450
0
LINE
8
Layer 1
10
-64.411213
20
128.854450
11
-64.977154
21
128.409309
0
LINE
8
Layer 1
10
-64.977154
20
128.409309
11
-66.236935
21
127.800077
0
LINE
8
Layer 1
10
-66.236935
20
127.800077
11
-67.812293
21
127.316008
0
LINE
8
Layer 1
10
-67.812293
20
127.316008
11
-69.502460
21
127.005968
0
LINE
8
Layer 1
10
-69.502460
20
127.005968
11
-71.106668
21
126.918823
0
LINE
8
Layer 1
10
-71.106668
20
126.918823
11
-73.258131
21
127.088099
0
LINE
8
Layer 1
10
-73.258131
20
127.088099
11
-75.574777
21
127.464514
0
LINE
8
Layer 1
10
-75.574777
20
127.464514
11
-80.466773
21
128.718411
0
LINE
8
Layer 1
10
-80.466773
20
128.718411
11
-85.308971
21
130.439805
0
LINE
8
Layer 1
10
-85.308971
20
130.439805
11
-89.627683
21
132.387988
0
LINE
8
Layer 1
10
-89.627683
20
132.387988
11
-92.949225
21
134.322252
0
LINE
8
Layer 1
10
-92.949225
20
134.322252
11
-94.088029
21
135.208943
0
LINE
8
Layer 1
10
-94.088029
20
135.208943
11
-94.799908
21
136.001889
0
LINE
8
Layer 1
10
-94.799908
20
136.001889
11
-95.025652
21
136.671001
0
LINE
8
Layer 1
10
-95.025652
20
136.671001
11
-94.706049
21
137.186190
0
LINE
8
Layer 1
10
-94.706049
20
137.186190
11
-93.781888
21
137.517369
0
LINE
8
Layer 1
10
-93.781888
20
137.517369
11
-92.193959
21
137.634448
0
LINE
8
Layer 1
10
-92.193959
20
137.634448
11
-90.134922
21
137.865654
0
LINE
8
Layer 1
10
-90.134922
20
137.865654
11
-87.343386
21
138.495737
0
LINE
8
Layer 1
10
-87.343386
20
138.495737
11
-84.185783
21
139.429394
0
LINE
8
Layer 1
10
-84.185783
20
139.429394
11
-81.028543
21
140.571323
0
LINE
8
Layer 1
10
-81.028543
20
140.571323
11
-76.956725
21
142.299661
0
LINE
8
Layer 1
10
-76.956725
20
142.299661
11
-75.784123
21
142.965938
0
LINE
8
Layer 1
10
-75.784123
20
142.965938
11
-75.128427
21
143.588814
0
LINE
8
Layer 1
10
-75.128427
20
143.588814
11
-74.945662
21
144.234687
0
LINE
8
Layer 1
10
-74.945662
20
144.234687
11
-75.191853
21
144.969951
0
LINE
8
Layer 1
10
-75.191853
20
144.969951
11
-75.823028
21
145.861003
0
LINE
8
Layer 1
10
-75.823028
20
145.861003
11
-76.795209
21
146.974240
0
LINE
8
Layer 1
10
-76.795209
20
146.974240
11
-78.650033
21
148.476105
0
LINE
8
Layer 1
10
-78.650033
20
148.476105
11
-81.389250
21
150.012524
0
LINE
8
Layer 1
10
-81.389250
20
150.012524
11
-84.642645
21
151.403430
0
LINE
8
Layer 1
10
-84.642645
20
151.403430
11
-88.040001
21
152.468753
0
LINE
8
Layer 1
10
-88.040001
20
152.468753
11
-96.145071
21
154.514865
0
LINE
8
Layer 1
10
-96.145071
20
154.514865
11
-92.035209
21
157.848615
0
LINE
8
Layer 1
10
-92.035209
20
157.848615
11
-90.839096
21
158.698123
0
LINE
8
Layer 1
10
-90.839096
20
158.698123
11
-89.502959
21
159.407284
0
LINE
8
Layer 1
10
-89.502959
20
159.407284
11
-87.987508
21
159.984445
0
LINE
8
Layer 1
10
-87.987508
20
159.984445
11
-86.253455
21
160.437951
0
LINE
8
Layer 1
10
-86.253455
20
160.437951
11
-81.972381
21
161.007387
0
LINE
8
Layer 1
10
-81.972381
20
161.007387
11
-76.345418
21
161.182365
0
LINE
8
Layer 1
10
-76.345418
20
161.182365
11
-76.345418
21
161.182365
0
LINE
8
Layer 1
10
284.449238
20
161.182365
11
286.345404
21
161.182365
0
LINE
8
Layer 1
10
286.345404
20
161.182365
11
291.972361
21
161.007387
0
LINE
8
Layer 1
10
291.972361
20
161.007387
11
296.253433
21
160.437951
0
LINE
8
Layer 1
10
296.253433
20
160.437951
11
297.987487
21
159.984445
0
LINE
8
Layer 1
10
297.987487
20
159.984445
11
299.502942
21
159.407284
0
LINE
8
Layer 1
10
299.502942
20
159.407284
11
300.839086
21
158.698123
0
LINE
8
Layer 1
10
300.839086
20
158.698123
11
302.035210
21
157.848615
0
LINE
8
Layer 1
10
302.035210
20
157.848615
11
306.145043
21
154.514865
0
LINE
8
Layer 1
10
306.145043
20
154.514865
11
298.039988
21
152.468753
0
LINE
8
Layer 1
10
298.039988
20
152.468753
11
294.642627
21
151.403430
0
LINE
8
Layer 1
10
294.642627
20
151.403430
11
291.389237
21
150.012524
0
LINE
8
Layer 1
10
291.389237
20
150.012524
11
288.650028
21
148.476105
0
LINE
8
Layer 1
10
288.650028
20
148.476105
11
286.795210
21
146.974240
0
LINE
8
Layer 1
10
286.795210
20
146.974240
11
285.823030
21
145.861003
0
LINE
8
Layer 1
10
285.823030
20
145.861003
11
285.191857
21
144.969951
0
LINE
8
Layer 1
10
285.191857
20
144.969951
11
284.945666
21
144.234687
0
LINE
8
Layer 1
10
284.945666
20
144.234687
11
285.128430
21
143.588814
0
LINE
8
Layer 1
10
285.128430
20
143.588814
11
285.784125
21
142.965938
0
LINE
8
Layer 1
10
285.784125
20
142.965938
11
286.956726
21
142.299661
0
LINE
8
Layer 1
10
286.956726
20
142.299661
11
291.028543
21
140.571323
0
LINE
8
Layer 1
10
291.028543
20
140.571323
11
294.185780
21
139.429394
0
LINE
8
Layer 1
10
294.185780
20
139.429394
11
297.343371
21
138.495737
0
LINE
8
Layer 1
10
297.343371
20
138.495737
11
300.134896
21
137.865654
0
LINE
8
Layer 1
10
300.134896
20
137.865654
11
302.193932
21
137.634448
0
LINE
8
Layer 1
10
302.193932
20
137.634448
11
303.781865
21
137.517369
0
LINE
8
Layer 1
10
303.781865
20
137.517369
11
304.706029
21
137.186190
0
LINE
8
Layer 1
10
304.706029
20
137.186190
11
305.025635
21
136.671001
0
LINE
8
Layer 1
10
305.025635
20
136.671001
11
304.799893
21
136.001889
0
LINE
8
Layer 1
10
304.799893
20
136.001889
11
304.088016
21
135.208943
0
LINE
8
Layer 1
10
304.088016
20
135.208943
11
302.949212
21
134.322252
0
LINE
8
Layer 1
10
302.949212
20
134.322252
11
299.627672
21
132.387988
0
LINE
8
Layer 1
10
299.627672
20
132.387988
11
295.308961
21
130.439805
0
LINE
8
Layer 1
10
295.308961
20
130.439805
11
290.466764
21
128.718411
0
LINE
8
Layer 1
10
290.466764
20
128.718411
11
285.574770
21
127.464514
0
LINE
8
Layer 1
10
285.574770
20
127.464514
11
283.258126
21
127.088099
0
LINE
8
Layer 1
10
283.258126
20
127.088099
11
281.106666
21
126.918823
0
LINE
8
Layer 1
10
281.106666
20
126.918823
11
279.502457
21
127.005968
0
LINE
8
Layer 1
10
279.502457
20
127.005968
11
277.812288
21
127.316008
0
LINE
8
Layer 1
10
277.812288
20
127.316008
11
276.236930
21
127.800077
0
LINE
8
Layer 1
10
276.236930
20
127.800077
11
274.977152
21
128.409309
0
LINE
8
Layer 1
10
274.977152
20
128.409309
11
274.411211
21
128.854450
0
LINE
8
Layer 1
10
274.411211
20
128.854450
11
273.959333
21
129.400153
0
LINE
8
Layer 1
10
273.959333
20
129.400153
11
273.398540
21
130.788807
0
LINE
8
Layer 1
10
273.398540
20
130.788807
11
273.296323
21
132.566392
0
LINE
8
Layer 1
10
273.296323
20
132.566392
11
273.654235
21
134.724031
0
LINE
8
Layer 1
10
273.654235
20
134.724031
11
274.131816
21
137.222154
0
LINE
8
Layer 1
10
274.131816
20
137.222154
11
274.099758
21
138.051206
0
LINE
8
Layer 1
10
274.099758
20
138.051206
11
273.851786
21
138.648453
0
LINE
8
Layer 1
10
273.851786
20
138.648453
11
273.361391
21
139.050047
0
LINE
8
Layer 1
10
273.361391
20
139.050047
11
272.602061
21
139.292141
0
LINE
8
Layer 1
10
272.602061
20
139.292141
11
270.170554
21
139.442434
0
LINE
8
Layer 1
10
270.170554
20
139.442434
11
267.738118
21
139.285597
0
LINE
8
Layer 1
10
267.738118
20
139.285597
11
264.564535
21
138.858833
0
LINE
8
Layer 1
10
264.564535
20
138.858833
11
261.060854
21
138.227776
0
LINE
8
Layer 1
10
261.060854
20
138.227776
11
257.638124
21
137.458059
0
LINE
8
Layer 1
10
257.638124
20
137.458059
11
255.349273
21
136.949614
0
LINE
8
Layer 1
10
255.349273
20
136.949614
11
253.132219
21
136.615812
0
LINE
8
Layer 1
10
253.132219
20
136.615812
11
250.883687
21
136.461809
0
LINE
8
Layer 1
10
250.883687
20
136.461809
11
248.500402
21
136.492764
0
LINE
8
Layer 1
10
248.500402
20
136.492764
11
245.879089
21
136.713834
0
LINE
8
Layer 1
10
245.879089
20
136.713834
11
242.916473
21
137.130176
0
LINE
8
Layer 1
10
242.916473
20
137.130176
11
235.554235
21
138.569309
0
LINE
8
Layer 1
10
235.554235
20
138.569309
11
211.556527
21
143.499378
0
LINE
8
Layer 1
10
211.556527
20
143.499378
11
207.762397
21
144.296639
0
LINE
8
Layer 1
10
207.762397
20
144.296639
11
205.302462
21
145.052034
0
LINE
8
Layer 1
10
205.302462
20
145.052034
11
204.591164
21
145.427700
0
LINE
8
Layer 1
10
204.591164
20
145.427700
11
204.235433
21
145.809302
0
LINE
8
Layer 1
10
204.235433
20
145.809302
11
204.242606
21
146.202307
0
LINE
8
Layer 1
10
204.242606
20
146.202307
11
204.620023
21
146.612184
0
LINE
8
Layer 1
10
204.620023
20
146.612184
11
206.514944
21
147.504421
0
LINE
8
Layer 1
10
206.514944
20
147.504421
11
209.978908
21
148.529751
0
LINE
8
Layer 1
10
209.978908
20
148.529751
11
215.070629
21
149.731916
0
LINE
8
Layer 1
10
215.070629
20
149.731916
11
221.848818
21
151.154656
0
LINE
8
Layer 1
10
221.848818
20
151.154656
11
227.922921
21
152.159566
0
LINE
8
Layer 1
10
227.922921
20
152.159566
11
234.630221
21
152.883446
0
LINE
8
Layer 1
10
234.630221
20
152.883446
11
241.659987
21
153.325457
0
LINE
8
Layer 1
10
241.659987
20
153.325457
11
248.701491
21
153.484761
0
LINE
8
Layer 1
10
248.701491
20
153.484761
11
255.444001
21
153.360518
0
LINE
8
Layer 1
10
255.444001
20
153.360518
11
261.576789
21
152.951891
0
LINE
8
Layer 1
10
261.576789
20
152.951891
11
266.789124
21
152.258041
0
LINE
8
Layer 1
10
266.789124
20
152.258041
11
268.953019
21
151.803895
0
LINE
8
Layer 1
10
268.953019
20
151.803895
11
270.770277
21
151.278128
0
LINE
8
Layer 1
10
270.770277
20
151.278128
11
272.359934
21
150.848188
0
LINE
8
Layer 1
10
272.359934
20
150.848188
11
273.618348
21
150.734677
0
LINE
8
Layer 1
10
273.618348
20
150.734677
11
274.418455
21
150.932580
0
LINE
8
Layer 1
10
274.418455
20
150.932580
11
274.606937
21
151.146743
0
LINE
8
Layer 1
10
274.606937
20
151.146743
11
274.633193
21
151.436878
0
LINE
8
Layer 1
10
274.633193
20
151.436878
11
274.489117
21
153.755286
0
LINE
8
Layer 1
10
274.489117
20
153.755286
11
274.553818
21
157.098962
0
LINE
8
Layer 1
10
274.553818
20
157.098962
11
274.665990
21
158.289578
0
LINE
8
Layer 1
10
274.665990
20
158.289578
11
274.921881
21
159.224852
0
LINE
8
Layer 1
10
274.921881
20
159.224852
11
275.410311
21
159.935284
0
LINE
8
Layer 1
10
275.410311
20
159.935284
11
276.220100
21
160.451376
0
LINE
8
Layer 1
10
276.220100
20
160.451376
11
277.440067
21
160.803629
0
LINE
8
Layer 1
10
277.440067
20
160.803629
11
279.159033
21
161.022544
0
LINE
8
Layer 1
10
279.159033
20
161.022544
11
284.449238
21
161.182365
0
LINE
8
Layer 1
10
284.449238
20
161.182365
11
284.449238
21
161.182365
0
LINE
8
Layer 1
10
63.513332
20
142.758545
11
83.427638
21
136.681948
0
LINE
8
Layer 1
10
83.427638
20
136.681948
11
73.929096
21
117.711323
0
LINE
8
Layer 1
10
73.929096
20
117.711323
11
71.323026
21
121.008202
0
LINE
8
Layer 1
10
71.323026
20
121.008202
11
69.238596
21
124.108620
0
LINE
8
Layer 1
10
69.238596
20
124.108620
11
67.601286
21
127.087095
0
LINE
8
Layer 1
10
67.601286
20
127.087095
11
66.336575
21
130.018149
0
LINE
8
Layer 1
10
66.336575
20
130.018149
11
65.369945
21
132.976301
0
LINE
8
Layer 1
10
65.369945
20
132.976301
11
64.626874
21
136.036071
0
LINE
8
Layer 1
10
64.626874
20
136.036071
11
63.513332
21
142.758545
0
LINE
8
Layer 1
10
63.513332
20
142.758545
11
63.513332
21
142.758545
0
LINE
8
Layer 1
10
146.486666
20
142.758545
11
145.373124
21
136.036071
0
LINE
8
Layer 1
10
145.373124
20
136.036071
11
144.630054
21
132.976301
0
LINE
8
Layer 1
10
144.630054
20
132.976301
11
143.663423
21
130.018149
0
LINE
8
Layer 1
10
143.663423
20
130.018149
11
142.398713
21
127.087095
0
LINE
8
Layer 1
10
142.398713
20
127.087095
11
140.761403
21
124.108620
0
LINE
8
Layer 1
10
140.761403
20
124.108620
11
138.676972
21
121.008202
0
LINE
8
Layer 1
10
138.676972
20
121.008202
11
136.070902
21
117.711323
0
LINE
8
Layer 1
10
136.070902
20
117.711323
11
126.572360
21
136.681948
0
LINE
8
Layer 1
10
126.572360
20
136.681948
11
146.486666
21
142.758545
0
LINE
8
Layer 1
10
146.486666
20
142.758545
11
146.486666
21
142.758545
0
LINE
8
Layer 1
10
27.441805
20
132.201670
11
30.427992
21
131.950114
0
LINE
8
Layer 1
10
30.427992
20
131.950114
11
33.735254
21
131.236901
0
LINE
8
Layer 1
10
33.735254
20
131.236901
11
37.226875
21
130.124217
0
LINE
8
Layer 1
10
37.226875
20
130.124217
11
40.766143
21
128.674247
0
LINE
8
Layer 1
10
40.766143
20
128.674247
11
44.216345
21
126.949177
0
LINE
8
Layer 1
10
44.216345
20
126.949177
11
47.440767
21
125.011190
0
LINE
8
Layer 1
10
47.440767
20
125.011190
11
50.302695
21
122.922474
0
LINE
8
Layer 1
10
50.302695
20
122.922474
11
52.665416
21
120.745212
0
LINE
8
Layer 1
10
52.665416
20
120.745212
11
56.581249
21
116.573615
0
LINE
8
Layer 1
10
56.581249
20
116.573615
11
46.112568
21
117.332087
0
LINE
8
Layer 1
10
46.112568
20
117.332087
11
41.231538
21
117.479602
0
LINE
8
Layer 1
10
41.231538
20
117.479602
11
36.763282
21
117.184746
0
LINE
8
Layer 1
10
36.763282
20
117.184746
11
32.703241
21
116.445730
0
LINE
8
Layer 1
10
32.703241
20
116.445730
11
29.046852
21
115.260762
0
LINE
8
Layer 1
10
29.046852
20
115.260762
11
25.789555
21
113.628051
0
LINE
8
Layer 1
10
25.789555
20
113.628051
11
22.926787
21
111.545808
0
LINE
8
Layer 1
10
22.926787
20
111.545808
11
20.453988
21
109.012241
0
LINE
8
Layer 1
10
20.453988
20
109.012241
11
18.366596
21
106.025559
0
LINE
8
Layer 1
10
18.366596
20
106.025559
11
15.883165
21
101.955240
0
LINE
8
Layer 1
10
15.883165
20
101.955240
11
15.026732
21
100.764210
0
LINE
8
Layer 1
10
15.026732
20
100.764210
11
14.346420
21
100.076451
0
LINE
8
Layer 1
10
14.346420
20
100.076451
11
13.781677
21
99.847352
0
LINE
8
Layer 1
10
13.781677
20
99.847352
11
13.271951
21
100.032302
0
LINE
8
Layer 1
10
13.271951
20
100.032302
11
12.756691
21
100.586691
0
LINE
8
Layer 1
10
12.756691
20
100.586691
11
12.175346
21
101.465906
0
LINE
8
Layer 1
10
12.175346
20
101.465906
11
10.796071
21
104.050893
0
LINE
8
Layer 1
10
10.796071
20
104.050893
11
9.798209
21
106.688829
0
LINE
8
Layer 1
10
9.798209
20
106.688829
11
9.166697
21
109.349397
0
LINE
8
Layer 1
10
9.166697
20
109.349397
11
8.886473
21
112.002280
0
LINE
8
Layer 1
10
8.886473
20
112.002280
11
8.942477
21
114.617159
0
LINE
8
Layer 1
10
8.942477
20
114.617159
11
9.319645
21
117.163717
0
LINE
8
Layer 1
10
9.319645
20
117.163717
11
10.002917
21
119.611635
0
LINE
8
Layer 1
10
10.002917
20
119.611635
11
10.977230
21
121.930596
0
LINE
8
Layer 1
10
10.977230
20
121.930596
11
12.227522
21
124.090281
0
LINE
8
Layer 1
10
12.227522
20
124.090281
11
13.738733
21
126.060374
0
LINE
8
Layer 1
10
13.738733
20
126.060374
11
15.495799
21
127.810555
0
LINE
8
Layer 1
10
15.495799
20
127.810555
11
17.483659
21
129.310507
0
LINE
8
Layer 1
10
17.483659
20
129.310507
11
19.687252
21
130.529913
0
LINE
8
Layer 1
10
19.687252
20
130.529913
11
22.091515
21
131.438454
0
LINE
8
Layer 1
10
22.091515
20
131.438454
11
24.681386
21
132.005812
0
LINE
8
Layer 1
10
24.681386
20
132.005812
11
27.441805
21
132.201670
0
LINE
8
Layer 1
10
27.441805
20
132.201670
11
27.441805
21
132.201670
0
LINE
8
Layer 1
10
182.558193
20
132.201670
11
185.318612
21
132.005812
0
LINE
8
Layer 1
10
185.318612
20
132.005812
11
187.908483
21
131.438454
0
LINE
8
Layer 1
10
187.908483
20
131.438454
11
190.312746
21
130.529913
0
LINE
8
Layer 1
10
190.312746
20
130.529913
11
192.516339
21
129.310507
0
LINE
8
Layer 1
10
192.516339
20
129.310507
11
194.504199
21
127.810555
0
LINE
8
Layer 1
10
194.504199
20
127.810555
11
196.261264
21
126.060374
0
LINE
8
Layer 1
10
196.261264
20
126.060374
11
197.772474
21
124.090281
0
LINE
8
Layer 1
10
197.772474
20
124.090281
11
199.022766
21
121.930596
0
LINE
8
Layer 1
10
199.022766
20
121.930596
11
199.997079
21
119.611635
0
LINE
8
Layer 1
10
199.997079
20
119.611635
11
200.680351
21
117.163717
0
LINE
8
Layer 1
10
200.680351
20
117.163717
11
201.057519
21
114.617159
0
LINE
8
Layer 1
10
201.057519
20
114.617159
11
201.113522
21
112.002280
0
LINE
8
Layer 1
10
201.113522
20
112.002280
11
200.833299
21
109.349397
0
LINE
8
Layer 1
10
200.833299
20
109.349397
11
200.201787
21
106.688829
0
LINE
8
Layer 1
10
200.201787
20
106.688829
11
199.203926
21
104.050893
0
LINE
8
Layer 1
10
199.203926
20
104.050893
11
197.824652
21
101.465906
0
LINE
8
Layer 1
10
197.824652
20
101.465906
11
197.243306
21
100.586691
0
LINE
8
Layer 1
10
197.243306
20
100.586691
11
196.728046
21
100.032302
0
LINE
8
Layer 1
10
196.728046
20
100.032302
11
196.218320
21
99.847352
0
LINE
8
Layer 1
10
196.218320
20
99.847352
11
195.653576
21
100.076451
0
LINE
8
Layer 1
10
195.653576
20
100.076451
11
194.973263
21
100.764210
0
LINE
8
Layer 1
10
194.973263
20
100.764210
11
194.116831
21
101.955240
0
LINE
8
Layer 1
10
194.116831
20
101.955240
11
191.633402
21
106.025559
0
LINE
8
Layer 1
10
191.633402
20
106.025559
11
189.546010
21
109.012241
0
LINE
8
Layer 1
10
189.546010
20
109.012241
11
187.073210
21
111.545808
0
LINE
8
Layer 1
10
187.073210
20
111.545808
11
184.210442
21
113.628051
0
LINE
8
Layer 1
10
184.210442
20
113.628051
11
180.953144
21
115.260762
0
LINE
8
Layer 1
10
180.953144
20
115.260762
11
177.296754
21
116.445730
0
LINE
8
Layer 1
10
177.296754
20
116.445730
11
173.236713
21
117.184746
0
LINE
8
Layer 1
10
173.236713
20
117.184746
11
168.768458
21
117.479602
0
LINE
8
Layer 1
10
168.768458
20
117.479602
11
163.887429
21
117.332087
0
LINE
8
Layer 1
10
163.887429
20
117.332087
11
153.418749
21
116.573615
0
LINE
8
Layer 1
10
153.418749
20
116.573615
11
157.334582
21
120.745212
0
LINE
8
Layer 1
10
157.334582
20
120.745212
11
159.697303
21
122.922474
0
LINE
8
Layer 1
10
159.697303
20
122.922474
11
162.559230
21
125.011190
0
LINE
8
Layer 1
10
162.559230
20
125.011190
11
165.783651
21
126.949177
0
LINE
8
Layer 1
10
165.783651
20
126.949177
11
169.233852
21
128.674247
0
LINE
8
Layer 1
10
169.233852
20
128.674247
11
172.773120
21
130.124217
0
LINE
8
Layer 1
10
172.773120
20
130.124217
11
176.264742
21
131.236901
0
LINE
8
Layer 1
10
176.264742
20
131.236901
11
179.572004
21
131.950114
0
LINE
8
Layer 1
10
179.572004
20
131.950114
11
182.558193
21
132.201670
0
LINE
8
Layer 1
10
182.558193
20
132.201670
11
182.558193
21
132.201670
0
LINE
8
Layer 1
10
-12.016390
20
126.760073
11
-11.768037
21
126.579523
0
LINE
8
Layer 1
10
-11.768037
20
126.579523
11
-11.793420
21
126.061984
0
LINE
8
Layer 1
10
-11.793420
20
126.061984
11
-12.589310
21
124.160610
0
LINE
8
Layer 1
10
-12.589310
20
124.160610
11
-14.251881
21
121.345287
0
LINE
8
Layer 1
10
-14.251881
20
121.345287
11
-16.628959
21
117.905351
0
LINE
8
Layer 1
10
-16.628959
20
117.905351
11
-19.284597
21
114.044358
0
LINE
8
Layer 1
10
-19.284597
20
114.044358
11
-21.640560
21
110.118318
0
LINE
8
Layer 1
10
-21.640560
20
110.118318
11
-23.680077
21
106.170032
0
LINE
8
Layer 1
10
-23.680077
20
106.170032
11
-25.386379
21
102.242300
0
LINE
8
Layer 1
10
-25.386379
20
102.242300
11
-26.742696
21
98.377922
0
LINE
8
Layer 1
10
-26.742696
20
98.377922
11
-27.732256
21
94.619699
0
LINE
8
Layer 1
10
-27.732256
20
94.619699
11
-28.338291
21
91.010432
0
LINE
8
Layer 1
10
-28.338291
20
91.010432
11
-28.544029
21
87.592920
0
LINE
8
Layer 1
10
-28.544029
20
87.592920
11
-28.472588
21
85.241763
0
LINE
8
Layer 1
10
-28.472588
20
85.241763
11
-28.228454
21
83.505133
0
LINE
8
Layer 1
10
-28.228454
20
83.505133
11
-27.766912
21
82.369598
0
LINE
8
Layer 1
10
-27.766912
20
82.369598
11
-27.440638
21
82.023043
0
LINE
8
Layer 1
10
-27.440638
20
82.023043
11
-27.043243
21
81.821723
0
LINE
8
Layer 1
10
-27.043243
20
81.821723
11
-26.012733
21
81.848072
0
LINE
8
Layer 1
10
-26.012733
20
81.848072
11
-24.630665
21
82.435213
0
LINE
8
Layer 1
10
-24.630665
20
82.435213
11
-22.852321
21
83.569710
0
LINE
8
Layer 1
10
-22.852321
20
83.569710
11
-20.632987
21
85.238128
0
LINE
8
Layer 1
10
-20.632987
20
85.238128
11
-15.861668
21
88.986392
0
LINE
8
Layer 1
10
-15.861668
20
88.986392
11
-15.861668
21
84.250351
0
LINE
8
Layer 1
10
-15.861668
20
84.250351
11
-15.628771
21
81.480036
0
LINE
8
Layer 1
10
-15.628771
20
81.480036
11
-14.994401
21
77.441631
0
LINE
8
Layer 1
10
-14.994401
20
77.441631
11
-14.055036
21
72.677882
0
LINE
8
Layer 1
10
-14.055036
20
72.677882
11
-12.907154
21
67.731531
0
LINE
8
Layer 1
10
-12.907154
20
67.731531
11
-11.792630
21
62.727062
0
LINE
8
Layer 1
10
-11.792630
20
62.727062
11
-11.154698
21
58.519629
0
LINE
8
Layer 1
10
-11.154698
20
58.519629
11
-10.986883
21
55.135541
0
LINE
8
Layer 1
10
-10.986883
20
55.135541
11
-11.282709
21
52.601108
0
LINE
8
Layer 1
10
-11.282709
20
52.601108
11
-11.602464
21
51.660734
0
LINE
8
Layer 1
10
-11.602464
20
51.660734
11
-12.035700
21
50.942639
0
LINE
8
Layer 1
10
-12.035700
20
50.942639
11
-12.581610
21
50.450113
0
LINE
8
Layer 1
10
-12.581610
20
50.450113
11
-13.239383
21
50.186444
0
LINE
8
Layer 1
10
-13.239383
20
50.186444
11
-14.008209
21
50.154921
0
LINE
8
Layer 1
10
-14.008209
20
50.154921
11
-14.887280
21
50.358833
0
LINE
8
Layer 1
10
-14.887280
20
50.358833
11
-15.875786
21
50.801468
0
LINE
8
Layer 1
10
-15.875786
20
50.801468
11
-16.972918
21
51.486115
0
LINE
8
Layer 1
10
-16.972918
20
51.486115
11
-17.974594
21
52.364304
0
LINE
8
Layer 1
10
-17.974594
20
52.364304
11
-19.358040
21
53.838844
0
LINE
8
Layer 1
10
-19.358040
20
53.838844
11
-23.020370
21
58.260175
0
LINE
8
Layer 1
10
-23.020370
20
58.260175
11
-27.460154
21
64.116507
0
LINE
8
Layer 1
10
-27.460154
20
64.116507
11
-32.177640
21
70.774240
0
LINE
8
Layer 1
10
-32.177640
20
70.774240
11
-37.540093
21
78.503552
0
LINE
8
Layer 1
10
-37.540093
20
78.503552
11
-42.118957
21
84.817024
0
LINE
8
Layer 1
10
-42.118957
20
84.817024
11
-46.181735
21
89.997800
0
LINE
8
Layer 1
10
-46.181735
20
89.997800
11
-49.995927
21
94.329026
0
LINE
8
Layer 1
10
-49.995927
20
94.329026
11
-53.829036
21
98.093846
0
LINE
8
Layer 1
10
-53.829036
20
98.093846
11
-57.948563
21
101.575406
0
LINE
8
Layer 1
10
-57.948563
20
101.575406
11
-62.622009
21
105.056849
0
LINE
8
Layer 1
10
-62.622009
20
105.056849
11
-68.116876
21
108.821323
0
LINE
8
Layer 1
10
-68.116876
20
108.821323
11
-82.316182
21
118.381601
0
LINE
8
Layer 1
10
-82.316182
20
118.381601
11
-81.350185
21
118.404441
0
LINE
8
Layer 1
10
-81.350185
20
118.404441
11
-78.467706
21
118.235983
0
LINE
8
Layer 1
10
-78.467706
20
118.235983
11
-68.734237
21
117.446740
0
LINE
8
Layer 1
10
-68.734237
20
117.446740
11
-62.666456
21
117.068761
0
LINE
8
Layer 1
10
-62.666456
20
117.068761
11
-56.598878
21
117.015792
0
LINE
8
Layer 1
10
-56.598878
20
117.015792
11
-50.581642
21
117.281692
0
LINE
8
Layer 1
10
-50.581642
20
117.281692
11
-44.664885
21
117.860324
0
LINE
8
Layer 1
10
-44.664885
20
117.860324
11
-38.898746
21
118.745547
0
LINE
8
Layer 1
10
-38.898746
20
118.745547
11
-33.333363
21
119.931224
0
LINE
8
Layer 1
10
-33.333363
20
119.931224
11
-28.018874
21
121.411214
0
LINE
8
Layer 1
10
-28.018874
20
121.411214
11
-23.005418
21
123.179378
0
LINE
8
Layer 1
10
-23.005418
20
123.179378
11
-16.028080
21
125.708548
0
LINE
8
Layer 1
10
-16.028080
20
125.708548
11
-13.471039
21
126.477649
0
LINE
8
Layer 1
10
-13.471039
20
126.477649
11
-12.016390
21
126.760073
0
LINE
8
Layer 1
10
-12.016390
20
126.760073
11
-12.016390
21
126.760073
0
LINE
8
Layer 1
10
222.016388
20
126.760073
11
223.471036
21
126.477649
0
LINE
8
Layer 1
10
223.471036
20
126.477649
11
226.028076
21
125.708548
0
LINE
8
Layer 1
10
226.028076
20
125.708548
11
233.005416
21
123.179378
0
LINE
8
Layer 1
10
233.005416
20
123.179378
11
238.018872
21
121.411214
0
LINE
8
Layer 1
10
238.018872
20
121.411214
11
243.333360
21
119.931224
0
LINE
8
Layer 1
10
243.333360
20
119.931224
11
248.898743
21
118.745547
0
LINE
8
Layer 1
10
248.898743
20
118.745547
11
254.664881
21
117.860324
0
LINE
8
Layer 1
10
254.664881
20
117.860324
11
260.581637
21
117.281692
0
LINE
8
Layer 1
10
260.581637
20
117.281692
11
266.598874
21
117.015792
0
LINE
8
Layer 1
10
266.598874
20
117.015792
11
272.666452
21
117.068761
0
LINE
8
Layer 1
10
272.666452
20
117.068761
11
278.734235
21
117.446740
0
LINE
8
Layer 1
10
278.734235
20
117.446740
11
288.467690
21
118.235983
0
LINE
8
Layer 1
10
288.467690
20
118.235983
11
291.350160
21
118.404441
0
LINE
8
Layer 1
10
291.350160
20
118.404441
11
292.316154
21
118.381601
0
LINE
8
Layer 1
10
292.316154
20
118.381601
11
278.116874
21
108.821323
0
LINE
8
Layer 1
10
278.116874
20
108.821323
11
272.622006
21
105.056849
0
LINE
8
Layer 1
10
272.622006
20
105.056849
11
267.948559
21
101.575406
0
LINE
8
Layer 1
10
267.948559
20
101.575406
11
263.829032
21
98.093846
0
LINE
8
Layer 1
10
263.829032
20
98.093846
11
259.995923
21
94.329026
0
LINE
8
Layer 1
10
259.995923
20
94.329026
11
256.181730
21
89.997800
0
LINE
8
Layer 1
10
256.181730
20
89.997800
11
252.118952
21
84.817024
0
LINE
8
Layer 1
10
252.118952
20
84.817024
11
247.540089
21
78.503552
0
LINE
8
Layer 1
10
247.540089
20
78.503552
11
242.177638
21
70.774240
0
LINE
8
Layer 1
10
242.177638
20
70.774240
11
237.460151
21
64.116507
0
LINE
8
Layer 1
10
237.460151
20
64.116507
11
233.020366
21
58.260175
0
LINE
8
Layer 1
10
233.020366
20
58.260175
11
229.358036
21
53.838844
0
LINE
8
Layer 1
10
229.358036
20
53.838844
11
227.974590
21
52.364304
0
LINE
8
Layer 1
10
227.974590
20
52.364304
11
226.972916
21
51.486115
0
LINE
8
Layer 1
10
226.972916
20
51.486115
11
225.875784
21
50.801468
0
LINE
8
Layer 1
10
225.875784
20
50.801468
11
224.887278
21
50.358833
0
LINE
8
Layer 1
10
224.887278
20
50.358833
11
224.008207
21
50.154921
0
LINE
8
Layer 1
10
224.008207
20
50.154921
11
223.239380
21
50.186444
0
LINE
8
Layer 1
10
223.239380
20
50.186444
11
222.581607
21
50.450113
0
LINE
8
Layer 1
10
222.581607
20
50.450113
11
222.035697
21
50.942639
0
LINE
8
Layer 1
10
222.035697
20
50.942639
11
221.602460
21
51.660734
0
LINE
8
Layer 1
10
221.602460
20
51.660734
11
221.282704
21
52.601108
0
LINE
8
Layer 1
10
221.282704
20
52.601108
11
220.986878
21
55.135541
0
LINE
8
Layer 1
10
220.986878
20
55.135541
11
221.154694
21
58.519629
0
LINE
8
Layer 1
10
221.154694
20
58.519629
11
221.792626
21
62.727062
0
LINE
8
Layer 1
10
221.792626
20
62.727062
11
222.907152
21
67.731531
0
LINE
8
Layer 1
10
222.907152
20
67.731531
11
224.055033
21
72.677882
0
LINE
8
Layer 1
10
224.055033
20
72.677882
11
224.994397
21
77.441631
0
LINE
8
Layer 1
10
224.994397
20
77.441631
11
225.628767
21
81.480036
0
LINE
8
Layer 1
10
225.628767
20
81.480036
11
225.861666
21
84.250351
0
LINE
8
Layer 1
10
225.861666
20
84.250351
11
225.861666
21
88.986392
0
LINE
8
Layer 1
10
225.861666
20
88.986392
11
230.632985
21
85.238128
0
LINE
8
Layer 1
10
230.632985
20
85.238128
11
232.852319
21
83.569710
0
LINE
8
Layer 1
10
232.852319
20
83.569710
11
234.630662
21
82.435213
0
LINE
8
Layer 1
10
234.630662
20
82.435213
11
236.012730
21
81.848072
0
LINE
8
Layer 1
10
236.012730
20
81.848072
11
237.043239
21
81.821723
0
LINE
8
Layer 1
10
237.043239
20
81.821723
11
237.440633
21
82.023043
0
LINE
8
Layer 1
10
237.440633
20
82.023043
11
237.766907
21
82.369598
0
LINE
8
Layer 1
10
237.766907
20
82.369598
11
238.228450
21
83.505133
0
LINE
8
Layer 1
10
238.228450
20
83.505133
11
238.472584
21
85.241763
0
LINE
8
Layer 1
10
238.472584
20
85.241763
11
238.544027
21
87.592920
0
LINE
8
Layer 1
10
238.544027
20
87.592920
11
238.338288
21
91.010432
0
LINE
8
Layer 1
10
238.338288
20
91.010432
11
237.732253
21
94.619699
0
LINE
8
Layer 1
10
237.732253
20
94.619699
11
236.742692
21
98.377922
0
LINE
8
Layer 1
10
236.742692
20
98.377922
11
235.386375
21
102.242300
0
LINE
8
Layer 1
10
235.386375
20
102.242300
11
233.680073
21
106.170032
0
LINE
8
Layer 1
10
233.680073
20
106.170032
11
231.640555
21
110.118318
0
LINE
8
Layer 1
10
231.640555
20
110.118318
11
229.284593
21
114.044358
0
LINE
8
Layer 1
10
229.284593
20
114.044358
11
226.628957
21
117.905351
0
LINE
8
Layer 1
10
226.628957
20
117.905351
11
224.251879
21
121.345287
0
LINE
8
Layer 1
10
224.251879
20
121.345287
11
222.589306
21
124.160610
0
LINE
8
Layer 1
10
222.589306
20
124.160610
11
221.793416
21
126.061984
0
LINE
8
Layer 1
10
221.793416
20
126.061984
11
221.768033
21
126.579523
0
LINE
8
Layer 1
10
221.768033
20
126.579523
11
222.016388
21
126.760073
0
LINE
8
Layer 1
10
222.016388
20
126.760073
11
222.016388
21
126.760073
0
LINE
8
Layer 1
10
95.148679
20
121.327295
11
101.410485
21
102.709448
0
LINE
8
Layer 1
10
101.410485
20
102.709448
11
98.463691
21
102.765682
0
LINE
8
Layer 1
10
98.463691
20
102.765682
11
95.668249
21
103.011604
0
LINE
8
Layer 1
10
95.668249
20
103.011604
11
92.994784
21
103.492376
0
LINE
8
Layer 1
10
92.994784
20
103.492376
11
90.413923
21
104.253163
0
LINE
8
Layer 1
10
90.413923
20
104.253163
11
87.896291
21
105.339128
0
LINE
8
Layer 1
10
87.896291
20
105.339128
11
85.412514
21
106.795435
0
LINE
8
Layer 1
10
85.412514
20
106.795435
11
82.933217
21
108.667246
0
LINE
8
Layer 1
10
82.933217
20
108.667246
11
80.429027
21
110.999726
0
LINE
8
Layer 1
10
80.429027
20
110.999726
11
95.148679
21
121.327295
0
LINE
8
Layer 1
10
95.148679
20
121.327295
11
95.148679
21
121.327295
0
LINE
8
Layer 1
10
114.851318
20
121.327295
11
129.570971
21
110.999726
0
LINE
8
Layer 1
10
129.570971
20
110.999726
11
127.066780
21
108.667246
0
LINE
8
Layer 1
10
127.066780
20
108.667246
11
124.587483
21
106.795435
0
LINE
8
Layer 1
10
124.587483
20
106.795435
11
122.103705
21
105.339128
0
LINE
8
Layer 1
10
122.103705
20
105.339128
11
119.586072
21
104.253163
0
LINE
8
Layer 1
10
119.586072
20
104.253163
11
117.005211
21
103.492376
0
LINE
8
Layer 1
10
117.005211
20
103.492376
11
114.331747
21
103.011604
0
LINE
8
Layer 1
10
114.331747
20
103.011604
11
111.536305
21
102.765682
0
LINE
8
Layer 1
10
111.536305
20
102.765682
11
108.589513
21
102.709448
0
LINE
8
Layer 1
10
108.589513
20
102.709448
11
114.851318
21
121.327295
0
LINE
8
Layer 1
10
114.851318
20
121.327295
11
114.851318
21
121.327295
0
LINE
8
Layer 1
10
-140.842015
20
105.028962
11
-138.927361
21
104.907360
0
LINE
8
Layer 1
10
-138.927361
20
104.907360
11
-138.456810
21
104.652337
0
LINE
8
Layer 1
10
-138.456810
20
104.652337
11
-138.314388
21
104.176258
0
LINE
8
Layer 1
10
-138.314388
20
104.176258
11
-138.502802
21
103.410444
0
LINE
8
Layer 1
10
-138.502802
20
103.410444
11
-139.024760
21
102.286213
0
LINE
8
Layer 1
10
-139.024760
20
102.286213
11
-141.080140
21
98.687781
0
LINE
8
Layer 1
10
-141.080140
20
98.687781
11
-144.819584
21
92.346601
0
LINE
8
Layer 1
10
-144.819584
20
92.346601
11
-136.300001
21
92.346601
0
LINE
8
Layer 1
10
-136.300001
20
92.346601
11
-131.604991
21
92.246550
0
LINE
8
Layer 1
10
-131.604991
20
92.246550
11
-130.144495
21
92.059993
0
LINE
8
Layer 1
10
-130.144495
20
92.059993
11
-129.179265
21
91.727756
0
LINE
8
Layer 1
10
-129.179265
20
91.727756
11
-128.637248
21
91.208842
0
LINE
8
Layer 1
10
-128.637248
20
91.208842
11
-128.446389
21
90.462256
0
LINE
8
Layer 1
10
-128.446389
20
90.462256
11
-128.534635
21
89.447002
0
LINE
8
Layer 1
10
-128.534635
20
89.447002
11
-128.829932
21
88.122087
0
LINE
8
Layer 1
10
-128.829932
20
88.122087
11
-129.096984
21
86.553497
0
LINE
8
Layer 1
10
-129.096984
20
86.553497
11
-129.164513
21
84.778154
0
LINE
8
Layer 1
10
-129.164513
20
84.778154
11
-129.033653
21
82.802713
0
LINE
8
Layer 1
10
-129.033653
20
82.802713
11
-128.705539
21
80.633826
0
LINE
8
Layer 1
10
-128.705539
20
80.633826
11
-127.462096
21
75.742326
0
LINE
8
Layer 1
10
-127.462096
20
75.742326
11
-125.443265
21
70.156878
0
LINE
8
Layer 1
10
-125.443265
20
70.156878
11
-125.019516
21
68.699422
0
LINE
8
Layer 1
10
-125.019516
20
68.699422
11
-125.016731
21
68.152225
0
LINE
8
Layer 1
10
-125.016731
20
68.152225
11
-125.158001
21
67.718020
0
LINE
8
Layer 1
10
-125.158001
20
67.718020
11
-125.446826
21
67.390786
0
LINE
8
Layer 1
10
-125.446826
20
67.390786
11
-125.886705
21
67.164502
0
LINE
8
Layer 1
10
-125.886705
20
67.164502
11
-127.233612
21
66.990698
0
LINE
8
Layer 1
10
-127.233612
20
66.990698
11
-129.322261
21
66.727588
0
LINE
8
Layer 1
10
-129.322261
20
66.727588
11
-131.575023
21
65.987341
0
LINE
8
Layer 1
10
-131.575023
20
65.987341
11
-133.890378
21
64.843581
0
LINE
8
Layer 1
10
-133.890378
20
64.843581
11
-136.166806
21
63.369930
0
LINE
8
Layer 1
10
-136.166806
20
63.369930
11
-138.302787
21
61.640012
0
LINE
8
Layer 1
10
-138.302787
20
61.640012
11
-140.196801
21
59.727451
0
LINE
8
Layer 1
10
-140.196801
20
59.727451
11
-141.747328
21
57.705870
0
LINE
8
Layer 1
10
-141.747328
20
57.705870
11
-142.852848
21
55.648892
0
LINE
8
Layer 1
10
-142.852848
20
55.648892
11
-143.819283
21
52.771065
0
LINE
8
Layer 1
10
-143.819283
20
52.771065
11
-144.021499
21
51.493140
0
LINE
8
Layer 1
10
-144.021499
20
51.493140
11
-144.030637
21
50.239391
0
LINE
8
Layer 1
10
-144.030637
20
50.239391
11
-143.842391
21
48.947454
0
LINE
8
Layer 1
10
-143.842391
20
48.947454
11
-143.452454
21
47.554967
0
LINE
8
Layer 1
10
-143.452454
20
47.554967
11
-142.050279
21
44.218892
0
LINE
8
Layer 1
10
-142.050279
20
44.218892
11
-140.307066
21
41.040974
0
LINE
8
Layer 1
10
-140.307066
20
41.040974
11
-139.448410
21
39.954591
0
LINE
8
Layer 1
10
-139.448410
20
39.954591
11
-138.524342
21
39.151976
0
LINE
8
Layer 1
10
-138.524342
20
39.151976
11
-137.479327
21
38.594671
0
LINE
8
Layer 1
10
-137.479327
20
38.594671
11
-136.257832
21
38.244214
0
LINE
8
Layer 1
10
-136.257832
20
38.244214
11
-134.804323
21
38.062145
0
LINE
8
Layer 1
10
-134.804323
20
38.062145
11
-133.063265
21
38.010003
0
LINE
8
Layer 1
10
-133.063265
20
38.010003
11
-130.448080
21
38.220488
0
LINE
8
Layer 1
10
-130.448080
20
38.220488
11
-127.779328
21
38.793252
0
LINE
8
Layer 1
10
-127.779328
20
38.793252
11
-125.369089
21
39.640260
0
LINE
8
Layer 1
10
-125.369089
20
39.640260
11
-123.529446
21
40.673476
0
LINE
8
Layer 1
10
-123.529446
20
40.673476
11
-120.694725
21
42.568262
0
LINE
8
Layer 1
10
-120.694725
20
42.568262
11
-119.559671
21
43.157735
0
LINE
8
Layer 1
10
-119.559671
20
43.157735
11
-118.819862
21
43.389865
0
LINE
8
Layer 1
10
-118.819862
20
43.389865
11
-118.429435
21
43.329571
0
LINE
8
Layer 1
10
-118.429435
20
43.329571
11
-118.164043
21
43.114848
0
LINE
8
Layer 1
10
-118.164043
20
43.114848
11
-117.980646
21
42.283761
0
LINE
8
Layer 1
10
-117.980646
20
42.283761
11
-118.214241
21
41.019900
0
LINE
8
Layer 1
10
-118.214241
20
41.019900
11
-118.809397
21
39.446560
0
LINE
8
Layer 1
10
-118.809397
20
39.446560
11
-119.710683
21
37.687037
0
LINE
8
Layer 1
10
-119.710683
20
37.687037
11
-120.862669
21
35.864626
0
LINE
8
Layer 1
10
-120.862669
20
35.864626
11
-122.209923
21
34.102623
0
LINE
8
Layer 1
10
-122.209923
20
34.102623
11
-123.697015
21
32.524323
0
LINE
8
Layer 1
10
-123.697015
20
32.524323
11
-124.747932
21
31.658965
0
LINE
8
Layer 1
10
-124.747932
20
31.658965
11
-125.995887
21
30.840952
0
LINE
8
Layer 1
10
-125.995887
20
30.840952
11
-128.955138
21
29.398395
0
LINE
8
Layer 1
10
-128.955138
20
29.398395
11
-132.319216
21
28.299509
0
LINE
8
Layer 1
10
-132.319216
20
28.299509
11
-135.832571
21
27.647156
0
LINE
8
Layer 1
10
-135.832571
20
27.647156
11
-140.100537
21
27.373675
0
LINE
8
Layer 1
10
-140.100537
20
27.373675
11
-141.809489
21
27.493223
0
LINE
8
Layer 1
10
-141.809489
20
27.493223
11
-143.350438
21
27.817463
0
LINE
8
Layer 1
10
-143.350438
20
27.817463
11
-144.809896
21
28.371769
0
LINE
8
Layer 1
10
-144.809896
20
28.371769
11
-146.274374
21
29.181515
0
LINE
8
Layer 1
10
-146.274374
20
29.181515
11
-149.564446
21
31.668823
0
LINE
8
Layer 1
10
-149.564446
20
31.668823
11
-152.202836
21
34.209274
0
LINE
8
Layer 1
10
-152.202836
20
34.209274
11
-155.069843
21
37.494159
0
LINE
8
Layer 1
10
-155.069843
20
37.494159
11
-157.818961
21
41.098702
0
LINE
8
Layer 1
10
-157.818961
20
41.098702
11
-160.103682
21
44.598128
0
LINE
8
Layer 1
10
-160.103682
20
44.598128
11
-161.663507
21
47.661931
0
LINE
8
Layer 1
10
-161.663507
20
47.661931
11
-162.904508
21
50.953173
0
LINE
8
Layer 1
10
-162.904508
20
50.953173
11
-163.833319
21
54.433806
0
LINE
8
Layer 1
10
-163.833319
20
54.433806
11
-164.456574
21
58.065782
0
LINE
8
Layer 1
10
-164.456574
20
58.065782
11
-164.780907
21
61.811055
0
LINE
8
Layer 1
10
-164.780907
20
61.811055
11
-164.812951
21
65.631576
0
LINE
8
Layer 1
10
-164.812951
20
65.631576
11
-164.559340
21
69.489299
0
LINE
8
Layer 1
10
-164.559340
20
69.489299
11
-164.026708
21
73.346174
0
LINE
8
Layer 1
10
-164.026708
20
73.346174
11
-163.221689
21
77.164156
0
LINE
8
Layer 1
10
-163.221689
20
77.164156
11
-162.150916
21
80.905197
0
LINE
8
Layer 1
10
-162.150916
20
80.905197
11
-160.821023
21
84.531248
0
LINE
8
Layer 1
10
-160.821023
20
84.531248
11
-159.238645
21
88.004262
0
LINE
8
Layer 1
10
-159.238645
20
88.004262
11
-157.410414
21
91.286193
0
LINE
8
Layer 1
10
-157.410414
20
91.286193
11
-155.342965
21
94.338991
0
LINE
8
Layer 1
10
-155.342965
20
94.338991
11
-153.042931
21
97.124611
0
LINE
8
Layer 1
10
-153.042931
20
97.124611
11
-150.516946
21
99.605003
0
LINE
8
Layer 1
10
-150.516946
20
99.605003
11
-147.843291
21
101.710264
0
LINE
8
Layer 1
10
-147.843291
20
101.710264
11
-145.127677
21
103.434999
0
LINE
8
Layer 1
10
-145.127677
20
103.434999
11
-142.687964
21
104.600725
0
LINE
8
Layer 1
10
-142.687964
20
104.600725
11
-141.670903
21
104.918185
0
LINE
8
Layer 1
10
-141.670903
20
104.918185
11
-140.842015
21
105.028962
0
LINE
8
Layer 1
10
-140.842015
20
105.028962
11
-140.842015
21
105.028962
0
LINE
8
Layer 1
10
350.242265
20
105.028962
11
350.841987
21
105.028962
0
LINE
8
Layer 1
10
350.841987
20
105.028962
11
351.670887
21
104.918185
0
LINE
8
Layer 1
10
351.670887
20
104.918185
11
352.687954
21
104.600725
0
LINE
8
Layer 1
10
352.687954
20
104.600725
11
355.127666
21
103.434999
0
LINE
8
Layer 1
10
355.127666
20
103.434999
11
357.843275
21
101.710264
0
LINE
8
Layer 1
10
357.843275
20
101.710264
11
360.516932
21
99.605003
0
LINE
8
Layer 1
10
360.516932
20
99.605003
11
363.042915
21
97.124611
0
LINE
8
Layer 1
10
363.042915
20
97.124611
11
365.342948
21
94.338991
0
LINE
8
Layer 1
10
365.342948
20
94.338991
11
367.410396
21
91.286193
0
LINE
8
Layer 1
10
367.410396
20
91.286193
11
369.238625
21
88.004262
0
LINE
8
Layer 1
10
369.238625
20
88.004262
11
370.821003
21
84.531248
0
LINE
8
Layer 1
10
370.821003
20
84.531248
11
372.150894
21
80.905197
0
LINE
8
Layer 1
10
372.150894
20
80.905197
11
373.221666
21
77.164156
0
LINE
8
Layer 1
10
373.221666
20
77.164156
11
374.026684
21
73.346174
0
LINE
8
Layer 1
10
374.026684
20
73.346174
11
374.559315
21
69.489299
0
LINE
8
Layer 1
10
374.559315
20
69.489299
11
374.812925
21
65.631576
0
LINE
8
Layer 1
10
374.812925
20
65.631576
11
374.780880
21
61.811055
0
LINE
8
Layer 1
10
374.780880
20
61.811055
11
374.456547
21
58.065782
0
LINE
8
Layer 1
10
374.456547
20
58.065782
11
373.833292
21
54.433806
0
LINE
8
Layer 1
10
373.833292
20
54.433806
11
372.904480
21
50.953173
0
LINE
8
Layer 1
10
372.904480
20
50.953173
11
371.663479
21
47.661931
0
LINE
8
Layer 1
10
371.663479
20
47.661931
11
370.103654
21
44.598128
0
LINE
8
Layer 1
10
370.103654
20
44.598128
11
367.818944
21
41.098702
0
LINE
8
Layer 1
10
367.818944
20
41.098702
11
365.069829
21
37.494159
0
LINE
8
Layer 1
10
365.069829
20
37.494159
11
362.202821
21
34.209274
0
LINE
8
Layer 1
10
362.202821
20
34.209274
11
359.564432
21
31.668823
0
LINE
8
Layer 1
10
359.564432
20
31.668823
11
356.274352
21
29.181515
0
LINE
8
Layer 1
10
356.274352
20
29.181515
11
354.809870
21
28.371769
0
LINE
8
Layer 1
10
354.809870
20
28.371769
11
353.350410
21
27.817463
0
LINE
8
Layer 1
10
353.350410
20
27.817463
11
351.809460
21
27.493223
0
LINE
8
Layer 1
10
351.809460
20
27.493223
11
350.100507
21
27.373675
0
LINE
8
Layer 1
10
350.100507
20
27.373675
11
345.832543
21
27.647156
0
LINE
8
Layer 1
10
345.832543
20
27.647156
11
342.319200
21
28.299509
0
LINE
8
Layer 1
10
342.319200
20
28.299509
11
338.955119
21
29.398395
0
LINE
8
Layer 1
10
338.955119
20
29.398395
11
335.995861
21
30.840952
0
LINE
8
Layer 1
10
335.995861
20
30.840952
11
334.747904
21
31.658965
0
LINE
8
Layer 1
10
334.747904
20
31.658965
11
333.696987
21
32.524323
0
LINE
8
Layer 1
10
333.696987
20
32.524323
11
332.209905
21
34.102623
0
LINE
8
Layer 1
10
332.209905
20
34.102623
11
330.862656
21
35.864626
0
LINE
8
Layer 1
10
330.862656
20
35.864626
11
329.710670
21
37.687037
0
LINE
8
Layer 1
10
329.710670
20
37.687037
11
328.809382
21
39.446560
0
LINE
8
Layer 1
10
328.809382
20
39.446560
11
328.214223
21
41.019900
0
LINE
8
Layer 1
10
328.214223
20
41.019900
11
327.980626
21
42.283761
0
LINE
8
Layer 1
10
327.980626
20
42.283761
11
328.164024
21
43.114848
0
LINE
8
Layer 1
10
328.164024
20
43.114848
11
328.429418
21
43.329571
0
LINE
8
Layer 1
10
328.429418
20
43.329571
11
328.819849
21
43.389865
0
LINE
8
Layer 1
10
328.819849
20
43.389865
11
329.559646
21
43.157735
0
LINE
8
Layer 1
10
329.559646
20
43.157735
11
330.694697
21
42.568262
0
LINE
8
Layer 1
10
330.694697
20
42.568262
11
333.529432
21
40.673476
0
LINE
8
Layer 1
10
333.529432
20
40.673476
11
335.369074
21
39.640260
0
LINE
8
Layer 1
10
335.369074
20
39.640260
11
337.779311
21
38.793252
0
LINE
8
Layer 1
10
337.779311
20
38.793252
11
340.448067
21
38.220488
0
LINE
8
Layer 1
10
340.448067
20
38.220488
11
343.063266
21
38.010003
0
LINE
8
Layer 1
10
343.063266
20
38.010003
11
344.804327
21
38.062145
0
LINE
8
Layer 1
10
344.804327
20
38.062145
11
346.257835
21
38.244214
0
LINE
8
Layer 1
10
346.257835
20
38.244214
11
347.479326
21
38.594671
0
LINE
8
Layer 1
10
347.479326
20
38.594671
11
348.524336
21
39.151976
0
LINE
8
Layer 1
10
348.524336
20
39.151976
11
349.448399
21
39.954591
0
LINE
8
Layer 1
10
349.448399
20
39.954591
11
350.307052
21
41.040974
0
LINE
8
Layer 1
10
350.307052
20
41.040974
11
352.050265
21
44.218892
0
LINE
8
Layer 1
10
352.050265
20
44.218892
11
353.452431
21
47.554967
0
LINE
8
Layer 1
10
353.452431
20
47.554967
11
353.842365
21
48.947454
0
LINE
8
Layer 1
10
353.842365
20
48.947454
11
354.030608
21
50.239391
0
LINE
8
Layer 1
10
354.030608
20
50.239391
11
354.021468
21
51.493140
0
LINE
8
Layer 1
10
354.021468
20
51.493140
11
353.819252
21
52.771065
0
LINE
8
Layer 1
10
353.819252
20
52.771065
11
352.852821
21
55.648892
0
LINE
8
Layer 1
10
352.852821
20
55.648892
11
351.747310
21
57.705870
0
LINE
8
Layer 1
10
351.747310
20
57.705870
11
350.196786
21
59.727451
0
LINE
8
Layer 1
10
350.196786
20
59.727451
11
348.302772
21
61.640012
0
LINE
8
Layer 1
10
348.302772
20
61.640012
11
346.166789
21
63.369930
0
LINE
8
Layer 1
10
346.166789
20
63.369930
11
343.890359
21
64.843581
0
LINE
8
Layer 1
10
343.890359
20
64.843581
11
341.575002
21
65.987341
0
LINE
8
Layer 1
10
341.575002
20
65.987341
11
339.322242
21
66.727588
0
LINE
8
Layer 1
10
339.322242
20
66.727588
11
337.233599
21
66.990698
0
LINE
8
Layer 1
10
337.233599
20
66.990698
11
335.886682
21
67.164502
0
LINE
8
Layer 1
10
335.886682
20
67.164502
11
335.446802
21
67.390786
0
LINE
8
Layer 1
10
335.446802
20
67.390786
11
335.157978
21
67.718020
0
LINE
8
Layer 1
10
335.157978
20
67.718020
11
335.016710
21
68.152225
0
LINE
8
Layer 1
10
335.016710
20
68.152225
11
335.019501
21
68.699422
0
LINE
8
Layer 1
10
335.019501
20
68.699422
11
335.443266
21
70.156878
0
LINE
8
Layer 1
10
335.443266
20
70.156878
11
337.462083
21
75.742326
0
LINE
8
Layer 1
10
337.462083
20
75.742326
11
338.705525
21
80.633826
0
LINE
8
Layer 1
10
338.705525
20
80.633826
11
339.033641
21
82.802713
0
LINE
8
Layer 1
10
339.033641
20
82.802713
11
339.164504
21
84.778154
0
LINE
8
Layer 1
10
339.164504
20
84.778154
11
339.096980
21
86.553497
0
LINE
8
Layer 1
10
339.096980
20
86.553497
11
338.829932
21
88.122087
0
LINE
8
Layer 1
10
338.829932
20
88.122087
11
338.534639
21
89.447002
0
LINE
8
Layer 1
10
338.534639
20
89.447002
11
338.446391
21
90.462256
0
LINE
8
Layer 1
10
338.446391
20
90.462256
11
338.637245
21
91.208842
0
LINE
8
Layer 1
10
338.637245
20
91.208842
11
339.179256
21
91.727756
0
LINE
8
Layer 1
10
339.179256
20
91.727756
11
340.144481
21
92.059993
0
LINE
8
Layer 1
10
340.144481
20
92.059993
11
341.604974
21
92.246550
0
LINE
8
Layer 1
10
341.604974
20
92.246550
11
346.299988
21
92.346601
0
LINE
8
Layer 1
10
346.299988
20
92.346601
11
354.819571
21
92.346601
0
LINE
8
Layer 1
10
354.819571
20
92.346601
11
351.080126
21
98.687781
0
LINE
8
Layer 1
10
351.080126
20
98.687781
11
349.113541
21
102.117579
0
LINE
8
Layer 1
10
349.113541
20
102.117579
11
348.575097
21
103.230069
0
LINE
8
Layer 1
10
348.575097
20
103.230069
11
348.330248
21
104.016304
0
LINE
8
Layer 1
10
348.330248
20
104.016304
11
348.376769
21
104.532797
0
LINE
8
Layer 1
10
348.376769
20
104.532797
11
348.712430
21
104.836062
0
LINE
8
Layer 1
10
348.712430
20
104.836062
11
349.335004
21
104.982612
0
LINE
8
Layer 1
10
349.335004
20
104.982612
11
350.242265
21
105.028962
0
LINE
8
Layer 1
10
350.242265
20
105.028962
11
350.242265
21
105.028962
0
LINE
8
Layer 1
10
44.992499
20
100.901462
11
46.672854
21
100.857039
0
LINE
8
Layer 1
10
46.672854
20
100.857039
11
48.299791
21
100.645698
0
LINE
8
Layer 1
10
48.299791
20
100.645698
11
50.943045
21
99.943776
0
LINE
8
Layer 1
10
50.943045
20
99.943776
11
53.402563
21
98.849274
0
LINE
8
Layer 1
10
53.402563
20
98.849274
11
55.704751
21
97.334801
0
LINE
8
Layer 1
10
55.704751
20
97.334801
11
57.876013
21
95.372962
0
LINE
8
Layer 1
10
57.876013
20
95.372962
11
59.942756
21
92.936366
0
LINE
8
Layer 1
10
59.942756
20
92.936366
11
61.931386
21
89.997619
0
LINE
8
Layer 1
10
61.931386
20
89.997619
11
63.868309
21
86.529328
0
LINE
8
Layer 1
10
63.868309
20
86.529328
11
65.779929
21
82.504101
0
LINE
8
Layer 1
10
65.779929
20
82.504101
11
67.301559
21
78.392973
0
LINE
8
Layer 1
10
67.301559
20
78.392973
11
68.318754
21
74.112092
0
LINE
8
Layer 1
10
68.318754
20
74.112092
11
68.833756
21
69.704939
0
LINE
8
Layer 1
10
68.833756
20
69.704939
11
68.848805
21
65.214993
0
LINE
8
Layer 1
10
68.848805
20
65.214993
11
68.366143
21
60.685735
0
LINE
8
Layer 1
10
68.366143
20
60.685735
11
67.388012
21
56.160643
0
LINE
8
Layer 1
10
67.388012
20
56.160643
11
65.916652
21
51.683197
0
LINE
8
Layer 1
10
65.916652
20
51.683197
11
63.954304
21
47.296878
0
LINE
8
Layer 1
10
63.954304
20
47.296878
11
62.577766
21
44.855557
0
LINE
8
Layer 1
10
62.577766
20
44.855557
11
61.167218
21
42.780559
0
LINE
8
Layer 1
10
61.167218
20
42.780559
11
59.824968
21
41.151178
0
LINE
8
Layer 1
10
59.824968
20
41.151178
11
58.653324
21
40.046708
0
LINE
8
Layer 1
10
58.653324
20
40.046708
11
57.754593
21
39.546444
0
LINE
8
Layer 1
10
57.754593
20
39.546444
11
57.439542
21
39.547668
0
LINE
8
Layer 1
10
57.439542
20
39.547668
11
57.231084
21
39.729679
0
LINE
8
Layer 1
10
57.231084
20
39.729679
11
57.185102
21
40.675707
0
LINE
8
Layer 1
10
57.185102
20
40.675707
11
57.718957
21
42.463823
0
LINE
8
Layer 1
10
57.718957
20
42.463823
11
57.996619
21
43.453253
0
LINE
8
Layer 1
10
57.996619
20
43.453253
11
58.123444
21
44.552831
0
LINE
8
Layer 1
10
58.123444
20
44.552831
11
57.960722
21
47.005658
0
LINE
8
Layer 1
10
57.960722
20
47.005658
11
57.303058
21
49.668756
0
LINE
8
Layer 1
10
57.303058
20
49.668756
11
56.222721
21
52.388579
0
LINE
8
Layer 1
10
56.222721
20
52.388579
11
54.791979
21
55.011579
0
LINE
8
Layer 1
10
54.791979
20
55.011579
11
53.083099
21
57.384209
0
LINE
8
Layer 1
10
53.083099
20
57.384209
11
51.168350
21
59.352922
0
LINE
8
Layer 1
10
51.168350
20
59.352922
11
49.119999
21
60.764170
0
LINE
8
Layer 1
10
49.119999
20
60.764170
11
43.775416
21
63.533476
0
LINE
8
Layer 1
10
43.775416
20
63.533476
11
47.461943
21
68.225420
0
LINE
8
Layer 1
10
47.461943
20
68.225420
11
48.769728
21
70.165800
0
LINE
8
Layer 1
10
48.769728
20
70.165800
11
49.740530
21
72.198529
0
LINE
8
Layer 1
10
49.740530
20
72.198529
11
50.389586
21
74.290712
0
LINE
8
Layer 1
10
50.389586
20
74.290712
11
50.732135
21
76.409453
0
LINE
8
Layer 1
10
50.732135
20
76.409453
11
50.783415
21
78.521859
0
LINE
8
Layer 1
10
50.783415
20
78.521859
11
50.558663
21
80.595032
0
LINE
8
Layer 1
10
50.558663
20
80.595032
11
50.073117
21
82.596079
0
LINE
8
Layer 1
10
50.073117
20
82.596079
11
49.342015
21
84.492104
0
LINE
8
Layer 1
10
49.342015
20
84.492104
11
48.380596
21
86.250212
0
LINE
8
Layer 1
10
48.380596
20
86.250212
11
47.204096
21
87.837507
0
LINE
8
Layer 1
10
47.204096
20
87.837507
11
45.827754
21
89.221094
0
LINE
8
Layer 1
10
45.827754
20
89.221094
11
44.266807
21
90.368079
0
LINE
8
Layer 1
10
44.266807
20
90.368079
11
42.536494
21
91.245566
0
LINE
8
Layer 1
10
42.536494
20
91.245566
11
40.652053
21
91.820660
0
LINE
8
Layer 1
10
40.652053
20
91.820660
11
38.628720
21
92.060465
0
LINE
8
Layer 1
10
38.628720
20
92.060465
11
36.481735
21
91.932087
0
LINE
8
Layer 1
10
36.481735
20
91.932087
11
33.895845
21
91.683720
0
LINE
8
Layer 1
10
33.895845
20
91.683720
11
32.992845
21
91.731013
0
LINE
8
Layer 1
10
32.992845
20
91.731013
11
32.324933
21
91.903076
0
LINE
8
Layer 1
10
32.324933
20
91.903076
11
31.873453
21
92.207750
0
LINE
8
Layer 1
10
31.873453
20
92.207750
11
31.619749
21
92.652875
0
LINE
8
Layer 1
10
31.619749
20
92.652875
11
31.545163
21
93.246290
0
LINE
8
Layer 1
10
31.545163
20
93.246290
11
31.631041
21
93.995837
0
LINE
8
Layer 1
10
31.631041
20
93.995837
11
32.155660
21
95.330665
0
LINE
8
Layer 1
10
32.155660
20
95.330665
11
33.155365
21
96.589892
0
LINE
8
Layer 1
10
33.155365
20
96.589892
11
34.556265
21
97.743943
0
LINE
8
Layer 1
10
34.556265
20
97.743943
11
36.284470
21
98.763243
0
LINE
8
Layer 1
10
36.284470
20
98.763243
11
38.266086
21
99.618220
0
LINE
8
Layer 1
10
38.266086
20
99.618220
11
40.427224
21
100.279298
0
LINE
8
Layer 1
10
40.427224
20
100.279298
11
42.693992
21
100.716903
0
LINE
8
Layer 1
10
42.693992
20
100.716903
11
44.992499
21
100.901462
0
LINE
8
Layer 1
10
44.992499
20
100.901462
11
44.992499
21
100.901462
0
LINE
8
Layer 1
10
164.160832
20
100.901462
11
165.007499
21
100.901462
0
LINE
8
Layer 1
10
165.007499
20
100.901462
11
167.306005
21
100.716903
0
LINE
8
Layer 1
10
167.306005
20
100.716903
11
169.572772
21
100.279298
0
LINE
8
Layer 1
10
169.572772
20
100.279298
11
171.733910
21
99.618220
0
LINE
8
Layer 1
10
171.733910
20
99.618220
11
173.715526
21
98.763243
0
LINE
8
Layer 1
10
173.715526
20
98.763243
11
175.443730
21
97.743943
0
LINE
8
Layer 1
10
175.443730
20
97.743943
11
176.844630
21
96.589892
0
LINE
8
Layer 1
10
176.844630
20
96.589892
11
177.844336
21
95.330665
0
LINE
8
Layer 1
10
177.844336
20
95.330665
11
178.368957
21
93.995837
0
LINE
8
Layer 1
10
178.368957
20
93.995837
11
178.454835
21
93.246290
0
LINE
8
Layer 1
10
178.454835
20
93.246290
11
178.380249
21
92.652875
0
LINE
8
Layer 1
10
178.380249
20
92.652875
11
178.126544
21
92.207750
0
LINE
8
Layer 1
10
178.126544
20
92.207750
11
177.675063
21
91.903076
0
LINE
8
Layer 1
10
177.675063
20
91.903076
11
177.007151
21
91.731013
0
LINE
8
Layer 1
10
177.007151
20
91.731013
11
176.104151
21
91.683720
0
LINE
8
Layer 1
10
176.104151
20
91.683720
11
173.518263
21
91.932087
0
LINE
8
Layer 1
10
173.518263
20
91.932087
11
171.371277
21
92.060465
0
LINE
8
Layer 1
10
171.371277
20
92.060465
11
169.347945
21
91.820660
0
LINE
8
Layer 1
10
169.347945
20
91.820660
11
167.463503
21
91.245566
0
LINE
8
Layer 1
10
167.463503
20
91.245566
11
165.733189
21
90.368079
0
LINE
8
Layer 1
10
165.733189
20
90.368079
11
164.172243
21
89.221094
0
LINE
8
Layer 1
10
164.172243
20
89.221094
11
162.795900
21
87.837507
0
LINE
8
Layer 1
10
162.795900
20
87.837507
11
161.619400
21
86.250212
0
LINE
8
Layer 1
10
161.619400
20
86.250212
11
160.657980
21
84.492104
0
LINE
8
Layer 1
10
160.657980
20
84.492104
11
159.926878
21
82.596079
0
LINE
8
Layer 1
10
159.926878
20
82.596079
11
159.441333
21
80.595032
0
LINE
8
Layer 1
10
159.441333
20
80.595032
11
159.216581
21
78.521859
0
LINE
8
Layer 1
10
159.216581
20
78.521859
11
159.267860
21
76.409453
0
LINE
8
Layer 1
10
159.267860
20
76.409453
11
159.610410
21
74.290712
0
LINE
8
Layer 1
10
159.610410
20
74.290712
11
160.259466
21
72.198529
0
LINE
8
Layer 1
10
160.259466
20
72.198529
11
161.230269
21
70.165800
0
LINE
8
Layer 1
10
161.230269
20
70.165800
11
162.538054
21
68.225420
0
LINE
8
Layer 1
10
162.538054
20
68.225420
11
166.224582
21
63.533476
0
LINE
8
Layer 1
10
166.224582
20
63.533476
11
160.879999
21
60.764170
0
LINE
8
Layer 1
10
160.879999
20
60.764170
11
158.831648
21
59.352922
0
LINE
8
Layer 1
10
158.831648
20
59.352922
11
156.916899
21
57.384209
0
LINE
8
Layer 1
10
156.916899
20
57.384209
11
155.208019
21
55.011579
0
LINE
8
Layer 1
10
155.208019
20
55.011579
11
153.777277
21
52.388579
0
LINE
8
Layer 1
10
153.777277
20
52.388579
11
152.696940
21
49.668756
0
LINE
8
Layer 1
10
152.696940
20
49.668756
11
152.039277
21
47.005658
0
LINE
8
Layer 1
10
152.039277
20
47.005658
11
151.876554
21
44.552831
0
LINE
8
Layer 1
10
151.876554
20
44.552831
11
152.003380
21
43.453253
0
LINE
8
Layer 1
10
152.003380
20
43.453253
11
152.281041
21
42.463823
0
LINE
8
Layer 1
10
152.281041
20
42.463823
11
152.814896
21
40.675707
0
LINE
8
Layer 1
10
152.814896
20
40.675707
11
152.768915
21
39.729679
0
LINE
8
Layer 1
10
152.768915
20
39.729679
11
152.560457
21
39.547668
0
LINE
8
Layer 1
10
152.560457
20
39.547668
11
152.245405
21
39.546444
0
LINE
8
Layer 1
10
152.245405
20
39.546444
11
151.346675
21
40.046708
0
LINE
8
Layer 1
10
151.346675
20
40.046708
11
150.175031
21
41.151178
0
LINE
8
Layer 1
10
150.175031
20
41.151178
11
148.832781
21
42.780559
0
LINE
8
Layer 1
10
148.832781
20
42.780559
11
147.422233
21
44.855557
0
LINE
8
Layer 1
10
147.422233
20
44.855557
11
146.045693
21
47.296878
0
LINE
8
Layer 1
10
146.045693
20
47.296878
11
144.083346
21
51.683197
0
LINE
8
Layer 1
10
144.083346
20
51.683197
11
142.611986
21
56.160643
0
LINE
8
Layer 1
10
142.611986
20
56.160643
11
141.633855
21
60.685735
0
LINE
8
Layer 1
10
141.633855
20
60.685735
11
141.151194
21
65.214993
0
LINE
8
Layer 1
10
141.151194
20
65.214993
11
141.166243
21
69.704939
0
LINE
8
Layer 1
10
141.166243
20
69.704939
11
141.681245
21
74.112092
0
LINE
8
Layer 1
10
141.681245
20
74.112092
11
142.698439
21
78.392973
0
LINE
8
Layer 1
10
142.698439
20
78.392973
11
144.220068
21
82.504101
0
LINE
8
Layer 1
10
144.220068
20
82.504101
11
146.131689
21
86.529328
0
LINE
8
Layer 1
10
146.131689
20
86.529328
11
148.068611
21
89.997619
0
LINE
8
Layer 1
10
148.068611
20
89.997619
11
150.057240
21
92.936366
0
LINE
8
Layer 1
10
150.057240
20
92.936366
11
152.123982
21
95.372962
0
LINE
8
Layer 1
10
152.123982
20
95.372962
11
154.295244
21
97.334801
0
LINE
8
Layer 1
10
154.295244
20
97.334801
11
156.597432
21
98.849274
0
LINE
8
Layer 1
10
156.597432
20
98.849274
11
159.056951
21
99.943776
0
LINE
8
Layer 1
10
159.056951
20
99.943776
11
161.700207
21
100.645698
0
LINE
8
Layer 1
10
161.700207
20
100.645698
11
164.160832
21
100.901462
0
LINE
8
Layer 1
10
164.160832
20
100.901462
11
164.160832
21
100.901462
0
LINE
8
Layer 1
10
79.485346
20
96.474101
11
96.762638
21
87.407712
0
LINE
8
Layer 1
10
96.762638
20
87.407712
11
86.002916
21
70.650767
0
LINE
8
Layer 1
10
86.002916
20
70.650767
11
79.485346
21
96.474101
0
LINE
8
Layer 1
10
79.485346
20
96.474101
11
79.485346
21
96.474101
0
LINE
8
Layer 1
10
130.514652
20
96.474101
11
123.997082
21
70.650767
0
LINE
8
Layer 1
10
123.997082
20
70.650767
11
113.237360
21
87.407712
0
LINE
8
Layer 1
10
113.237360
20
87.407712
11
130.514652
21
96.474101
0
LINE
8
Layer 1
10
130.514652
20
96.474101
11
130.514652
21
96.474101
0
LINE
8
Layer 1
10
-97.494446
20
96.218337
11
-95.514808
21
96.174346
0
LINE
8
Layer 1
10
-95.514808
20
96.174346
11
-93.413714
21
95.970112
0
LINE
8
Layer 1
10
-93.413714
20
95.970112
11
-88.931380
21
95.110215
0
LINE
8
Layer 1
10
-88.931380
20
95.110215
11
-84.215894
21
93.697247
0
LINE
8
Layer 1
10
-84.215894
20
93.697247
11
-79.435704
21
91.789812
0
LINE
8
Layer 1
10
-79.435704
20
91.789812
11
-74.759259
21
89.446511
0
LINE
8
Layer 1
10
-74.759259
20
89.446511
11
-70.355006
21
86.725946
0
LINE
8
Layer 1
10
-70.355006
20
86.725946
11
-66.391396
21
83.686720
0
LINE
8
Layer 1
10
-66.391396
20
83.686720
11
-64.627472
21
82.065922
0
LINE
8
Layer 1
10
-64.627472
20
82.065922
11
-63.036876
21
80.387434
0
LINE
8
Layer 1
10
-63.036876
20
80.387434
11
-60.682918
21
77.614620
0
LINE
8
Layer 1
10
-60.682918
20
77.614620
11
-59.034733
21
75.431704
0
LINE
8
Layer 1
10
-59.034733
20
75.431704
11
-58.098550
21
73.800318
0
LINE
8
Layer 1
10
-58.098550
20
73.800318
11
-57.899407
21
73.179458
0
LINE
8
Layer 1
10
-57.899407
20
73.179458
11
-57.880600
21
72.682091
0
LINE
8
Layer 1
10
-57.880600
20
72.682091
11
-58.042908
21
72.303423
0
LINE
8
Layer 1
10
-58.042908
20
72.303423
11
-58.387110
21
72.038656
0
LINE
8
Layer 1
10
-58.387110
20
72.038656
11
-59.624310
21
71.831643
0
LINE
8
Layer 1
10
-59.624310
20
71.831643
11
-61.598429
21
72.022683
0
LINE
8
Layer 1
10
-61.598429
20
72.022683
11
-64.315696
21
72.573406
0
LINE
8
Layer 1
10
-64.315696
20
72.573406
11
-67.809592
21
73.269875
0
LINE
8
Layer 1
10
-67.809592
20
73.269875
11
-71.321185
21
73.761037
0
LINE
8
Layer 1
10
-71.321185
20
73.761037
11
-74.722365
21
74.047687
0
LINE
8
Layer 1
10
-74.722365
20
74.047687
11
-77.885021
21
74.130622
0
LINE
8
Layer 1
10
-77.885021
20
74.130622
11
-80.681043
21
74.010636
0
LINE
8
Layer 1
10
-80.681043
20
74.010636
11
-82.982319
21
73.688526
0
LINE
8
Layer 1
10
-82.982319
20
73.688526
11
-84.660740
21
73.165087
0
LINE
8
Layer 1
10
-84.660740
20
73.165087
11
-85.226346
21
72.828118
0
LINE
8
Layer 1
10
-85.226346
20
72.828118
11
-85.588196
21
72.441115
0
LINE
8
Layer 1
10
-85.588196
20
72.441115
11
-85.721239
21
71.990235
0
LINE
8
Layer 1
10
-85.721239
20
71.990235
11
-85.671558
21
71.395474
0
LINE
8
Layer 1
10
-85.671558
20
71.395474
11
-85.077840
21
69.876224
0
LINE
8
Layer 1
10
-85.077840
20
69.876224
11
-83.914682
21
68.087198
0
LINE
8
Layer 1
10
-83.914682
20
68.087198
11
-82.289723
21
66.232226
0
LINE
8
Layer 1
10
-82.289723
20
66.232226
11
-77.871182
21
61.822503
0
LINE
8
Layer 1
10
-77.871182
20
61.822503
11
-83.171668
21
59.626462
0
LINE
8
Layer 1
10
-83.171668
20
59.626462
11
-85.694216
21
58.228509
0
LINE
8
Layer 1
10
-85.694216
20
58.228509
11
-88.649924
21
56.043026
0
LINE
8
Layer 1
10
-88.649924
20
56.043026
11
-91.671087
21
53.369435
0
LINE
8
Layer 1
10
-91.671087
20
53.369435
11
-94.390001
21
50.507156
0
LINE
8
Layer 1
10
-94.390001
20
50.507156
11
-100.316668
21
43.583892
0
LINE
8
Layer 1
10
-100.316668
20
43.583892
11
-102.459793
21
49.501740
0
LINE
8
Layer 1
10
-102.459793
20
49.501740
11
-103.573573
21
52.104155
0
LINE
8
Layer 1
10
-103.573573
20
52.104155
11
-105.025008
21
54.815694
0
LINE
8
Layer 1
10
-105.025008
20
54.815694
11
-106.626995
21
57.315447
0
LINE
8
Layer 1
10
-106.626995
20
57.315447
11
-108.192432
21
59.282503
0
LINE
8
Layer 1
10
-108.192432
20
59.282503
11
-110.165226
21
61.492013
0
LINE
8
Layer 1
10
-110.165226
20
61.492013
11
-110.664916
21
62.220360
0
LINE
8
Layer 1
10
-110.664916
20
62.220360
11
-110.842553
21
62.768843
0
LINE
8
Layer 1
10
-110.842553
20
62.768843
11
-110.699948
21
63.190765
0
LINE
8
Layer 1
10
-110.699948
20
63.190765
11
-110.238916
21
63.539430
0
LINE
8
Layer 1
10
-110.238916
20
63.539430
11
-108.368821
21
64.230212
0
LINE
8
Layer 1
10
-108.368821
20
64.230212
11
-106.861332
21
64.865963
0
LINE
8
Layer 1
10
-106.861332
20
64.865963
11
-105.289474
21
65.793070
0
LINE
8
Layer 1
10
-105.289474
20
65.793070
11
-103.839564
21
66.886838
0
LINE
8
Layer 1
10
-103.839564
20
66.886838
11
-102.697918
21
68.022573
0
LINE
8
Layer 1
10
-102.697918
20
68.022573
11
-101.708381
21
69.461944
0
LINE
8
Layer 1
10
-101.708381
20
69.461944
11
-101.498544
21
70.067324
0
LINE
8
Layer 1
10
-101.498544
20
70.067324
11
-101.483624
21
70.629295
0
LINE
8
Layer 1
10
-101.483624
20
70.629295
11
-101.667344
21
71.172453
0
LINE
8
Layer 1
10
-101.667344
20
71.172453
11
-102.053427
21
71.721393
0
LINE
8
Layer 1
10
-102.053427
20
71.721393
11
-103.447571
21
72.935003
0
LINE
8
Layer 1
10
-103.447571
20
72.935003
11
-104.599395
21
73.925602
0
LINE
8
Layer 1
10
-104.599395
20
73.925602
11
-105.603161
21
75.073370
0
LINE
8
Layer 1
10
-105.603161
20
75.073370
11
-106.458426
21
76.354991
0
LINE
8
Layer 1
10
-106.458426
20
76.354991
11
-107.164749
21
77.747144
0
LINE
8
Layer 1
10
-107.164749
20
77.747144
11
-107.721686
21
79.226513
0
LINE
8
Layer 1
10
-107.721686
20
79.226513
11
-108.128796
21
80.769779
0
LINE
8
Layer 1
10
-108.128796
20
80.769779
11
-108.385636
21
82.353624
0
LINE
8
Layer 1
10
-108.385636
20
82.353624
11
-108.491764
21
83.954729
0
LINE
8
Layer 1
10
-108.491764
20
83.954729
11
-108.446738
21
85.549775
0
LINE
8
Layer 1
10
-108.446738
20
85.549775
11
-108.250116
21
87.115446
0
LINE
8
Layer 1
10
-108.250116
20
87.115446
11
-107.901454
21
88.628421
0
LINE
8
Layer 1
10
-107.901454
20
88.628421
11
-107.400311
21
90.065384
0
LINE
8
Layer 1
10
-107.400311
20
90.065384
11
-106.746245
21
91.403016
0
LINE
8
Layer 1
10
-106.746245
20
91.403016
11
-105.938814
21
92.617998
0
LINE
8
Layer 1
10
-105.938814
20
92.617998
11
-104.977574
21
93.687012
0
LINE
8
Layer 1
10
-104.977574
20
93.687012
11
-103.862084
21
94.586740
0
LINE
8
Layer 1
10
-103.862084
20
94.586740
11
-102.569572
21
95.283097
0
LINE
8
Layer 1
10
-102.569572
20
95.283097
11
-101.063552
21
95.781801
0
LINE
8
Layer 1
10
-101.063552
20
95.781801
11
-99.364889
21
96.090875
0
LINE
8
Layer 1
10
-99.364889
20
96.090875
11
-97.494446
21
96.218337
0
LINE
8
Layer 1
10
-97.494446
20
96.218337
11
-97.494446
21
96.218337
0
LINE
8
Layer 1
10
306.524293
20
96.218337
11
307.494432
21
96.218337
0
LINE
8
Layer 1
10
307.494432
20
96.218337
11
309.364866
21
96.090875
0
LINE
8
Layer 1
10
309.364866
20
96.090875
11
311.063527
21
95.781801
0
LINE
8
Layer 1
10
311.063527
20
95.781801
11
312.569550
21
95.283097
0
LINE
8
Layer 1
10
312.569550
20
95.283097
11
313.862071
21
94.586740
0
LINE
8
Layer 1
10
313.862071
20
94.586740
11
314.977561
21
93.687012
0
LINE
8
Layer 1
10
314.977561
20
93.687012
11
315.938801
21
92.617998
0
LINE
8
Layer 1
10
315.938801
20
92.617998
11
316.746233
21
91.403016
0
LINE
8
Layer 1
10
316.746233
20
91.403016
11
317.400299
21
90.065384
0
LINE
8
Layer 1
10
317.400299
20
90.065384
11
317.901441
21
88.628421
0
LINE
8
Layer 1
10
317.901441
20
88.628421
11
318.250102
21
87.115446
0
LINE
8
Layer 1
10
318.250102
20
87.115446
11
318.446725
21
85.549775
0
LINE
8
Layer 1
10
318.446725
20
85.549775
11
318.491750
21
83.954729
0
LINE
8
Layer 1
10
318.491750
20
83.954729
11
318.385621
21
82.353624
0
LINE
8
Layer 1
10
318.385621
20
82.353624
11
318.128780
21
80.769779
0
LINE
8
Layer 1
10
318.128780
20
80.769779
11
317.721669
21
79.226513
0
LINE
8
Layer 1
10
317.721669
20
79.226513
11
317.164730
21
77.747144
0
LINE
8
Layer 1
10
317.164730
20
77.747144
11
316.458405
21
76.354991
0
LINE
8
Layer 1
10
316.458405
20
76.354991
11
315.603138
21
75.073370
0
LINE
8
Layer 1
10
315.603138
20
75.073370
11
314.599370
21
73.925602
0
LINE
8
Layer 1
10
314.599370
20
73.925602
11
313.447543
21
72.935003
0
LINE
8
Layer 1
10
313.447543
20
72.935003
11
312.053407
21
71.721393
0
LINE
8
Layer 1
10
312.053407
20
71.721393
11
311.667325
21
71.172453
0
LINE
8
Layer 1
10
311.667325
20
71.172453
11
311.483604
21
70.629295
0
LINE
8
Layer 1
10
311.483604
20
70.629295
11
311.498524
21
70.067324
0
LINE
8
Layer 1
10
311.498524
20
70.067324
11
311.708361
21
69.461944
0
LINE
8
Layer 1
10
311.708361
20
69.461944
11
312.697904
21
68.022573
0
LINE
8
Layer 1
10
312.697904
20
68.022573
11
313.839549
21
66.886838
0
LINE
8
Layer 1
10
313.839549
20
66.886838
11
315.289459
21
65.793070
0
LINE
8
Layer 1
10
315.289459
20
65.793070
11
316.861321
21
64.865963
0
LINE
8
Layer 1
10
316.861321
20
64.865963
11
318.368821
21
64.230212
0
LINE
8
Layer 1
10
318.368821
20
64.230212
11
320.238914
21
63.539430
0
LINE
8
Layer 1
10
320.238914
20
63.539430
11
320.699943
21
63.190765
0
LINE
8
Layer 1
10
320.699943
20
63.190765
11
320.842545
21
62.768843
0
LINE
8
Layer 1
10
320.842545
20
62.768843
11
320.664906
21
62.220360
0
LINE
8
Layer 1
10
320.664906
20
62.220360
11
320.165216
21
61.492013
0
LINE
8
Layer 1
10
320.165216
20
61.492013
11
318.192432
21
59.282503
0
LINE
8
Layer 1
10
318.192432
20
59.282503
11
316.626988
21
57.315447
0
LINE
8
Layer 1
10
316.626988
20
57.315447
11
315.024992
21
54.815694
0
LINE
8
Layer 1
10
315.024992
20
54.815694
11
313.573549
21
52.104155
0
LINE
8
Layer 1
10
313.573549
20
52.104155
11
312.459765
21
49.501740
0
LINE
8
Layer 1
10
312.459765
20
49.501740
11
310.316654
21
43.583892
0
LINE
8
Layer 1
10
310.316654
20
43.583892
11
304.389988
21
50.507156
0
LINE
8
Layer 1
10
304.389988
20
50.507156
11
301.671062
21
53.369435
0
LINE
8
Layer 1
10
301.671062
20
53.369435
11
298.649894
21
56.043026
0
LINE
8
Layer 1
10
298.649894
20
56.043026
11
295.694190
21
58.228509
0
LINE
8
Layer 1
10
295.694190
20
58.228509
11
293.171654
21
59.626462
0
LINE
8
Layer 1
10
293.171654
20
59.626462
11
287.871182
21
61.822503
0
LINE
8
Layer 1
10
287.871182
20
61.822503
11
292.289710
21
66.232226
0
LINE
8
Layer 1
10
292.289710
20
66.232226
11
293.914663
21
68.087198
0
LINE
8
Layer 1
10
293.914663
20
68.087198
11
295.077818
21
69.876224
0
LINE
8
Layer 1
10
295.077818
20
69.876224
11
295.671537
21
71.395474
0
LINE
8
Layer 1
10
295.671537
20
71.395474
11
295.721221
21
71.990235
0
LINE
8
Layer 1
10
295.721221
20
71.990235
11
295.588182
21
72.441115
0
LINE
8
Layer 1
10
295.588182
20
72.441115
11
295.226332
21
72.828118
0
LINE
8
Layer 1
10
295.226332
20
72.828118
11
294.660726
21
73.165087
0
LINE
8
Layer 1
10
294.660726
20
73.165087
11
292.982305
21
73.688526
0
LINE
8
Layer 1
10
292.982305
20
73.688526
11
290.681029
21
74.010636
0
LINE
8
Layer 1
10
290.681029
20
74.010636
11
287.885009
21
74.130622
0
LINE
8
Layer 1
10
287.885009
20
74.130622
11
284.722355
21
74.047687
0
LINE
8
Layer 1
10
284.722355
20
74.047687
11
281.321177
21
73.761037
0
LINE
8
Layer 1
10
281.321177
20
73.761037
11
277.809587
21
73.269875
0
LINE
8
Layer 1
10
277.809587
20
73.269875
11
274.315693
21
72.573406
0
LINE
8
Layer 1
10
274.315693
20
72.573406
11
271.598426
21
72.022683
0
LINE
8
Layer 1
10
271.598426
20
72.022683
11
269.624306
21
71.831643
0
LINE
8
Layer 1
10
269.624306
20
71.831643
11
268.387106
21
72.038656
0
LINE
8
Layer 1
10
268.387106
20
72.038656
11
268.042904
21
72.303423
0
LINE
8
Layer 1
10
268.042904
20
72.303423
11
267.880595
21
72.682091
0
LINE
8
Layer 1
10
267.880595
20
72.682091
11
267.899402
21
73.179458
0
LINE
8
Layer 1
10
267.899402
20
73.179458
11
268.098546
21
73.800318
0
LINE
8
Layer 1
10
268.098546
20
73.800318
11
269.034728
21
75.431704
0
LINE
8
Layer 1
10
269.034728
20
75.431704
11
270.682914
21
77.614620
0
LINE
8
Layer 1
10
270.682914
20
77.614620
11
273.036874
21
80.387434
0
LINE
8
Layer 1
10
273.036874
20
80.387434
11
274.575066
21
82.014321
0
LINE
8
Layer 1
10
274.575066
20
82.014321
11
276.276605
21
83.587313
0
LINE
8
Layer 1
10
276.276605
20
83.587313
11
280.093115
21
86.544958
0
LINE
8
Layer 1
10
280.093115
20
86.544958
11
284.333187
21
89.207053
0
LINE
8
Layer 1
10
284.333187
20
89.207053
11
288.843600
21
91.520288
0
LINE
8
Layer 1
10
288.843600
20
91.520288
11
293.471136
21
93.431346
0
LINE
8
Layer 1
10
293.471136
20
93.431346
11
298.062576
21
94.886916
0
LINE
8
Layer 1
10
298.062576
20
94.886916
11
302.464701
21
95.833684
0
LINE
8
Layer 1
10
302.464701
20
95.833684
11
306.524293
21
96.218337
0
LINE
8
Layer 1
10
306.524293
20
96.218337
11
306.524293
21
96.218337
0
LINE
8
Layer 1
10
-0.030765
20
93.766531
11
6.460346
21
91.729240
0
LINE
8
Layer 1
10
6.460346
20
91.729240
11
8.404316
21
91.068046
0
LINE
8
Layer 1
10
8.404316
20
91.068046
11
9.967178
21
90.379387
0
LINE
8
Layer 1
10
9.967178
20
90.379387
11
11.214858
21
89.580732
0
LINE
8
Layer 1
10
11.214858
20
89.580732
11
12.213279
21
88.589548
0
LINE
8
Layer 1
10
12.213279
20
88.589548
11
13.028365
21
87.323305
0
LINE
8
Layer 1
10
13.028365
20
87.323305
11
13.726039
21
85.699469
0
LINE
8
Layer 1
10
13.726039
20
85.699469
11
15.032846
21
81.048892
0
LINE
8
Layer 1
10
15.032846
20
81.048892
11
15.658672
21
78.735753
0
LINE
8
Layer 1
10
15.658672
20
78.735753
11
16.386155
21
76.637755
0
LINE
8
Layer 1
10
16.386155
20
76.637755
11
17.242948
21
74.711146
0
LINE
8
Layer 1
10
17.242948
20
74.711146
11
18.256703
21
72.912172
0
LINE
8
Layer 1
10
18.256703
20
72.912172
11
19.455071
21
71.197081
0
LINE
8
Layer 1
10
19.455071
20
71.197081
11
20.865704
21
69.522120
0
LINE
8
Layer 1
10
20.865704
20
69.522120
11
22.516255
21
67.843535
0
LINE
8
Layer 1
10
22.516255
20
67.843535
11
24.434374
21
66.117573
0
LINE
8
Layer 1
10
24.434374
20
66.117573
11
27.968071
21
62.905200
0
LINE
8
Layer 1
10
27.968071
20
62.905200
11
29.115055
21
61.657293
0
LINE
8
Layer 1
10
29.115055
20
61.657293
11
29.881974
21
60.591787
0
LINE
8
Layer 1
10
29.881974
20
60.591787
11
30.293712
21
59.666340
0
LINE
8
Layer 1
10
30.293712
20
59.666340
11
30.375151
21
58.838611
0
LINE
8
Layer 1
10
30.375151
20
58.838611
11
30.151174
21
58.066261
0
LINE
8
Layer 1
10
30.151174
20
58.066261
11
29.646666
21
57.306948
0
LINE
8
Layer 1
10
29.646666
20
57.306948
11
28.768063
21
56.011059
0
LINE
8
Layer 1
10
28.768063
20
56.011059
11
28.626563
21
55.507834
0
LINE
8
Layer 1
10
28.626563
20
55.507834
11
28.692776
21
55.079980
0
LINE
8
Layer 1
10
28.692776
20
55.079980
11
28.973586
21
54.711664
0
LINE
8
Layer 1
10
28.973586
20
54.711664
11
29.475875
21
54.387055
0
LINE
8
Layer 1
10
29.475875
20
54.387055
11
31.172429
21
53.805628
0
LINE
8
Layer 1
10
31.172429
20
53.805628
11
31.942424
21
53.510990
0
LINE
8
Layer 1
10
31.942424
20
53.510990
11
32.736228
21
53.036140
0
LINE
8
Layer 1
10
32.736228
20
53.036140
11
34.304522
21
51.644961
0
LINE
8
Layer 1
10
34.304522
20
51.644961
11
35.695833
21
49.830400
0
LINE
8
Layer 1
10
35.695833
20
49.830400
11
36.728679
21
47.790767
0
LINE
8
Layer 1
10
36.728679
20
47.790767
11
37.552345
21
45.063337
0
LINE
8
Layer 1
10
37.552345
20
45.063337
11
37.683900
21
43.905938
0
LINE
8
Layer 1
10
37.683900
20
43.905938
11
37.617699
21
42.816914
0
LINE
8
Layer 1
10
37.617699
20
42.816914
11
37.345561
21
41.744387
0
LINE
8
Layer 1
10
37.345561
20
41.744387
11
36.859307
21
40.636480
0
LINE
8
Layer 1
10
36.859307
20
40.636480
11
35.211735
21
38.107017
0
LINE
8
Layer 1
10
35.211735
20
38.107017
11
34.177688
21
36.898160
0
LINE
8
Layer 1
10
34.177688
20
36.898160
11
32.995278
21
35.839312
0
LINE
8
Layer 1
10
32.995278
20
35.839312
11
31.679917
21
34.931073
0
LINE
8
Layer 1
10
31.679917
20
34.931073
11
30.247017
21
34.174040
0
LINE
8
Layer 1
10
30.247017
20
34.174040
11
28.711990
21
33.568813
0
LINE
8
Layer 1
10
28.711990
20
33.568813
11
27.090249
21
33.115989
0
LINE
8
Layer 1
10
27.090249
20
33.115989
11
25.397206
21
32.816168
0
LINE
8
Layer 1
10
25.397206
20
32.816168
11
23.648273
21
32.669946
0
LINE
8
Layer 1
10
23.648273
20
32.669946
11
21.858862
21
32.677924
0
LINE
8
Layer 1
10
21.858862
20
32.677924
11
20.044386
21
32.840699
0
LINE
8
Layer 1
10
20.044386
20
32.840699
11
18.220256
21
33.158869
0
LINE
8
Layer 1
10
18.220256
20
33.158869
11
16.401885
21
33.633034
0
LINE
8
Layer 1
10
16.401885
20
33.633034
11
14.604685
21
34.263791
0
LINE
8
Layer 1
10
14.604685
20
34.263791
11
12.844069
21
35.051739
0
LINE
8
Layer 1
10
12.844069
20
35.051739
11
11.135448
21
35.997476
0
LINE
8
Layer 1
10
11.135448
20
35.997476
11
9.494235
21
37.101601
0
LINE
8
Layer 1
10
9.494235
20
37.101601
11
7.424232
21
38.664803
0
LINE
8
Layer 1
10
7.424232
20
38.664803
11
5.860557
21
40.026664
0
LINE
8
Layer 1
10
5.860557
20
40.026664
11
4.729849
21
41.397474
0
LINE
8
Layer 1
10
4.729849
20
41.397474
11
3.958745
21
42.987522
0
LINE
8
Layer 1
10
3.958745
20
42.987522
11
3.473882
21
45.007099
0
LINE
8
Layer 1
10
3.473882
20
45.007099
11
3.201899
21
47.666495
0
LINE
8
Layer 1
10
3.201899
20
47.666495
11
3.003124
21
55.745906
0
LINE
8
Layer 1
10
3.003124
20
55.745906
11
2.828537
21
62.116165
0
LINE
8
Layer 1
10
2.828537
20
62.116165
11
2.468775
21
69.140036
0
LINE
8
Layer 1
10
2.468775
20
69.140036
11
1.977108
21
75.964568
0
LINE
8
Layer 1
10
1.977108
20
75.964568
11
1.406805
21
81.736809
0
LINE
8
Layer 1
10
1.406805
20
81.736809
11
-0.030765
21
93.766531
0
LINE
8
Layer 1
10
-0.030765
20
93.766531
11
-0.030765
21
93.766531
0
LINE
8
Layer 1
10
210.030763
20
93.766531
11
208.593193
21
81.736809
0
LINE
8
Layer 1
10
208.593193
20
81.736809
11
208.022889
21
75.964568
0
LINE
8
Layer 1
10
208.022889
20
75.964568
11
207.531221
21
69.140036
0
LINE
8
Layer 1
10
207.531221
20
69.140036
11
207.171458
21
62.116165
0
LINE
8
Layer 1
10
207.171458
20
62.116165
11
206.996874
21
55.745906
0
LINE
8
Layer 1
10
206.996874
20
55.745906
11
206.798098
21
47.666495
0
LINE
8
Layer 1
10
206.798098
20
47.666495
11
206.526114
21
45.007099
0
LINE
8
Layer 1
10
206.526114
20
45.007099
11
206.041251
21
42.987522
0
LINE
8
Layer 1
10
206.041251
20
42.987522
11
205.270146
21
41.397474
0
LINE
8
Layer 1
10
205.270146
20
41.397474
11
204.139438
21
40.026664
0
LINE
8
Layer 1
10
204.139438
20
40.026664
11
202.575764
21
38.664803
0
LINE
8
Layer 1
10
202.575764
20
38.664803
11
200.505763
21
37.101601
0
LINE
8
Layer 1
10
200.505763
20
37.101601
11
198.864550
21
35.997476
0
LINE
8
Layer 1
10
198.864550
20
35.997476
11
197.155929
21
35.051739
0
LINE
8
Layer 1
10
197.155929
20
35.051739
11
195.395312
21
34.263791
0
LINE
8
Layer 1
10
195.395312
20
34.263791
11
193.598112
21
33.633034
0
LINE
8
Layer 1
10
193.598112
20
33.633034
11
191.779741
21
33.158869
0
LINE
8
Layer 1
10
191.779741
20
33.158869
11
189.955611
21
32.840699
0
LINE
8
Layer 1
10
189.955611
20
32.840699
11
188.141134
21
32.677924
0
LINE
8
Layer 1
10
188.141134
20
32.677924
11
186.351723
21
32.669946
0
LINE
8
Layer 1
10
186.351723
20
32.669946
11
184.602789
21
32.816168
0
LINE
8
Layer 1
10
184.602789
20
32.816168
11
182.909746
21
33.115989
0
LINE
8
Layer 1
10
182.909746
20
33.115989
11
181.288005
21
33.568813
0
LINE
8
Layer 1
10
181.288005
20
33.568813
11
179.752978
21
34.174040
0
LINE
8
Layer 1
10
179.752978
20
34.174040
11
178.320079
21
34.931073
0
LINE
8
Layer 1
10
178.320079
20
34.931073
11
177.004718
21
35.839312
0
LINE
8
Layer 1
10
177.004718
20
35.839312
11
175.822309
21
36.898160
0
LINE
8
Layer 1
10
175.822309
20
36.898160
11
174.788263
21
38.107017
0
LINE
8
Layer 1
10
174.788263
20
38.107017
11
173.140690
21
40.636480
0
LINE
8
Layer 1
10
173.140690
20
40.636480
11
172.654435
21
41.744387
0
LINE
8
Layer 1
10
172.654435
20
41.744387
11
172.382297
21
42.816914
0
LINE
8
Layer 1
10
172.382297
20
42.816914
11
172.316095
21
43.905938
0
LINE
8
Layer 1
10
172.316095
20
43.905938
11
172.447651
21
45.063337
0
LINE
8
Layer 1
10
172.447651
20
45.063337
11
173.271318
21
47.790767
0
LINE
8
Layer 1
10
173.271318
20
47.790767
11
174.304164
21
49.830400
0
LINE
8
Layer 1
10
174.304164
20
49.830400
11
175.695473
21
51.644961
0
LINE
8
Layer 1
10
175.695473
20
51.644961
11
177.263767
21
53.036140
0
LINE
8
Layer 1
10
177.263767
20
53.036140
11
178.057572
21
53.510990
0
LINE
8
Layer 1
10
178.057572
20
53.510990
11
178.827568
21
53.805628
0
LINE
8
Layer 1
10
178.827568
20
53.805628
11
180.524122
21
54.387055
0
LINE
8
Layer 1
10
180.524122
20
54.387055
11
181.026411
21
54.711664
0
LINE
8
Layer 1
10
181.026411
20
54.711664
11
181.307219
21
55.079980
0
LINE
8
Layer 1
10
181.307219
20
55.079980
11
181.373432
21
55.507834
0
LINE
8
Layer 1
10
181.373432
20
55.507834
11
181.231932
21
56.011059
0
LINE
8
Layer 1
10
181.231932
20
56.011059
11
180.353332
21
57.306948
0
LINE
8
Layer 1
10
180.353332
20
57.306948
11
179.848823
21
58.066261
0
LINE
8
Layer 1
10
179.848823
20
58.066261
11
179.624846
21
58.838611
0
LINE
8
Layer 1
10
179.624846
20
58.838611
11
179.706284
21
59.666340
0
LINE
8
Layer 1
10
179.706284
20
59.666340
11
180.118021
21
60.591787
0
LINE
8
Layer 1
10
180.118021
20
60.591787
11
180.884940
21
61.657293
0
LINE
8
Layer 1
10
180.884940
20
61.657293
11
182.031925
21
62.905200
0
LINE
8
Layer 1
10
182.031925
20
62.905200
11
185.565624
21
66.117573
0
LINE
8
Layer 1
10
185.565624
20
66.117573
11
187.483743
21
67.843535
0
LINE
8
Layer 1
10
187.483743
20
67.843535
11
189.134293
21
69.522120
0
LINE
8
Layer 1
10
189.134293
20
69.522120
11
190.544925
21
71.197081
0
LINE
8
Layer 1
10
190.544925
20
71.197081
11
191.743293
21
72.912172
0
LINE
8
Layer 1
10
191.743293
20
72.912172
11
192.757047
21
74.711146
0
LINE
8
Layer 1
10
192.757047
20
74.711146
11
193.613840
21
76.637755
0
LINE
8
Layer 1
10
193.613840
20
76.637755
11
194.341325
21
78.735753
0
LINE
8
Layer 1
10
194.341325
20
78.735753
11
194.967152
21
81.048892
0
LINE
8
Layer 1
10
194.967152
20
81.048892
11
196.273959
21
85.699469
0
LINE
8
Layer 1
10
196.273959
20
85.699469
11
196.971632
21
87.323305
0
LINE
8
Layer 1
10
196.971632
20
87.323305
11
197.786717
21
88.589548
0
LINE
8
Layer 1
10
197.786717
20
88.589548
11
198.785137
21
89.580732
0
LINE
8
Layer 1
10
198.785137
20
89.580732
11
200.032817
21
90.379387
0
LINE
8
Layer 1
10
200.032817
20
90.379387
11
201.595681
21
91.068046
0
LINE
8
Layer 1
10
201.595681
20
91.068046
11
203.539652
21
91.729240
0
LINE
8
Layer 1
10
203.539652
20
91.729240
11
210.030763
21
93.766531
0
LINE
8
Layer 1
10
210.030763
20
93.766531
11
210.030763
21
93.766531
0
LINE
8
Layer 1
10
104.999999
20
78.579448
11
105.648673
21
78.346777
0
LINE
8
Layer 1
10
105.648673
20
78.346777
11
106.362778
21
77.805408
0
LINE
8
Layer 1
10
106.362778
20
77.805408
11
107.931651
21
75.961585
0
LINE
8
Layer 1
10
107.931651
20
75.961585
11
109.595356
21
73.377996
0
LINE
8
Layer 1
10
109.595356
20
73.377996
11
111.242631
21
70.384655
0
LINE
8
Layer 1
10
111.242631
20
70.384655
11
114.042851
21
64.488784
0
LINE
8
Layer 1
10
114.042851
20
64.488784
11
115.442221
21
60.914101
0
LINE
8
Layer 1
10
115.442221
20
60.914101
11
115.792727
21
57.825499
0
LINE
8
Layer 1
10
115.792727
20
57.825499
11
116.000760
21
53.329569
0
LINE
8
Layer 1
10
116.000760
20
53.329569
11
115.901016
21
47.909903
0
LINE
8
Layer 1
10
115.901016
20
47.909903
11
115.328192
21
42.050094
0
LINE
8
Layer 1
10
115.328192
20
42.050094
11
114.812716
21
39.106258
0
LINE
8
Layer 1
10
114.812716
20
39.106258
11
114.116982
21
36.233733
0
LINE
8
Layer 1
10
114.116982
20
36.233733
11
113.220325
21
33.492969
0
LINE
8
Layer 1
10
113.220325
20
33.492969
11
112.102083
21
30.944414
0
LINE
8
Layer 1
10
112.102083
20
30.944414
11
110.741592
21
28.648517
0
LINE
8
Layer 1
10
110.741592
20
28.648517
11
109.118190
21
26.665728
0
LINE
8
Layer 1
10
109.118190
20
26.665728
11
107.211213
21
25.056495
0
LINE
8
Layer 1
10
107.211213
20
25.056495
11
104.999999
21
23.881268
0
LINE
8
Layer 1
10
104.999999
20
23.881268
11
102.788785
21
25.056495
0
LINE
8
Layer 1
10
102.788785
20
25.056495
11
100.881809
21
26.665728
0
LINE
8
Layer 1
10
100.881809
20
26.665728
11
99.258407
21
28.648517
0
LINE
8
Layer 1
10
99.258407
20
28.648517
11
97.897916
21
30.944414
0
LINE
8
Layer 1
10
97.897916
20
30.944414
11
96.779674
21
33.492969
0
LINE
8
Layer 1
10
96.779674
20
33.492969
11
95.883017
21
36.233733
0
LINE
8
Layer 1
10
95.883017
20
36.233733
11
95.187282
21
39.106258
0
LINE
8
Layer 1
10
95.187282
20
39.106258
11
94.671807
21
42.050094
0
LINE
8
Layer 1
10
94.671807
20
42.050094
11
94.098982
21
47.909903
0
LINE
8
Layer 1
10
94.098982
20
47.909903
11
93.999238
21
53.329569
0
LINE
8
Layer 1
10
93.999238
20
53.329569
11
94.207271
21
57.825499
0
LINE
8
Layer 1
10
94.207271
20
57.825499
11
94.557777
21
60.914101
0
LINE
8
Layer 1
10
94.557777
20
60.914101
11
95.957148
21
64.488784
0
LINE
8
Layer 1
10
95.957148
20
64.488784
11
98.757367
21
70.384655
0
LINE
8
Layer 1
10
98.757367
20
70.384655
11
100.404643
21
73.377996
0
LINE
8
Layer 1
10
100.404643
20
73.377996
11
102.068347
21
75.961585
0
LINE
8
Layer 1
10
102.068347
20
75.961585
11
103.637219
21
77.805408
0
LINE
8
Layer 1
10
103.637219
20
77.805408
11
104.351325
21
78.346777
0
LINE
8
Layer 1
10
104.351325
20
78.346777
11
104.999999
21
78.579448
0
LINE
8
Layer 1
10
104.999999
20
78.579448
11
104.999999
21
78.579448
0
LINE
8
Layer 1
10
-69.051737
20
50.692365
11
-61.149515
21
50.692365
0
LINE
8
Layer 1
10
-61.149515
20
50.692365
11
-61.149515
21
41.996392
0
LINE
8
Layer 1
10
-61.149515
20
41.996392
11
-61.046316
21
39.133942
0
LINE
8
Layer 1
10
-61.046316
20
39.133942
11
-60.743875
21
36.575790
0
LINE
8
Layer 1
10
-60.743875
20
36.575790
11
-60.252928
21
34.345782
0
LINE
8
Layer 1
10
-60.252928
20
34.345782
11
-59.584210
21
32.467761
0
LINE
8
Layer 1
10
-59.584210
20
32.467761
11
-58.748455
21
30.965572
0
LINE
8
Layer 1
10
-58.748455
20
30.965572
11
-57.756398
21
29.863058
0
LINE
8
Layer 1
10
-57.756398
20
29.863058
11
-56.618775
21
29.184064
0
LINE
8
Layer 1
10
-56.618775
20
29.184064
11
-55.346321
21
28.952434
0
LINE
8
Layer 1
10
-55.346321
20
28.952434
11
-54.784103
21
29.234962
0
LINE
8
Layer 1
10
-54.784103
20
29.234962
11
-54.324264
21
30.004234
0
LINE
8
Layer 1
10
-54.324264
20
30.004234
11
-54.013857
21
31.142779
0
LINE
8
Layer 1
10
-54.013857
20
31.142779
11
-53.899932
21
32.533128
0
LINE
8
Layer 1
10
-53.899932
20
32.533128
11
-53.684421
21
34.342857
0
LINE
8
Layer 1
10
-53.684421
20
34.342857
11
-53.064509
21
35.937358
0
LINE
8
Layer 1
10
-53.064509
20
35.937358
11
-52.080125
21
37.314225
0
LINE
8
Layer 1
10
-52.080125
20
37.314225
11
-50.771199
21
38.471054
0
LINE
8
Layer 1
10
-50.771199
20
38.471054
11
-49.177660
21
39.405439
0
LINE
8
Layer 1
10
-49.177660
20
39.405439
11
-47.339439
21
40.114977
0
LINE
8
Layer 1
10
-47.339439
20
40.114977
11
-45.296465
21
40.597262
0
LINE
8
Layer 1
10
-45.296465
20
40.597262
11
-43.088669
21
40.849889
0
LINE
8
Layer 1
10
-43.088669
20
40.849889
11
-40.755979
21
40.870454
0
LINE
8
Layer 1
10
-40.755979
20
40.870454
11
-38.338325
21
40.656552
0
LINE
8
Layer 1
10
-38.338325
20
40.656552
11
-35.875638
21
40.205778
0
LINE
8
Layer 1
10
-35.875638
20
40.205778
11
-33.407847
21
39.515727
0
LINE
8
Layer 1
10
-33.407847
20
39.515727
11
-30.974881
21
38.583994
0
LINE
8
Layer 1
10
-30.974881
20
38.583994
11
-28.616671
21
37.408174
0
LINE
8
Layer 1
10
-28.616671
20
37.408174
11
-26.373147
21
35.985863
0
LINE
8
Layer 1
10
-26.373147
20
35.985863
11
-24.284237
21
34.314656
0
LINE
8
Layer 1
10
-24.284237
20
34.314656
11
-18.578056
21
29.190545
0
LINE
8
Layer 1
10
-18.578056
20
29.190545
11
-24.919237
21
26.562379
0
LINE
8
Layer 1
10
-24.919237
20
26.562379
11
-27.866699
21
25.612555
0
LINE
8
Layer 1
10
-27.866699
20
25.612555
11
-31.182959
21
24.977958
0
LINE
8
Layer 1
10
-31.182959
20
24.977958
11
-34.471803
21
24.712239
0
LINE
8
Layer 1
10
-34.471803
20
24.712239
11
-37.337015
21
24.869045
0
LINE
8
Layer 1
10
-37.337015
20
24.869045
11
-40.626863
21
25.286982
0
LINE
8
Layer 1
10
-40.626863
20
25.286982
11
-41.608716
21
25.282358
0
LINE
8
Layer 1
10
-41.608716
20
25.282358
11
-42.199626
21
25.100633
0
LINE
8
Layer 1
10
-42.199626
20
25.100633
11
-42.437922
21
24.715776
0
LINE
8
Layer 1
10
-42.437922
20
24.715776
11
-42.361934
21
24.101755
0
LINE
8
Layer 1
10
-42.361934
20
24.101755
11
-41.420418
21
22.082101
0
LINE
8
Layer 1
10
-41.420418
20
22.082101
11
-40.270721
21
20.342485
0
LINE
8
Layer 1
10
-40.270721
20
20.342485
11
-38.610329
21
18.352479
0
LINE
8
Layer 1
10
-38.610329
20
18.352479
11
-36.661648
21
16.357565
0
LINE
8
Layer 1
10
-36.661648
20
16.357565
11
-34.647084
21
14.603223
0
LINE
8
Layer 1
10
-34.647084
20
14.603223
11
-32.212918
21
12.645278
0
LINE
8
Layer 1
10
-32.212918
20
12.645278
11
-76.636459
21
12.645278
0
LINE
8
Layer 1
10
-76.636459
20
12.645278
11
-73.593751
21
14.929517
0
LINE
8
Layer 1
10
-73.593751
20
14.929517
11
-71.463550
21
16.913856
0
LINE
8
Layer 1
10
-71.463550
20
16.913856
11
-69.789986
21
18.841155
0
LINE
8
Layer 1
10
-69.789986
20
18.841155
11
-68.569521
21
20.723245
0
LINE
8
Layer 1
10
-68.569521
20
20.723245
11
-67.798621
21
22.571958
0
LINE
8
Layer 1
10
-67.798621
20
22.571958
11
-67.473748
21
24.399124
0
LINE
8
Layer 1
10
-67.473748
20
24.399124
11
-67.591366
21
26.216575
0
LINE
8
Layer 1
10
-67.591366
20
26.216575
11
-68.147940
21
28.036142
0
LINE
8
Layer 1
10
-68.147940
20
28.036142
11
-69.139932
21
29.869656
0
LINE
8
Layer 1
10
-69.139932
20
29.869656
11
-70.505117
21
31.639086
0
LINE
8
Layer 1
10
-70.505117
20
31.639086
11
-72.030792
21
33.040512
0
LINE
8
Layer 1
10
-72.030792
20
33.040512
11
-73.698866
21
34.069259
0
LINE
8
Layer 1
10
-73.698866
20
34.069259
11
-75.491250
21
34.720651
0
LINE
8
Layer 1
10
-75.491250
20
34.720651
11
-77.389854
21
34.990014
0
LINE
8
Layer 1
10
-77.389854
20
34.990014
11
-79.376587
21
34.872671
0
LINE
8
Layer 1
10
-79.376587
20
34.872671
11
-81.433361
21
34.363948
0
LINE
8
Layer 1
10
-81.433361
20
34.363948
11
-83.542084
21
33.459170
0
LINE
8
Layer 1
10
-83.542084
20
33.459170
11
-85.338362
21
32.668800
0
LINE
8
Layer 1
10
-85.338362
20
32.668800
11
-86.803636
21
32.324606
0
LINE
8
Layer 1
10
-86.803636
20
32.324606
11
-87.930426
21
32.417519
0
LINE
8
Layer 1
10
-87.930426
20
32.417519
11
-88.711248
21
32.938469
0
LINE
8
Layer 1
10
-88.711248
20
32.938469
11
-89.138620
21
33.878387
0
LINE
8
Layer 1
10
-89.138620
20
33.878387
11
-89.205059
21
35.228204
0
LINE
8
Layer 1
10
-89.205059
20
35.228204
11
-88.903083
21
36.978849
0
LINE
8
Layer 1
10
-88.903083
20
36.978849
11
-88.225209
21
39.121253
0
LINE
8
Layer 1
10
-88.225209
20
39.121253
11
-87.038806
21
41.544619
0
LINE
8
Layer 1
10
-87.038806
20
41.544619
11
-85.389611
21
43.759528
0
LINE
8
Layer 1
10
-85.389611
20
43.759528
11
-83.336123
21
45.730641
0
LINE
8
Layer 1
10
-83.336123
20
45.730641
11
-80.936840
21
47.422619
0
LINE
8
Layer 1
10
-80.936840
20
47.422619
11
-78.250261
21
48.800120
0
LINE
8
Layer 1
10
-78.250261
20
48.800120
11
-75.334885
21
49.827805
0
LINE
8
Layer 1
10
-75.334885
20
49.827805
11
-72.249211
21
50.470333
0
LINE
8
Layer 1
10
-72.249211
20
50.470333
11
-69.051737
21
50.692365
0
LINE
8
Layer 1
10
-69.051737
20
50.692365
11
-69.051737
21
50.692365
0
LINE
8
Layer 1
10
271.149513
20
50.692365
11
279.051735
21
50.692365
0
LINE
8
Layer 1
10
279.051735
20
50.692365
11
282.249210
21
50.470333
0
LINE
8
Layer 1
10
282.249210
20
50.470333
11
285.334883
21
49.827805
0
LINE
8
Layer 1
10
285.334883
20
49.827805
11
288.250258
21
48.800120
0
LINE
8
Layer 1
10
288.250258
20
48.800120
11
290.936835
21
47.422619
0
LINE
8
Layer 1
10
290.936835
20
47.422619
11
293.336117
21
45.730641
0
LINE
8
Layer 1
10
293.336117
20
45.730641
11
295.389605
21
43.759528
0
LINE
8
Layer 1
10
295.389605
20
43.759528
11
297.038802
21
41.544619
0
LINE
8
Layer 1
10
297.038802
20
41.544619
11
298.225210
21
39.121253
0
LINE
8
Layer 1
10
298.225210
20
39.121253
11
298.903085
21
36.978849
0
LINE
8
Layer 1
10
298.903085
20
36.978849
11
299.205060
21
35.228204
0
LINE
8
Layer 1
10
299.205060
20
35.228204
11
299.138618
21
33.878387
0
LINE
8
Layer 1
10
299.138618
20
33.878387
11
298.711243
21
32.938469
0
LINE
8
Layer 1
10
298.711243
20
32.938469
11
297.930416
21
32.417519
0
LINE
8
Layer 1
10
297.930416
20
32.417519
11
296.803624
21
32.324606
0
LINE
8
Layer 1
10
296.803624
20
32.324606
11
295.338347
21
32.668800
0
LINE
8
Layer 1
10
295.338347
20
32.668800
11
293.542071
21
33.459170
0
LINE
8
Layer 1
10
293.542071
20
33.459170
11
291.433348
21
34.363948
0
LINE
8
Layer 1
10
291.433348
20
34.363948
11
289.376577
21
34.872671
0
LINE
8
Layer 1
10
289.376577
20
34.872671
11
287.389845
21
34.990014
0
LINE
8
Layer 1
10
287.389845
20
34.990014
11
285.491244
21
34.720651
0
LINE
8
Layer 1
10
285.491244
20
34.720651
11
283.698862
21
34.069259
0
LINE
8
Layer 1
10
283.698862
20
34.069259
11
282.030790
21
33.040512
0
LINE
8
Layer 1
10
282.030790
20
33.040512
11
280.505116
21
31.639086
0
LINE
8
Layer 1
10
280.505116
20
31.639086
11
279.139929
21
29.869656
0
LINE
8
Layer 1
10
279.139929
20
29.869656
11
278.147937
21
28.036142
0
LINE
8
Layer 1
10
278.147937
20
28.036142
11
277.591363
21
26.216575
0
LINE
8
Layer 1
10
277.591363
20
26.216575
11
277.473744
21
24.399124
0
LINE
8
Layer 1
10
277.473744
20
24.399124
11
277.798615
21
22.571958
0
LINE
8
Layer 1
10
277.798615
20
22.571958
11
278.569514
21
20.723245
0
LINE
8
Layer 1
10
278.569514
20
20.723245
11
279.789976
21
18.841155
0
LINE
8
Layer 1
10
279.789976
20
18.841155
11
281.463539
21
16.913856
0
LINE
8
Layer 1
10
281.463539
20
16.913856
11
283.593738
21
14.929517
0
LINE
8
Layer 1
10
283.593738
20
14.929517
11
286.636460
21
12.645278
0
LINE
8
Layer 1
10
286.636460
20
12.645278
11
242.212916
21
12.645278
0
LINE
8
Layer 1
10
242.212916
20
12.645278
11
244.647082
21
14.603223
0
LINE
8
Layer 1
10
244.647082
20
14.603223
11
246.661645
21
16.357565
0
LINE
8
Layer 1
10
246.661645
20
16.357565
11
248.610325
21
18.352479
0
LINE
8
Layer 1
10
248.610325
20
18.352479
11
250.270717
21
20.342485
0
LINE
8
Layer 1
10
250.270717
20
20.342485
11
251.420416
21
22.082101
0
LINE
8
Layer 1
10
251.420416
20
22.082101
11
252.361930
21
24.101755
0
LINE
8
Layer 1
10
252.361930
20
24.101755
11
252.437918
21
24.715776
0
LINE
8
Layer 1
10
252.437918
20
24.715776
11
252.199621
21
25.100633
0
LINE
8
Layer 1
10
252.199621
20
25.100633
11
251.608711
21
25.282358
0
LINE
8
Layer 1
10
251.608711
20
25.282358
11
250.626858
21
25.286982
0
LINE
8
Layer 1
10
250.626858
20
25.286982
11
247.337013
21
24.869045
0
LINE
8
Layer 1
10
247.337013
20
24.869045
11
244.471800
21
24.712239
0
LINE
8
Layer 1
10
244.471800
20
24.712239
11
241.182955
21
24.977958
0
LINE
8
Layer 1
10
241.182955
20
24.977958
11
237.866695
21
25.612555
0
LINE
8
Layer 1
10
237.866695
20
25.612555
11
234.919235
21
26.562379
0
LINE
8
Layer 1
10
234.919235
20
26.562379
11
228.578054
21
29.190545
0
LINE
8
Layer 1
10
228.578054
20
29.190545
11
234.284235
21
34.314656
0
LINE
8
Layer 1
10
234.284235
20
34.314656
11
236.373144
21
35.985863
0
LINE
8
Layer 1
10
236.373144
20
35.985863
11
238.616669
21
37.408174
0
LINE
8
Layer 1
10
238.616669
20
37.408174
11
240.974878
21
38.583994
0
LINE
8
Layer 1
10
240.974878
20
38.583994
11
243.407844
21
39.515727
0
LINE
8
Layer 1
10
243.407844
20
39.515727
11
245.875634
21
40.205778
0
LINE
8
Layer 1
10
245.875634
20
40.205778
11
248.338321
21
40.656552
0
LINE
8
Layer 1
10
248.338321
20
40.656552
11
250.755975
21
40.870454
0
LINE
8
Layer 1
10
250.755975
20
40.870454
11
253.088664
21
40.849889
0
LINE
8
Layer 1
10
253.088664
20
40.849889
11
255.296461
21
40.597262
0
LINE
8
Layer 1
10
255.296461
20
40.597262
11
257.339434
21
40.114977
0
LINE
8
Layer 1
10
257.339434
20
40.114977
11
259.177655
21
39.405439
0
LINE
8
Layer 1
10
259.177655
20
39.405439
11
260.771194
21
38.471054
0
LINE
8
Layer 1
10
260.771194
20
38.471054
11
262.080120
21
37.314225
0
LINE
8
Layer 1
10
262.080120
20
37.314225
11
263.064505
21
35.937358
0
LINE
8
Layer 1
10
263.064505
20
35.937358
11
263.684418
21
34.342857
0
LINE
8
Layer 1
10
263.684418
20
34.342857
11
263.899929
21
32.533128
0
LINE
8
Layer 1
10
263.899929
20
32.533128
11
264.013854
21
31.142779
0
LINE
8
Layer 1
10
264.013854
20
31.142779
11
264.324260
21
30.004234
0
LINE
8
Layer 1
10
264.324260
20
30.004234
11
264.784098
21
29.234962
0
LINE
8
Layer 1
10
264.784098
20
29.234962
11
265.346318
21
28.952434
0
LINE
8
Layer 1
10
265.346318
20
28.952434
11
266.618773
21
29.184064
0
LINE
8
Layer 1
10
266.618773
20
29.184064
11
267.756395
21
29.863058
0
LINE
8
Layer 1
10
267.756395
20
29.863058
11
268.748451
21
30.965572
0
LINE
8
Layer 1
10
268.748451
20
30.965572
11
269.584205
21
32.467761
0
LINE
8
Layer 1
10
269.584205
20
32.467761
11
270.252923
21
34.345782
0
LINE
8
Layer 1
10
270.252923
20
34.345782
11
270.743871
21
36.575790
0
LINE
8
Layer 1
10
270.743871
20
36.575790
11
271.046312
21
39.133942
0
LINE
8
Layer 1
10
271.046312
20
39.133942
11
271.149513
21
41.996392
0
LINE
8
Layer 1
10
271.149513
20
41.996392
11
271.149513
21
50.692365
0
LINE
8
Layer 1
10
271.149513
20
50.692365
11
271.149513
21
50.692365
0
LINE
8
Layer 1
10
-181.878890
20
47.923059
11
-177.689654
21
38.918406
0
LINE
8
Layer 1
10
-177.689654
20
38.918406
11
-175.631546
21
35.143367
0
LINE
8
Layer 1
10
-175.631546
20
35.143367
11
-173.461182
21
31.631215
0
LINE
8
Layer 1
10
-173.461182
20
31.631215
11
-171.177975
21
28.381427
0
LINE
8
Layer 1
10
-171.177975
20
28.381427
11
-168.781339
21
25.393478
0
LINE
8
Layer 1
10
-168.781339
20
25.393478
11
-166.270685
21
22.666845
0
LINE
8
Layer 1
10
-166.270685
20
22.666845
11
-163.645428
21
20.201003
0
LINE
8
Layer 1
10
-163.645428
20
20.201003
11
-160.904979
21
17.995430
0
LINE
8
Layer 1
10
-160.904979
20
17.995430
11
-158.048751
21
16.049601
0
LINE
8
Layer 1
10
-158.048751
20
16.049601
11
-152.615973
21
12.645278
0
LINE
8
Layer 1
10
-152.615973
20
12.645278
11
-181.878890
21
12.645278
0
LINE
8
Layer 1
10
-181.878890
20
12.645278
11
-181.878890
21
47.923059
0
LINE
8
Layer 1
10
-181.878890
20
47.923059
11
-181.878890
21
47.923059
0
LINE
8
Layer 1
10
391.878876
20
47.923059
11
391.878876
21
12.645278
0
LINE
8
Layer 1
10
391.878876
20
12.645278
11
362.615960
21
12.645278
0
LINE
8
Layer 1
10
362.615960
20
12.645278
11
368.048738
21
16.049601
0
LINE
8
Layer 1
10
368.048738
20
16.049601
11
370.904964
21
17.995430
0
LINE
8
Layer 1
10
370.904964
20
17.995430
11
373.645411
21
20.201003
0
LINE
8
Layer 1
10
373.645411
20
20.201003
11
376.270667
21
22.666845
0
LINE
8
Layer 1
10
376.270667
20
22.666845
11
378.781321
21
25.393478
0
LINE
8
Layer 1
10
378.781321
20
25.393478
11
381.177958
21
28.381427
0
LINE
8
Layer 1
10
381.177958
20
28.381427
11
383.461168
21
31.631215
0
LINE
8
Layer 1
10
383.461168
20
31.631215
11
385.631537
21
35.143367
0
LINE
8
Layer 1
10
385.631537
20
35.143367
11
387.689654
21
38.918406
0
LINE
8
Layer 1
10
387.689654
20
38.918406
11
391.878876
21
47.923059
0
LINE
8
Layer 1
10
391.878876
20
47.923059
11
391.878876
21
47.923059
0
LINE
8
Layer 1
10
80.137985
20
43.442781
11
80.841352
21
43.263739
0
LINE
8
Layer 1
10
80.841352
20
43.263739
11
81.417878
21
42.776451
0
LINE
8
Layer 1
10
81.417878
20
42.776451
11
81.808658
21
42.055679
0
LINE
8
Layer 1
10
81.808658
20
42.055679
11
81.954791
21
41.176184
0
LINE
8
Layer 1
10
81.954791
20
41.176184
11
82.631535
21
37.143630
0
LINE
8
Layer 1
10
82.631535
20
37.143630
11
83.561438
21
33.411583
0
LINE
8
Layer 1
10
83.561438
20
33.411583
11
84.790448
21
29.897357
0
LINE
8
Layer 1
10
84.790448
20
29.897357
11
86.364513
21
26.518267
0
LINE
8
Layer 1
10
86.364513
20
26.518267
11
88.340159
21
23.176111
0
LINE
8
Layer 1
10
88.340159
20
23.176111
11
90.758519
21
19.804728
0
LINE
8
Layer 1
10
90.758519
20
19.804728
11
93.667601
21
16.321867
0
LINE
8
Layer 1
10
93.667601
20
16.321867
11
97.115416
21
12.645278
0
LINE
8
Layer 1
10
97.115416
20
12.645278
11
41.544096
21
12.645278
0
LINE
8
Layer 1
10
41.544096
20
12.645278
11
44.064469
21
13.606349
0
LINE
8
Layer 1
10
44.064469
20
13.606349
11
46.567231
21
14.798650
0
LINE
8
Layer 1
10
46.567231
20
14.798650
11
49.022257
21
16.172590
0
LINE
8
Layer 1
10
49.022257
20
16.172590
11
51.399421
21
17.678578
0
LINE
8
Layer 1
10
51.399421
20
17.678578
11
55.799661
21
20.888333
0
LINE
8
Layer 1
10
55.799661
20
20.888333
11
59.526943
21
24.031184
0
LINE
8
Layer 1
10
59.526943
20
24.031184
11
62.267211
21
26.616635
0
LINE
8
Layer 1
10
62.267211
20
26.616635
11
64.753773
21
29.154734
0
LINE
8
Layer 1
10
64.753773
20
29.154734
11
69.379542
21
34.092722
0
LINE
8
Layer 1
10
69.379542
20
34.092722
11
71.725629
21
36.494534
0
LINE
8
Layer 1
10
71.725629
20
36.494534
11
74.231772
21
38.852840
0
LINE
8
Layer 1
10
74.231772
20
38.852840
11
77.001410
21
41.168602
0
LINE
8
Layer 1
10
77.001410
20
41.168602
11
80.137985
21
43.442781
0
LINE
8
Layer 1
10
80.137985
20
43.442781
11
80.137985
21
43.442781
0
LINE
8
Layer 1
10
129.862013
20
43.442781
11
132.998587
21
41.168602
0
LINE
8
Layer 1
10
132.998587
20
41.168602
11
135.768226
21
38.852840
0
LINE
8
Layer 1
10
135.768226
20
38.852840
11
138.274369
21
36.494534
0
LINE
8
Layer 1
10
138.274369
20
36.494534
11
140.620456
21
34.092722
0
LINE
8
Layer 1
10
140.620456
20
34.092722
11
145.246224
21
29.154734
0
LINE
8
Layer 1
10
145.246224
20
29.154734
11
147.732787
21
26.616635
0
LINE
8
Layer 1
10
147.732787
20
26.616635
11
150.473054
21
24.031184
0
LINE
8
Layer 1
10
150.473054
20
24.031184
11
154.200337
21
20.888333
0
LINE
8
Layer 1
10
154.200337
20
20.888333
11
158.600575
21
17.678578
0
LINE
8
Layer 1
10
158.600575
20
17.678578
11
160.977739
21
16.172590
0
LINE
8
Layer 1
10
160.977739
20
16.172590
11
163.432765
21
14.798650
0
LINE
8
Layer 1
10
163.432765
20
14.798650
11
165.935528
21
13.606349
0
LINE
8
Layer 1
10
165.935528
20
13.606349
11
168.455902
21
12.645278
0
LINE
8
Layer 1
10
168.455902
20
12.645278
11
112.884582
21
12.645278
0
LINE
8
Layer 1
10
112.884582
20
12.645278
11
116.332397
21
16.321867
0
LINE
8
Layer 1
10
116.332397
20
16.321867
11
119.241480
21
19.804728
0
LINE
8
Layer 1
10
119.241480
20
19.804728
11
121.659840
21
23.176111
0
LINE
8
Layer 1
10
121.659840
20
23.176111
11
123.635485
21
26.518267
0
LINE
8
Layer 1
10
123.635485
20
26.518267
11
125.209550
21
29.897357
0
LINE
8
Layer 1
10
125.209550
20
29.897357
11
126.438561
21
33.411583
0
LINE
8
Layer 1
10
126.438561
20
33.411583
11
127.368464
21
37.143630
0
LINE
8
Layer 1
10
127.368464
20
37.143630
11
128.045207
21
41.176184
0
LINE
8
Layer 1
10
128.045207
20
41.176184
11
128.191340
21
42.055679
0
LINE
8
Layer 1
10
128.191340
20
42.055679
11
128.582121
21
42.776451
0
LINE
8
Layer 1
10
128.582121
20
42.776451
11
129.158647
21
43.263739
0
LINE
8
Layer 1
10
129.158647
20
43.263739
11
129.862013
21
43.442781
0
LINE
8
Layer 1
10
129.862013
20
43.442781
11
129.862013
21
43.442781
0
LINE
8
Layer 1
10
-101.480834
20
30.883878
11
-99.258334
21
25.521656
0
LINE
8
Layer 1
10
-99.258334
20
25.521656
11
-98.124148
21
23.192153
0
LINE
8
Layer 1
10
-98.124148
20
23.192153
11
-96.677660
21
20.814207
0
LINE
8
Layer 1
10
-96.677660
20
20.814207
11
-95.103783
21
18.666708
0
LINE
8
Layer 1
10
-95.103783
20
18.666708
11
-93.587432
21
17.028545
0
LINE
8
Layer 1
10
-93.587432
20
17.028545
11
-91.145762
21
14.507315
0
LINE
8
Layer 1
10
-91.145762
20
14.507315
11
-90.403004
21
13.443325
0
LINE
8
Layer 1
10
-90.403004
20
13.443325
11
-90.130209
21
12.645278
0
LINE
8
Layer 1
10
-90.130209
20
12.645278
11
-120.169237
21
12.645278
0
LINE
8
Layer 1
10
-120.169237
20
12.645278
11
-117.294098
21
14.462112
0
LINE
8
Layer 1
10
-117.294098
20
14.462112
11
-113.716452
21
16.974674
0
LINE
8
Layer 1
10
-113.716452
20
16.974674
11
-112.332604
21
17.747905
0
LINE
8
Layer 1
10
-112.332604
20
17.747905
11
-111.473265
21
18.042767
0
LINE
8
Layer 1
10
-111.473265
20
18.042767
11
-110.627581
21
18.564487
0
LINE
8
Layer 1
10
-110.627581
20
18.564487
11
-109.281222
21
19.954636
0
LINE
8
Layer 1
10
-109.281222
20
19.954636
11
-107.619773
21
22.000607
0
LINE
8
Layer 1
10
-107.619773
20
22.000607
11
-105.828821
21
24.489795
0
LINE
8
Layer 1
10
-105.828821
20
24.489795
11
-101.480834
21
30.883878
0
LINE
8
Layer 1
10
-101.480834
20
30.883878
11
-101.480834
21
30.883878
0
LINE
8
Layer 1
10
311.480821
20
30.883878
11
315.828821
21
24.489795
0
LINE
8
Layer 1
10
315.828821
20
24.489795
11
317.619776
21
22.000607
0
LINE
8
Layer 1
10
317.619776
20
22.000607
11
319.281217
21
19.954636
0
LINE
8
Layer 1
10
319.281217
20
19.954636
11
320.627572
21
18.564487
0
LINE
8
Layer 1
10
320.627572
20
18.564487
11
321.473266
21
18.042767
0
LINE
8
Layer 1
10
321.473266
20
18.042767
11
322.332606
21
17.747905
0
LINE
8
Layer 1
10
322.332606
20
17.747905
11
323.716445
21
16.974674
0
LINE
8
Layer 1
10
323.716445
20
16.974674
11
327.294099
21
14.462112
0
LINE
8
Layer 1
10
327.294099
20
14.462112
11
330.169210
21
12.645278
0
LINE
8
Layer 1
10
330.169210
20
12.645278
11
300.130210
21
12.645278
0
LINE
8
Layer 1
10
300.130210
20
12.645278
11
300.403002
21
13.443325
0
LINE
8
Layer 1
10
300.403002
20
13.443325
11
301.145758
21
14.507315
0
LINE
8
Layer 1
10
301.145758
20
14.507315
11
303.587432
21
17.028545
0
LINE
8
Layer 1
10
303.587432
20
17.028545
11
305.103782
21
18.666708
0
LINE
8
Layer 1
10
305.103782
20
18.666708
11
306.677649
21
20.814207
0
LINE
8
Layer 1
10
306.677649
20
20.814207
11
308.124130
21
23.192153
0
LINE
8
Layer 1
10
308.124130
20
23.192153
11
309.258321
21
25.521656
0
LINE
8
Layer 1
10
309.258321
20
25.521656
11
311.480821
21
30.883878
0
LINE
8
Layer 1
10
311.480821
20
30.883878
11
311.480821
21
30.883878
0
LINE
8
Layer 1
10
-4.061251
20
21.217767
11
-3.305887
21
21.131635
0
LINE
8
Layer 1
10
-3.305887
20
21.131635
11
-2.526986
21
20.875950
0
LINE
8
Layer 1
10
-2.526986
20
20.875950
11
-0.753959
21
19.903684
0
LINE
8
Layer 1
10
-0.753959
20
19.903684
11
1.406718
21
18.691893
0
LINE
8
Layer 1
10
1.406718
20
18.691893
11
4.399532
21
17.217304
0
LINE
8
Layer 1
10
4.399532
20
17.217304
11
11.302221
21
14.223973
0
LINE
8
Layer 1
10
11.302221
20
14.223973
11
15.747221
21
12.645278
0
LINE
8
Layer 1
10
15.747221
20
12.645278
11
-15.720556
21
12.645278
0
LINE
8
Layer 1
10
-15.720556
20
12.645278
11
-11.231459
21
16.605212
0
LINE
8
Layer 1
10
-11.231459
20
16.605212
11
-8.781456
21
18.699901
0
LINE
8
Layer 1
10
-8.781456
20
18.699901
11
-6.884241
21
20.131356
0
LINE
8
Layer 1
10
-6.884241
20
20.131356
11
-5.368083
21
20.952878
0
LINE
8
Layer 1
10
-5.368083
20
20.952878
11
-4.061251
21
21.217767
0
LINE
8
Layer 1
10
-4.061251
20
21.217767
11
-4.061251
21
21.217767
0
LINE
8
Layer 1
10
214.061249
20
21.217767
11
215.368080
21
20.952878
0
LINE
8
Layer 1
10
215.368080
20
20.952878
11
216.884237
21
20.131356
0
LINE
8
Layer 1
10
216.884237
20
20.131356
11
218.781451
21
18.699901
0
LINE
8
Layer 1
10
218.781451
20
18.699901
11
221.231457
21
16.605212
0
LINE
8
Layer 1
10
221.231457
20
16.605212
11
225.720554
21
12.645278
0
LINE
8
Layer 1
10
225.720554
20
12.645278
11
194.252777
21
12.645278
0
LINE
8
Layer 1
10
194.252777
20
12.645278
11
198.697777
21
14.223973
0
LINE
8
Layer 1
10
198.697777
20
14.223973
11
205.600464
21
17.217304
0
LINE
8
Layer 1
10
205.600464
20
17.217304
11
208.593278
21
18.691893
0
LINE
8
Layer 1
10
208.593278
20
18.691893
11
210.753957
21
19.903684
0
LINE
8
Layer 1
10
210.753957
20
19.903684
11
212.526982
21
20.875950
0
LINE
8
Layer 1
10
212.526982
20
20.875950
11
213.305882
21
21.131635
0
LINE
8
Layer 1
10
213.305882
20
21.131635
11
214.061249
21
21.217767
0
LINE
8
Layer 1
10
214.061249
20
21.217767
11
214.061249
21
21.217767
 0 
ENDSEC
 0 
EOF
