0
SECTION
2
HEADER
9
$ACADVER
1
AC1009
9
$ANGDIR
70
0
9
$EXTMIN
10
0
20
0
9
$EXTMAX
10
24.0000
20
18.0000
0
ENDSEC
0
SECTION
2
ENTITIES
0
POLYLINE
8
Layer 1
66
1
0
VERTEX
8
0
10
11.2608
20
5.4041
42
0.0260
0
VERTEX
8
0
10
11.2966
20
6.0000
42
0.0294
0
VERTEX
8
0
10
11.2608
20
6.5959
42
-0.0056
0
VERTEX
8
0
10
11.2347
20
6.4152
42
-0.0565
0
VERTEX
8
0
10
11.1175
20
6.0000
42
-0.0635
0
VERTEX
8
0
10
11.2347
20
5.5848
42
-0.0078
0
VERTEX
8
0
10
11.2608
20
5.4041
0
SEQEND
8
0
0
POLYLINE
8
Layer 1
66
1
0
VERTEX
8
0
10
6.0000
20
0.0000
42
0.4130
0
VERTEX
8
0
10
11.9935
20
6.0000
42
0.4130
0
VERTEX
8
0
10
6.0000
20
12.0000
42
0.4130
0
VERTEX
8
0
10
0.0065
20
6.0000
42
0.4130
0
VERTEX
8
0
10
6.0000
20
0.0000
0
SEQEND
8
0
0
POLYLINE
8
Layer 1
66
1
0
VERTEX
8
0
10
6.0000
20
0.6969
42
-0.0277
0
VERTEX
8
0
10
5.4057
20
0.7327
42
0.0035
0
VERTEX
8
0
10
5.5913
20
0.7588
42
0.0553
0
VERTEX
8
0
10
6.0000
20
0.8727
42
0.0628
0
VERTEX
8
0
10
6.4087
20
0.7588
42
0.0113
0
VERTEX
8
0
10
6.5943
20
0.7327
42
-0.0277
0
VERTEX
8
0
10
6.0000
20
0.6969
0
SEQEND
8
0
0
POLYLINE
8
Layer 1
66
1
0
VERTEX
8
0
10
5.5522
20
1.3547
42
-0.0715
0
VERTEX
8
0
10
5.5356
20
1.6561
42
-0.0372
0
VERTEX
8
0
10
5.5896
20
1.9542
42
-0.0308
0
VERTEX
8
0
10
5.7916
20
2.5254
42
0.0206
0
VERTEX
8
0
10
5.6157
20
3.0334
42
0.0066
0
VERTEX
8
0
10
5.5767
20
3.1343
42
-0.0256
0
VERTEX
8
0
10
5.2510
20
3.2174
42
-0.0144
0
VERTEX
8
0
10
5.3868
20
2.8919
42
-0.0266
0
VERTEX
8
0
10
5.4986
20
2.5575
42
-0.0528
0
VERTEX
8
0
10
5.5641
20
2.2114
42
-0.1137
0
VERTEX
8
0
10
5.5311
20
1.8627
42
-0.1104
0
VERTEX
8
0
10
5.3892
20
1.6382
42
-0.0695
0
VERTEX
8
0
10
5.1724
20
1.4823
42
-0.0720
0
VERTEX
8
0
10
4.6632
20
1.3221
42
-0.0435
0
VERTEX
8
0
10
3.6619
20
1.2456
42
0.0321
0
VERTEX
8
0
10
4.2871
20
0.9851
42
0.0138
0
VERTEX
8
0
10
4.9873
20
1.1267
42
0.0377
0
VERTEX
8
0
10
5.2802
20
1.2154
42
0.0622
0
VERTEX
8
0
10
5.5522
20
1.3547
0
SEQEND
8
0
0
POLYLINE
8
Layer 1
66
1
0
VERTEX
8
0
10
6.4478
20
1.3547
42
0.0715
0
VERTEX
8
0
10
6.4644
20
1.6561
42
0.0371
0
VERTEX
8
0
10
6.4104
20
1.9541
42
0.0308
0
VERTEX
8
0
10
6.2084
20
2.5254
42
-0.0206
0
VERTEX
8
0
10
6.3843
20
3.0334
42
-0.0066
0
VERTEX
8
0
10
6.4233
20
3.1343
42
0.0256
0
VERTEX
8
0
10
6.7490
20
3.2174
42
0.0145
0
VERTEX
8
0
10
6.6132
20
2.8919
42
0.0266
0
VERTEX
8
0
10
6.5014
20
2.5575
42
0.0527
0
VERTEX
8
0
10
6.4359
20
2.2114
42
0.1137
0
VERTEX
8
0
10
6.4689
20
1.8627
42
0.1104
0
VERTEX
8
0
10
6.6108
20
1.6382
42
0.0694
0
VERTEX
8
0
10
6.8276
20
1.4824
42
0.0720
0
VERTEX
8
0
10
7.3368
20
1.3221
42
0.0435
0
VERTEX
8
0
10
8.3381
20
1.2456
42
-0.0321
0
VERTEX
8
0
10
7.7129
20
0.9851
42
-0.0138
0
VERTEX
8
0
10
7.0127
20
1.1267
42
-0.0377
0
VERTEX
8
0
10
6.7198
20
1.2154
42
-0.0622
0
VERTEX
8
0
10
6.4478
20
1.3547
0
SEQEND
8
0
0
POLYLINE
8
Layer 1
66
1
0
VERTEX
8
0
10
7.2426
20
2.0284
42
-0.1076
0
VERTEX
8
0
10
7.0991
20
2.2453
42
-0.0800
0
VERTEX
8
0
10
7.0481
20
2.5339
42
-0.0427
0
VERTEX
8
0
10
7.0745
20
2.8268
42
-0.0350
0
VERTEX
8
0
10
7.2342
20
3.3932
0
VERTEX
8
0
10
7.7129
20
3.5902
42
0.0159
0
VERTEX
8
0
10
7.5970
20
3.2955
42
0.0278
0
VERTEX
8
0
10
7.5043
20
2.9927
42
0.0522
0
VERTEX
8
0
10
7.4544
20
2.6804
42
0.1043
0
VERTEX
8
0
10
7.4898
20
2.3674
42
0.1103
0
VERTEX
8
0
10
7.6317
20
2.1430
42
0.0694
0
VERTEX
8
0
10
7.8485
20
1.9871
42
0.0719
0
VERTEX
8
0
10
8.3577
20
1.8269
42
0.0338
0
VERTEX
8
0
10
9.1588
20
1.7503
42
-0.0194
0
VERTEX
8
0
10
8.8185
20
1.5159
42
-0.0157
0
VERTEX
8
0
10
7.9408
20
1.6901
42
-0.0311
0
VERTEX
8
0
10
7.6896
20
1.7635
42
-0.0460
0
VERTEX
8
0
10
7.4514
20
1.8717
42
-0.0739
0
VERTEX
8
0
10
7.2426
20
2.0284
0
SEQEND
8
0
0
POLYLINE
8
Layer 1
66
1
0
VERTEX
8
0
10
8.1199
20
2.7501
42
-0.0746
0
VERTEX
8
0
10
8.0700
20
3.0072
42
-0.0425
0
VERTEX
8
0
10
8.0857
20
3.2695
42
-0.0373
0
VERTEX
8
0
10
8.2144
20
3.7791
42
-0.0311
0
VERTEX
8
0
10
8.5849
20
3.8825
42
-0.0664
0
VERTEX
8
0
10
8.9666
20
3.9240
42
-0.0944
0
VERTEX
8
0
10
9.2434
20
3.8735
42
-0.0975
0
VERTEX
8
0
10
9.4606
20
3.7301
42
-0.0628
0
VERTEX
8
0
10
9.6178
20
3.5213
42
-0.0643
0
VERTEX
8
0
10
9.8003
20
3.0317
42
-0.0089
0
VERTEX
8
0
10
9.9191
20
2.4423
42
-0.0242
0
VERTEX
8
0
10
9.5512
20
2.0744
42
-0.0142
0
VERTEX
8
0
10
8.9617
20
2.1932
42
-0.0315
0
VERTEX
8
0
10
8.7104
20
2.2669
42
-0.0460
0
VERTEX
8
0
10
8.4722
20
2.3756
42
-0.0736
0
VERTEX
8
0
10
8.2634
20
2.5329
42
-0.1073
0
VERTEX
8
0
10
8.1199
20
2.7501
0
SEQEND
8
0
0
POLYLINE
8
Layer 1
66
1
0
VERTEX
8
0
10
7.3986
20
3.8133
42
0.0081
0
VERTEX
8
0
10
7.6250
20
4.3685
0
VERTEX
8
0
10
8.1802
20
4.5948
0
VERTEX
8
0
10
7.9278
20
4.0640
42
-0.0062
0
VERTEX
8
0
10
7.3986
20
3.8133
0
SEQEND
8
0
0
POLYLINE
8
Layer 1
66
1
0
VERTEX
8
0
10
7.2195
20
4.2285
42
-0.0338
0
VERTEX
8
0
10
6.8450
20
4.1422
42
0.0098
0
VERTEX
8
0
10
6.8157
20
4.1373
42
-0.0258
0
VERTEX
8
0
10
6.5731
20
3.5007
42
0.0276
0
VERTEX
8
0
10
6.9346
20
3.6163
42
0.0037
0
VERTEX
8
0
10
7.2195
20
4.2285
0
SEQEND
8
0
0
POLYLINE
8
Layer 1
66
1
0
VERTEX
8
0
10
7.0730
20
4.5199
42
-0.0315
0
VERTEX
8
0
10
6.9086
20
4.4857
42
0.0093
0
VERTEX
8
0
10
6.9248
20
4.5867
42
0.0874
0
VERTEX
8
0
10
6.9151
20
4.9254
42
0.0350
0
VERTEX
8
0
10
7.0665
20
5.0784
42
0.0854
0
VERTEX
8
0
10
7.4068
20
5.0687
42
0.0150
0
VERTEX
8
0
10
7.5077
20
5.0849
42
-0.0245
0
VERTEX
8
0
10
7.4735
20
4.9189
42
-0.0219
0
VERTEX
8
0
10
7.3775
20
4.6160
42
-0.0260
0
VERTEX
8
0
10
7.0730
20
4.5199
0
SEQEND
8
0
0
POLYLINE
8
Layer 1
66
1
0
VERTEX
8
0
10
6.5731
20
4.4841
42
-0.1247
0
VERTEX
8
0
10
6.2296
20
4.6030
42
0.0655
0
VERTEX
8
0
10
6.5927
20
4.7186
42
-0.0422
0
VERTEX
8
0
10
6.5731
20
4.4841
0
SEQEND
8
0
0
POLYLINE
8
Layer 1
66
1
0
VERTEX
8
0
10
6.4868
20
4.1552
42
-0.0942
0
VERTEX
8
0
10
6.2088
20
4.2724
42
-0.1182
0
VERTEX
8
0
10
6.0000
20
4.4890
42
-0.1089
0
VERTEX
8
0
10
5.7912
20
4.2724
42
-0.0889
0
VERTEX
8
0
10
5.5132
20
4.1552
42
0.0216
0
VERTEX
8
0
10
5.7411
20
3.5886
42
0.0852
0
VERTEX
8
0
10
6.0000
20
3.4795
42
0.1008
0
VERTEX
8
0
10
6.2589
20
3.5886
42
0.0304
0
VERTEX
8
0
10
6.4868
20
4.1552
0
SEQEND
8
0
0
POLYLINE
8
Layer 1
66
1
0
VERTEX
8
0
10
5.7704
20
4.6030
42
-0.0655
0
VERTEX
8
0
10
5.4073
20
4.7186
42
0.0422
0
VERTEX
8
0
10
5.4269
20
4.4841
42
0.1247
0
VERTEX
8
0
10
5.7704
20
4.6030
0
SEQEND
8
0
0
POLYLINE
8
Layer 1
66
1
0
VERTEX
8
0
10
6.0000
20
5.2005
42
-0.4072
0
VERTEX
8
0
10
5.2071
20
6.0000
42
-0.4072
0
VERTEX
8
0
10
6.0000
20
6.7995
42
-0.4072
0
VERTEX
8
0
10
6.7929
20
6.0000
42
-0.4072
0
VERTEX
8
0
10
6.0000
20
5.2005
0
SEQEND
8
0
0
POLYLINE
8
Layer 1
66
1
0
VERTEX
8
0
10
5.0849
20
4.9254
42
0.0874
0
VERTEX
8
0
10
5.0752
20
4.5867
42
0.0093
0
VERTEX
8
0
10
5.0914
20
4.4857
42
-0.0317
0
VERTEX
8
0
10
4.9270
20
4.5199
42
-0.0260
0
VERTEX
8
0
10
4.6225
20
4.6160
42
-0.0219
0
VERTEX
8
0
10
4.5265
20
4.9189
42
-0.0245
0
VERTEX
8
0
10
4.4923
20
5.0849
42
0.0150
0
VERTEX
8
0
10
4.5932
20
5.0687
42
0.0854
0
VERTEX
8
0
10
4.9335
20
5.0784
42
0.0350
0
VERTEX
8
0
10
5.0849
20
4.9254
0
SEQEND
8
0
0
POLYLINE
8
Layer 1
66
1
0
VERTEX
8
0
10
4.7251
20
5.4008
42
-0.0701
0
VERTEX
8
0
10
4.6095
20
5.7639
42
0.1035
0
VERTEX
8
0
10
4.4890
20
5.4204
42
0.0443
0
VERTEX
8
0
10
4.7251
20
5.4008
0
SEQEND
8
0
0
POLYLINE
8
Layer 1
66
1
0
VERTEX
8
0
10
4.1617
20
5.5066
42
-0.0963
0
VERTEX
8
0
10
4.2821
20
5.7890
42
-0.1212
0
VERTEX
8
0
10
4.5053
20
5.9984
0
VERTEX
8
0
10
4.5085
20
6.0000
0
VERTEX
8
0
10
4.5053
20
6.0016
42
-0.1116
0
VERTEX
8
0
10
4.2821
20
6.2110
42
-0.0903
0
VERTEX
8
0
10
4.1617
20
6.4934
42
0.0215
0
VERTEX
8
0
10
3.5951
20
6.2654
42
0.0881
0
VERTEX
8
0
10
3.4844
20
6.0000
42
0.1026
0
VERTEX
8
0
10
3.5951
20
5.7346
42
0.0305
0
VERTEX
8
0
10
4.1617
20
5.5066
0
SEQEND
8
0
0
POLYLINE
8
Layer 1
66
1
0
VERTEX
8
0
10
4.1455
20
5.1777
42
-0.0141
0
VERTEX
8
0
10
3.5072
20
5.4204
42
0.0277
0
VERTEX
8
0
10
3.6228
20
5.0589
42
0.0104
0
VERTEX
8
0
10
4.2350
20
4.7723
42
-0.0422
0
VERTEX
8
0
10
4.1487
20
5.1484
42
0.0043
0
VERTEX
8
0
10
4.1455
20
5.1777
0
SEQEND
8
0
0
POLYLINE
8
Layer 1
66
1
0
VERTEX
8
0
10
3.8198
20
4.5948
0
VERTEX
8
0
10
4.3750
20
4.3685
42
0.0081
0
VERTEX
8
0
10
4.6014
20
3.8133
42
-0.0062
0
VERTEX
8
0
10
4.0722
20
4.0640
0
VERTEX
8
0
10
3.8198
20
4.5948
0
SEQEND
8
0
0
POLYLINE
8
Layer 1
66
1
0
VERTEX
8
0
10
3.5967
20
4.2806
42
-0.0042
0
VERTEX
8
0
10
3.3997
20
4.7593
42
0.0299
0
VERTEX
8
0
10
2.9867
20
4.8861
42
0.0673
0
VERTEX
8
0
10
2.5596
20
4.9449
42
0.1034
0
VERTEX
8
0
10
2.2518
20
4.8944
42
0.0978
0
VERTEX
8
0
10
2.0350
20
4.7509
42
0.0629
0
VERTEX
8
0
10
1.8782
20
4.5421
42
0.0637
0
VERTEX
8
0
10
1.6966
20
4.0526
42
0.0069
0
VERTEX
8
0
10
1.5224
20
3.1750
42
0.0194
0
VERTEX
8
0
10
1.7569
20
2.8347
42
-0.0338
0
VERTEX
8
0
10
1.8334
20
3.6358
42
-0.0350
0
VERTEX
8
0
10
1.8934
20
3.8968
42
-0.0504
0
VERTEX
8
0
10
1.9936
20
4.1449
42
-0.0822
0
VERTEX
8
0
10
2.1494
20
4.3617
42
-0.1210
0
VERTEX
8
0
10
2.3740
20
4.5037
42
-0.0837
0
VERTEX
8
0
10
2.6869
20
4.5392
42
-0.0419
0
VERTEX
8
0
10
2.9992
20
4.4893
42
-0.0326
0
VERTEX
8
0
10
3.5967
20
4.2806
0
SEQEND
8
0
0
POLYLINE
8
Layer 1
66
1
0
VERTEX
8
0
10
3.4151
20
3.8825
42
0.0664
0
VERTEX
8
0
10
3.0334
20
3.9240
42
0.0944
0
VERTEX
8
0
10
2.7566
20
3.8735
42
0.0976
0
VERTEX
8
0
10
2.5394
20
3.7301
42
0.0627
0
VERTEX
8
0
10
2.3822
20
3.5213
42
0.0643
0
VERTEX
8
0
10
2.1997
20
3.0317
42
0.0089
0
VERTEX
8
0
10
2.0809
20
2.4423
42
0.0242
0
VERTEX
8
0
10
2.4488
20
2.0744
42
0.0142
0
VERTEX
8
0
10
3.0383
20
2.1932
42
0.0315
0
VERTEX
8
0
10
3.2896
20
2.2669
42
0.0460
0
VERTEX
8
0
10
3.5278
20
2.3756
42
0.0736
0
VERTEX
8
0
10
3.7366
20
2.5329
42
0.1073
0
VERTEX
8
0
10
3.8801
20
2.7501
42
0.0746
0
VERTEX
8
0
10
3.9300
20
3.0072
42
0.0425
0
VERTEX
8
0
10
3.9143
20
3.2695
42
0.0373
0
VERTEX
8
0
10
3.7856
20
3.7791
42
0.0311
0
VERTEX
8
0
10
3.4151
20
3.8825
0
SEQEND
8
0
0
POLYLINE
8
Layer 1
66
1
0
VERTEX
8
0
10
4.2871
20
3.5902
0
VERTEX
8
0
10
4.7658
20
3.3932
42
-0.0350
0
VERTEX
8
0
10
4.9255
20
2.8268
42
-0.0427
0
VERTEX
8
0
10
4.9519
20
2.5339
42
-0.0800
0
VERTEX
8
0
10
4.9009
20
2.2453
42
-0.1076
0
VERTEX
8
0
10
4.7574
20
2.0284
42
-0.0739
0
VERTEX
8
0
10
4.5486
20
1.8717
42
-0.0460
0
VERTEX
8
0
10
4.3104
20
1.7635
42
-0.0311
0
VERTEX
8
0
10
4.0592
20
1.6901
42
-0.0157
0
VERTEX
8
0
10
3.1815
20
1.5159
42
-0.0194
0
VERTEX
8
0
10
2.8412
20
1.7503
42
0.0338
0
VERTEX
8
0
10
3.6423
20
1.8269
42
0.0719
0
VERTEX
8
0
10
4.1515
20
1.9871
42
0.0694
0
VERTEX
8
0
10
4.3683
20
2.1430
42
0.1103
0
VERTEX
8
0
10
4.5102
20
2.3674
42
0.1043
0
VERTEX
8
0
10
4.5456
20
2.6804
42
0.0522
0
VERTEX
8
0
10
4.4957
20
2.9927
42
0.0278
0
VERTEX
8
0
10
4.4030
20
3.2955
42
0.0159
0
VERTEX
8
0
10
4.2871
20
3.5902
0
SEQEND
8
0
0
POLYLINE
8
Layer 1
66
1
0
VERTEX
8
0
10
5.0654
20
3.6163
42
0.0276
0
VERTEX
8
0
10
5.4269
20
3.5007
42
-0.0258
0
VERTEX
8
0
10
5.1843
20
4.1373
42
0.0098
0
VERTEX
8
0
10
5.1550
20
4.1422
42
-0.0334
0
VERTEX
8
0
10
4.7805
20
4.2285
42
0.0037
0
VERTEX
8
0
10
5.0654
20
3.6163
0
SEQEND
8
0
0
POLYLINE
8
Layer 1
66
1
0
VERTEX
8
0
10
3.2239
20
5.2445
42
-0.0326
0
VERTEX
8
0
10
3.1408
20
5.5701
0
VERTEX
8
0
10
3.0399
20
5.6092
42
0.0294
0
VERTEX
8
0
10
2.5319
20
5.7851
42
-0.0433
0
VERTEX
8
0
10
1.9607
20
5.5831
42
-0.0457
0
VERTEX
8
0
10
1.6626
20
5.5292
42
-0.0891
0
VERTEX
8
0
10
1.3612
20
5.5457
42
0.0522
0
VERTEX
8
0
10
1.2219
20
5.2737
42
0.0330
0
VERTEX
8
0
10
1.1332
20
4.9807
42
0.0111
0
VERTEX
8
0
10
0.9916
20
4.2806
42
0.0321
0
VERTEX
8
0
10
1.2521
20
3.6554
42
-0.0435
0
VERTEX
8
0
10
1.3286
20
4.6567
42
-0.0352
0
VERTEX
8
0
10
1.3886
20
4.9177
42
-0.0505
0
VERTEX
8
0
10
1.4889
20
5.1658
42
-0.0823
0
VERTEX
8
0
10
1.6447
20
5.3826
42
-0.1210
0
VERTEX
8
0
10
1.8692
20
5.5246
42
-0.0886
0
VERTEX
8
0
10
2.2180
20
5.5577
42
-0.0414
0
VERTEX
8
0
10
2.5640
20
5.4921
42
-0.0298
0
VERTEX
8
0
10
3.2239
20
5.2445
0
SEQEND
8
0
0
POLYLINE
8
Layer 1
66
1
0
VERTEX
8
0
10
3.0399
20
6.3908
42
0.0066
0
VERTEX
8
0
10
3.1408
20
6.4299
42
-0.0256
0
VERTEX
8
0
10
3.2239
20
6.7555
42
-0.0144
0
VERTEX
8
0
10
2.8984
20
6.6198
42
-0.0265
0
VERTEX
8
0
10
2.5640
20
6.5079
42
-0.0528
0
VERTEX
8
0
10
2.2180
20
6.4423
42
-0.1138
0
VERTEX
8
0
10
1.8692
20
6.4754
42
-0.1104
0
VERTEX
8
0
10
1.6447
20
6.6173
42
-0.0694
0
VERTEX
8
0
10
1.4889
20
6.8341
42
-0.0719
0
VERTEX
8
0
10
1.3286
20
7.3433
42
-0.0435
0
VERTEX
8
0
10
1.2521
20
8.3447
42
0.0321
0
VERTEX
8
0
10
0.9916
20
7.7194
42
0.0138
0
VERTEX
8
0
10
1.1332
20
7.0193
42
0.0376
0
VERTEX
8
0
10
1.2219
20
6.7263
42
0.0621
0
VERTEX
8
0
10
1.3612
20
6.4543
42
-0.0714
0
VERTEX
8
0
10
1.6626
20
6.4709
42
-0.0371
0
VERTEX
8
0
10
1.9607
20
6.4169
42
-0.0308
0
VERTEX
8
0
10
2.5319
20
6.2149
42
0.0205
0
VERTEX
8
0
10
3.0399
20
6.3908
0
SEQEND
8
0
0
POLYLINE
8
Layer 1
66
1
0
VERTEX
8
0
10
3.5072
20
6.5796
42
-0.0254
0
VERTEX
8
0
10
4.1455
20
6.8223
42
-0.0114
0
VERTEX
8
0
10
4.1487
20
6.8516
42
-0.0323
0
VERTEX
8
0
10
4.2350
20
7.2277
42
0.0030
0
VERTEX
8
0
10
3.6228
20
6.9411
42
0.0277
0
VERTEX
8
0
10
3.5072
20
6.5796
0
SEQEND
8
0
0
POLYLINE
8
Layer 1
66
1
0
VERTEX
8
0
10
3.3997
20
7.2407
0
VERTEX
8
0
10
3.5967
20
7.7194
42
-0.0159
0
VERTEX
8
0
10
3.3020
20
7.6035
42
-0.0277
0
VERTEX
8
0
10
2.9992
20
7.5107
42
-0.0523
0
VERTEX
8
0
10
2.6869
20
7.4608
42
-0.1046
0
VERTEX
8
0
10
2.3740
20
7.4963
42
-0.1105
0
VERTEX
8
0
10
2.1495
20
7.6382
42
-0.0693
0
VERTEX
8
0
10
1.9936
20
7.8550
42
-0.0719
0
VERTEX
8
0
10
1.8334
20
8.3642
42
-0.0338
0
VERTEX
8
0
10
1.7569
20
9.1653
42
0.0194
0
VERTEX
8
0
10
1.5224
20
8.8250
42
0.0158
0
VERTEX
8
0
10
1.6966
20
7.9474
42
0.0311
0
VERTEX
8
0
10
1.7700
20
7.6961
42
0.0460
0
VERTEX
8
0
10
1.8782
20
7.4579
42
0.0738
0
VERTEX
8
0
10
2.0349
20
7.2491
42
0.1076
0
VERTEX
8
0
10
2.2518
20
7.1056
42
0.0834
0
VERTEX
8
0
10
2.5596
20
7.0551
42
0.0507
0
VERTEX
8
0
10
2.9867
20
7.1139
42
0.0234
0
VERTEX
8
0
10
3.3997
20
7.2407
0
SEQEND
8
0
0
POLYLINE
8
Layer 1
66
1
0
VERTEX
8
0
10
3.8198
20
7.4052
42
-0.0081
0
VERTEX
8
0
10
4.3750
20
7.6315
0
VERTEX
8
0
10
4.6014
20
8.1867
0
VERTEX
8
0
10
4.0722
20
7.9360
42
0.0064
0
VERTEX
8
0
10
3.8198
20
7.4052
0
SEQEND
8
0
0
POLYLINE
8
Layer 1
66
1
0
VERTEX
8
0
10
4.5265
20
7.0811
42
0.0317
0
VERTEX
8
0
10
4.4923
20
6.9151
42
-0.0090
0
VERTEX
8
0
10
4.5932
20
6.9313
42
-0.0868
0
VERTEX
8
0
10
4.9335
20
6.9216
42
-0.0403
0
VERTEX
8
0
10
5.0849
20
7.0746
42
-0.0856
0
VERTEX
8
0
10
5.0752
20
7.4133
42
-0.0151
0
VERTEX
8
0
10
5.0914
20
7.5143
42
0.0225
0
VERTEX
8
0
10
4.9270
20
7.4801
42
0.0209
0
VERTEX
8
0
10
4.6225
20
7.3840
42
0.0267
0
VERTEX
8
0
10
4.5265
20
7.0811
0
SEQEND
8
0
0
POLYLINE
8
Layer 1
66
1
0
VERTEX
8
0
10
4.4890
20
6.5796
42
0.1237
0
VERTEX
8
0
10
4.6095
20
6.2361
42
-0.0655
0
VERTEX
8
0
10
4.7251
20
6.5992
42
0.0428
0
VERTEX
8
0
10
4.4890
20
6.5796
0
SEQEND
8
0
0
POLYLINE
8
Layer 1
66
1
0
VERTEX
8
0
10
5.4073
20
7.2814
42
-0.0700
0
VERTEX
8
0
10
5.7704
20
7.3970
42
0.1009
0
VERTEX
8
0
10
5.4269
20
7.5159
42
0.0445
0
VERTEX
8
0
10
5.4073
20
7.2814
0
SEQEND
8
0
0
POLYLINE
8
Layer 1
66
1
0
VERTEX
8
0
10
5.5132
20
7.8448
42
-0.0942
0
VERTEX
8
0
10
5.7912
20
7.7276
42
-0.1182
0
VERTEX
8
0
10
6.0000
20
7.5110
42
-0.1089
0
VERTEX
8
0
10
6.2088
20
7.7276
42
-0.0889
0
VERTEX
8
0
10
6.4868
20
7.8448
42
0.0214
0
VERTEX
8
0
10
6.2589
20
8.4114
42
0.0868
0
VERTEX
8
0
10
6.0000
20
8.5205
42
0.1000
0
VERTEX
8
0
10
5.7411
20
8.4114
42
0.0304
0
VERTEX
8
0
10
5.5132
20
7.8448
0
SEQEND
8
0
0
POLYLINE
8
Layer 1
66
1
0
VERTEX
8
0
10
5.1843
20
7.8627
42
-0.0134
0
VERTEX
8
0
10
5.4269
20
8.4993
42
0.0276
0
VERTEX
8
0
10
5.0654
20
8.3837
42
0.0088
0
VERTEX
8
0
10
4.7805
20
7.7715
42
-0.0421
0
VERTEX
8
0
10
5.1550
20
7.8578
42
-0.0217
0
VERTEX
8
0
10
5.1843
20
7.8627
0
SEQEND
8
0
0
POLYLINE
8
Layer 1
66
1
0
VERTEX
8
0
10
4.7658
20
8.6068
42
0.0497
0
VERTEX
8
0
10
4.9255
20
9.1732
42
0.0524
0
VERTEX
8
0
10
4.9519
20
9.4661
42
0.0973
0
VERTEX
8
0
10
4.9009
20
9.7547
42
0.0978
0
VERTEX
8
0
10
4.7575
20
9.9716
42
0.0629
0
VERTEX
8
0
10
4.5486
20
10.1283
42
0.0637
0
VERTEX
8
0
10
4.0592
20
10.3099
42
0.0069
0
VERTEX
8
0
10
3.1815
20
10.4841
42
0.0194
0
VERTEX
8
0
10
2.8412
20
10.2497
42
-0.0338
0
VERTEX
8
0
10
3.6423
20
10.1731
42
-0.0350
0
VERTEX
8
0
10
3.9033
20
10.1131
42
-0.0504
0
VERTEX
8
0
10
4.1514
20
10.0129
42
-0.0822
0
VERTEX
8
0
10
4.3682
20
9.8571
42
-0.1210
0
VERTEX
8
0
10
4.5102
20
9.6326
42
-0.0834
0
VERTEX
8
0
10
4.5456
20
9.3197
42
-0.0418
0
VERTEX
8
0
10
4.4957
20
9.0073
42
-0.0327
0
VERTEX
8
0
10
4.2871
20
8.4098
42
-0.0042
0
VERTEX
8
0
10
4.7658
20
8.6068
0
SEQEND
8
0
0
POLYLINE
8
Layer 1
66
1
0
VERTEX
8
0
10
5.2510
20
8.7826
42
-0.0330
0
VERTEX
8
0
10
5.5767
20
8.8657
42
-0.0032
0
VERTEX
8
0
10
5.6157
20
8.9666
42
0.0292
0
VERTEX
8
0
10
5.7916
20
9.4746
42
-0.0433
0
VERTEX
8
0
10
5.5896
20
10.0458
42
-0.0458
0
VERTEX
8
0
10
5.5356
20
10.3439
42
-0.0893
0
VERTEX
8
0
10
5.5522
20
10.6453
42
0.0522
0
VERTEX
8
0
10
5.2802
20
10.7846
42
0.0330
0
VERTEX
8
0
10
4.9873
20
10.8733
42
0.0111
0
VERTEX
8
0
10
4.2871
20
11.0149
42
0.0321
0
VERTEX
8
0
10
3.6619
20
10.7544
42
-0.0435
0
VERTEX
8
0
10
4.6632
20
10.6779
42
-0.0351
0
VERTEX
8
0
10
4.9242
20
10.6179
42
-0.0504
0
VERTEX
8
0
10
5.1723
20
10.5177
42
-0.0823
0
VERTEX
8
0
10
5.3892
20
10.3619
42
-0.1211
0
VERTEX
8
0
10
5.5311
20
10.1373
42
-0.0884
0
VERTEX
8
0
10
5.5641
20
9.7886
42
-0.0415
0
VERTEX
8
0
10
5.4986
20
9.4425
42
-0.0299
0
VERTEX
8
0
10
5.2510
20
8.7826
0
SEQEND
8
0
0
POLYLINE
8
Layer 1
66
1
0
VERTEX
8
0
10
6.3843
20
8.9666
42
-0.0292
0
VERTEX
8
0
10
6.2084
20
9.4746
42
0.0433
0
VERTEX
8
0
10
6.4104
20
10.0458
42
0.0458
0
VERTEX
8
0
10
6.4644
20
10.3439
42
0.0891
0
VERTEX
8
0
10
6.4478
20
10.6453
42
-0.0522
0
VERTEX
8
0
10
6.7198
20
10.7846
42
-0.0330
0
VERTEX
8
0
10
7.0127
20
10.8733
42
-0.0110
0
VERTEX
8
0
10
7.7129
20
11.0149
42
-0.0321
0
VERTEX
8
0
10
8.3381
20
10.7544
42
0.0435
0
VERTEX
8
0
10
7.3368
20
10.6779
42
0.0350
0
VERTEX
8
0
10
7.0758
20
10.6179
42
0.0505
0
VERTEX
8
0
10
6.8277
20
10.5177
42
0.0822
0
VERTEX
8
0
10
6.6108
20
10.3619
42
0.1210
0
VERTEX
8
0
10
6.4689
20
10.1373
42
0.0884
0
VERTEX
8
0
10
6.4359
20
9.7886
42
0.0414
0
VERTEX
8
0
10
6.5014
20
9.4425
42
0.0299
0
VERTEX
8
0
10
6.7490
20
8.7826
42
0.0330
0
VERTEX
8
0
10
6.4233
20
8.8657
42
0.0032
0
VERTEX
8
0
10
6.3843
20
8.9666
0
SEQEND
8
0
0
POLYLINE
8
Layer 1
66
1
0
VERTEX
8
0
10
6.5731
20
8.4993
42
-0.0134
0
VERTEX
8
0
10
6.8157
20
7.8627
42
-0.0217
0
VERTEX
8
0
10
6.8450
20
7.8578
42
-0.0421
0
VERTEX
8
0
10
7.2195
20
7.7715
42
0.0088
0
VERTEX
8
0
10
6.9346
20
8.3837
42
0.0276
0
VERTEX
8
0
10
6.5731
20
8.4993
0
SEQEND
8
0
0
POLYLINE
8
Layer 1
66
1
0
VERTEX
8
0
10
7.2342
20
8.6068
42
-0.0497
0
VERTEX
8
0
10
7.0745
20
9.1732
42
-0.0524
0
VERTEX
8
0
10
7.0481
20
9.4661
42
-0.0973
0
VERTEX
8
0
10
7.0991
20
9.7547
42
-0.0978
0
VERTEX
8
0
10
7.2425
20
9.9716
42
-0.0629
0
VERTEX
8
0
10
7.4514
20
10.1283
42
-0.0637
0
VERTEX
8
0
10
7.9408
20
10.3099
42
-0.0069
0
VERTEX
8
0
10
8.8185
20
10.4841
42
-0.0194
0
VERTEX
8
0
10
9.1588
20
10.2497
42
0.0338
0
VERTEX
8
0
10
8.3577
20
10.1731
42
0.0350
0
VERTEX
8
0
10
8.0967
20
10.1131
42
0.0504
0
VERTEX
8
0
10
7.8486
20
10.0129
42
0.0822
0
VERTEX
8
0
10
7.6318
20
9.8571
42
0.1210
0
VERTEX
8
0
10
7.4898
20
9.6326
42
0.0834
0
VERTEX
8
0
10
7.4544
20
9.3197
42
0.0418
0
VERTEX
8
0
10
7.5043
20
9.0073
42
0.0327
0
VERTEX
8
0
10
7.7129
20
8.4098
42
0.0042
0
VERTEX
8
0
10
7.2342
20
8.6068
0
SEQEND
8
0
0
POLYLINE
8
Layer 1
66
1
0
VERTEX
8
0
10
7.3986
20
8.1867
0
VERTEX
8
0
10
7.6250
20
7.6315
42
-0.0081
0
VERTEX
8
0
10
8.1802
20
7.4052
42
0.0064
0
VERTEX
8
0
10
7.9278
20
7.9360
0
VERTEX
8
0
10
7.3986
20
8.1867
0
SEQEND
8
0
0
POLYLINE
8
Layer 1
66
1
0
VERTEX
8
0
10
7.0730
20
7.4801
42
-0.0209
0
VERTEX
8
0
10
7.3775
20
7.3840
42
-0.0267
0
VERTEX
8
0
10
7.4735
20
7.0811
42
-0.0317
0
VERTEX
8
0
10
7.5077
20
6.9151
42
0.0092
0
VERTEX
8
0
10
7.4068
20
6.9313
42
0.0868
0
VERTEX
8
0
10
7.0665
20
6.9216
42
0.0403
0
VERTEX
8
0
10
6.9151
20
7.0746
42
0.0856
0
VERTEX
8
0
10
6.9248
20
7.4133
42
0.0151
0
VERTEX
8
0
10
6.9086
20
7.5143
42
-0.0225
0
VERTEX
8
0
10
7.0730
20
7.4801
0
SEQEND
8
0
0
POLYLINE
8
Layer 1
66
1
0
VERTEX
8
0
10
6.5731
20
7.5159
42
0.1009
0
VERTEX
8
0
10
6.2296
20
7.3970
42
-0.0700
0
VERTEX
8
0
10
6.5927
20
7.2814
42
0.0445
0
VERTEX
8
0
10
6.5731
20
7.5159
0
SEQEND
8
0
0
POLYLINE
8
Layer 1
66
1
0
VERTEX
8
0
10
7.2749
20
6.5992
42
-0.0655
0
VERTEX
8
0
10
7.3905
20
6.2361
42
0.1237
0
VERTEX
8
0
10
7.5110
20
6.5796
42
0.0428
0
VERTEX
8
0
10
7.2749
20
6.5992
0
SEQEND
8
0
0
POLYLINE
8
Layer 1
66
1
0
VERTEX
8
0
10
7.8383
20
6.4934
42
-0.0903
0
VERTEX
8
0
10
7.7179
20
6.2110
42
-0.1116
0
VERTEX
8
0
10
7.4947
20
6.0016
0
VERTEX
8
0
10
7.4915
20
6.0000
0
VERTEX
8
0
10
7.4947
20
5.9984
42
-0.1212
0
VERTEX
8
0
10
7.7179
20
5.7890
42
-0.0963
0
VERTEX
8
0
10
7.8383
20
5.5066
42
0.0304
0
VERTEX
8
0
10
8.4049
20
5.7346
42
0.1026
0
VERTEX
8
0
10
8.5156
20
6.0000
42
0.0881
0
VERTEX
8
0
10
8.4049
20
6.2654
42
0.0215
0
VERTEX
8
0
10
7.8383
20
6.4934
0
SEQEND
8
0
0
POLYLINE
8
Layer 1
66
1
0
VERTEX
8
0
10
7.8545
20
6.8223
42
0.0114
0
VERTEX
8
0
10
7.8513
20
6.8516
42
0.0323
0
VERTEX
8
0
10
7.7650
20
7.2277
42
-0.0030
0
VERTEX
8
0
10
8.3772
20
6.9411
42
-0.0277
0
VERTEX
8
0
10
8.4928
20
6.5796
42
0.0254
0
VERTEX
8
0
10
7.8545
20
6.8223
0
SEQEND
8
0
0
POLYLINE
8
Layer 1
66
1
0
VERTEX
8
0
10
8.6003
20
7.2407
0
VERTEX
8
0
10
8.4033
20
7.7194
42
0.0159
0
VERTEX
8
0
10
8.6980
20
7.6035
42
0.0277
0
VERTEX
8
0
10
9.0008
20
7.5107
42
0.0523
0
VERTEX
8
0
10
9.3131
20
7.4608
42
0.1046
0
VERTEX
8
0
10
9.6260
20
7.4963
42
0.1105
0
VERTEX
8
0
10
9.8505
20
7.6382
42
0.0693
0
VERTEX
8
0
10
10.0064
20
7.8550
42
0.0719
0
VERTEX
8
0
10
10.1666
20
8.3642
42
0.0338
0
VERTEX
8
0
10
10.2431
20
9.1653
42
-0.0194
0
VERTEX
8
0
10
10.4776
20
8.8250
42
-0.0158
0
VERTEX
8
0
10
10.3034
20
7.9474
42
-0.0311
0
VERTEX
8
0
10
10.2300
20
7.6961
42
-0.0460
0
VERTEX
8
0
10
10.1218
20
7.4579
42
-0.0738
0
VERTEX
8
0
10
9.9651
20
7.2491
42
-0.1076
0
VERTEX
8
0
10
9.7482
20
7.1056
42
-0.0834
0
VERTEX
8
0
10
9.4404
20
7.0551
42
-0.0507
0
VERTEX
8
0
10
9.0133
20
7.1139
42
-0.0234
0
VERTEX
8
0
10
8.6003
20
7.2407
0
SEQEND
8
0
0
POLYLINE
8
Layer 1
66
1
0
VERTEX
8
0
10
8.7761
20
6.7555
42
0.0144
0
VERTEX
8
0
10
9.1016
20
6.6198
42
0.0265
0
VERTEX
8
0
10
9.4360
20
6.5079
42
0.0528
0
VERTEX
8
0
10
9.7820
20
6.4423
42
0.1138
0
VERTEX
8
0
10
10.1308
20
6.4754
42
0.1104
0
VERTEX
8
0
10
10.3553
20
6.6173
42
0.0694
0
VERTEX
8
0
10
10.5111
20
6.8341
42
0.0719
0
VERTEX
8
0
10
10.6714
20
7.3433
42
0.0435
0
VERTEX
8
0
10
10.7479
20
8.3447
42
-0.0321
0
VERTEX
8
0
10
11.0084
20
7.7194
42
-0.0138
0
VERTEX
8
0
10
10.8668
20
7.0193
42
-0.0376
0
VERTEX
8
0
10
10.7781
20
6.7263
42
-0.0621
0
VERTEX
8
0
10
10.6388
20
6.4543
42
0.0714
0
VERTEX
8
0
10
10.3374
20
6.4709
42
0.0371
0
VERTEX
8
0
10
10.0393
20
6.4169
42
0.0308
0
VERTEX
8
0
10
9.4681
20
6.2149
42
-0.0205
0
VERTEX
8
0
10
8.9601
20
6.3908
42
-0.0066
0
VERTEX
8
0
10
8.8592
20
6.4299
42
0.0256
0
VERTEX
8
0
10
8.7761
20
6.7555
0
SEQEND
8
0
0
POLYLINE
8
Layer 1
66
1
0
VERTEX
8
0
10
8.9601
20
5.6092
42
-0.0294
0
VERTEX
8
0
10
9.4681
20
5.7851
42
0.0433
0
VERTEX
8
0
10
10.0393
20
5.5831
42
0.0457
0
VERTEX
8
0
10
10.3374
20
5.5292
42
0.0891
0
VERTEX
8
0
10
10.6388
20
5.5457
42
-0.0522
0
VERTEX
8
0
10
10.7781
20
5.2737
42
-0.0330
0
VERTEX
8
0
10
10.8668
20
4.9807
42
-0.0111
0
VERTEX
8
0
10
11.0084
20
4.2806
42
-0.0321
0
VERTEX
8
0
10
10.7479
20
3.6554
42
0.0435
0
VERTEX
8
0
10
10.6714
20
4.6567
42
0.0352
0
VERTEX
8
0
10
10.6114
20
4.9177
42
0.0505
0
VERTEX
8
0
10
10.5111
20
5.1658
42
0.0823
0
VERTEX
8
0
10
10.3553
20
5.3826
42
0.1210
0
VERTEX
8
0
10
10.1308
20
5.5246
42
0.0885
0
VERTEX
8
0
10
9.7820
20
5.5577
42
0.0414
0
VERTEX
8
0
10
9.4360
20
5.4921
42
0.0298
0
VERTEX
8
0
10
8.7761
20
5.2445
42
0.0326
0
VERTEX
8
0
10
8.8592
20
5.5701
0
VERTEX
8
0
10
8.9601
20
5.6092
0
SEQEND
8
0
0
POLYLINE
8
Layer 1
66
1
0
VERTEX
8
0
10
8.4928
20
5.4204
42
-0.0141
0
VERTEX
8
0
10
7.8545
20
5.1777
42
0.0043
0
VERTEX
8
0
10
7.8513
20
5.1484
42
-0.0422
0
VERTEX
8
0
10
7.7650
20
4.7723
42
0.0104
0
VERTEX
8
0
10
8.3772
20
5.0589
42
0.0277
0
VERTEX
8
0
10
8.4928
20
5.4204
0
SEQEND
8
0
0
POLYLINE
8
Layer 1
66
1
0
VERTEX
8
0
10
8.6003
20
4.7593
42
-0.0299
0
VERTEX
8
0
10
9.0133
20
4.8861
42
-0.0673
0
VERTEX
8
0
10
9.4404
20
4.9449
42
-0.1034
0
VERTEX
8
0
10
9.7482
20
4.8944
42
-0.0978
0
VERTEX
8
0
10
9.9650
20
4.7509
42
-0.0629
0
VERTEX
8
0
10
10.1218
20
4.5421
42
-0.0637
0
VERTEX
8
0
10
10.3034
20
4.0526
42
-0.0069
0
VERTEX
8
0
10
10.4776
20
3.1750
42
-0.0194
0
VERTEX
8
0
10
10.2431
20
2.8347
42
0.0338
0
VERTEX
8
0
10
10.1666
20
3.6358
42
0.0350
0
VERTEX
8
0
10
10.1066
20
3.8968
42
0.0504
0
VERTEX
8
0
10
10.0064
20
4.1449
42
0.0822
0
VERTEX
8
0
10
9.8506
20
4.3617
42
0.1210
0
VERTEX
8
0
10
9.6260
20
4.5037
42
0.0837
0
VERTEX
8
0
10
9.3131
20
4.5392
42
0.0419
0
VERTEX
8
0
10
9.0008
20
4.4893
42
0.0326
0
VERTEX
8
0
10
8.4033
20
4.2806
42
0.0042
0
VERTEX
8
0
10
8.6003
20
4.7593
0
SEQEND
8
0
0
POLYLINE
8
Layer 1
66
1
0
VERTEX
8
0
10
7.5110
20
5.4204
42
-0.0443
0
VERTEX
8
0
10
7.2749
20
5.4008
42
0.0701
0
VERTEX
8
0
10
7.3905
20
5.7639
42
-0.1035
0
VERTEX
8
0
10
7.5110
20
5.4204
0
SEQEND
8
0
0
POLYLINE
8
Layer 1
66
1
0
VERTEX
8
0
10
8.2144
20
8.2209
42
-0.0515
0
VERTEX
8
0
10
8.0857
20
8.7305
42
-0.0513
0
VERTEX
8
0
10
8.0700
20
8.9928
42
-0.0885
0
VERTEX
8
0
10
8.1199
20
9.2499
42
-0.0975
0
VERTEX
8
0
10
8.2634
20
9.4671
42
-0.0627
0
VERTEX
8
0
10
8.4721
20
9.6243
42
-0.0644
0
VERTEX
8
0
10
8.9617
20
9.8068
42
-0.0089
0
VERTEX
8
0
10
9.5512
20
9.9256
42
-0.0242
0
VERTEX
8
0
10
9.9191
20
9.5577
42
-0.0143
0
VERTEX
8
0
10
9.8003
20
8.9683
42
-0.0316
0
VERTEX
8
0
10
9.7266
20
8.7169
42
-0.0460
0
VERTEX
8
0
10
9.6178
20
8.4787
42
-0.0736
0
VERTEX
8
0
10
9.4606
20
8.2700
42
-0.1073
0
VERTEX
8
0
10
9.2434
20
8.1265
42
-0.0781
0
VERTEX
8
0
10
8.9666
20
8.0760
42
-0.0510
0
VERTEX
8
0
10
8.5849
20
8.1175
42
-0.0249
0
VERTEX
8
0
10
8.2144
20
8.2209
0
SEQEND
8
0
0
POLYLINE
8
Layer 1
66
1
0
VERTEX
8
0
10
6.5943
20
11.2673
42
0.0277
0
VERTEX
8
0
10
6.0000
20
11.3031
42
0.0277
0
VERTEX
8
0
10
5.4057
20
11.2673
42
-0.0113
0
VERTEX
8
0
10
5.5913
20
11.2412
42
-0.0628
0
VERTEX
8
0
10
6.0000
20
11.1273
42
-0.0553
0
VERTEX
8
0
10
6.4087
20
11.2412
42
-0.0055
0
VERTEX
8
0
10
6.5943
20
11.2673
0
SEQEND
8
0
0
POLYLINE
8
Layer 1
66
1
0
VERTEX
8
0
10
3.7366
20
9.4671
42
0.0627
0
VERTEX
8
0
10
3.5279
20
9.6243
42
0.0644
0
VERTEX
8
0
10
3.0383
20
9.8068
42
0.0089
0
VERTEX
8
0
10
2.4488
20
9.9256
42
0.0242
0
VERTEX
8
0
10
2.0809
20
9.5577
42
0.0142
0
VERTEX
8
0
10
2.1997
20
8.9683
42
0.0315
0
VERTEX
8
0
10
2.2734
20
8.7169
42
0.0461
0
VERTEX
8
0
10
2.3822
20
8.4787
42
0.0736
0
VERTEX
8
0
10
2.5394
20
8.2700
42
0.1073
0
VERTEX
8
0
10
2.7566
20
8.1265
42
0.0781
0
VERTEX
8
0
10
3.0334
20
8.0760
42
0.0510
0
VERTEX
8
0
10
3.4151
20
8.1175
42
0.0249
0
VERTEX
8
0
10
3.7856
20
8.2209
42
0.0515
0
VERTEX
8
0
10
3.9143
20
8.7305
42
0.0513
0
VERTEX
8
0
10
3.9300
20
8.9928
42
0.0885
0
VERTEX
8
0
10
3.8801
20
9.2499
42
0.0975
0
VERTEX
8
0
10
3.7366
20
9.4671
0
SEQEND
8
0
0
POLYLINE
8
Layer 1
66
1
0
VERTEX
8
0
10
0.7392
20
6.5959
42
0.0056
0
VERTEX
8
0
10
0.7653
20
6.4152
42
0.0565
0
VERTEX
8
0
10
0.8825
20
6.0000
42
0.0635
0
VERTEX
8
0
10
0.7653
20
5.5848
42
0.0078
0
VERTEX
8
0
10
0.7392
20
5.4041
42
-0.0260
0
VERTEX
8
0
10
0.7034
20
6.0000
42
-0.0294
0
VERTEX
8
0
10
0.7392
20
6.5959
0
SEQEND
8
0
0
ENDSEC
0
EOF
