0
SECTION
2
HEADER
9
$ACADVER
1
AC1009
9
$ANGDIR
70
0
9
$EXTMIN
10
0
20
0
9
$EXTMAX
10
24.0000
20
18.0000
0
ENDSEC
0
SECTION
2
ENTITIES
0
POLYLINE
8
Layer 1
66
1
0
VERTEX
8
0
10
8.8799
20
5.7793
42
0.1676
0
VERTEX
8
0
10
8.8262
20
5.7569
42
0.0670
0
VERTEX
8
0
10
8.7899
20
5.7100
42
-0.0113
0
VERTEX
8
0
10
8.7631
20
5.6653
42
-0.0833
0
VERTEX
8
0
10
8.7325
20
5.6234
42
-0.0949
0
VERTEX
8
0
10
8.6577
20
5.5798
42
0.0969
0
VERTEX
8
0
10
8.6265
20
5.5637
42
0.2536
0
VERTEX
8
0
10
8.6102
20
5.5338
42
0.2822
0
VERTEX
8
0
10
8.6297
20
5.4993
42
0.0932
0
VERTEX
8
0
10
8.6701
20
5.4902
0
VERTEX
8
0
10
8.6726
20
5.4902
42
-0.0239
0
VERTEX
8
0
10
8.7617
20
5.4759
42
0.0763
0
VERTEX
8
0
10
8.8349
20
5.4645
42
0.2342
0
VERTEX
8
0
10
8.9240
20
5.5229
42
0.1139
0
VERTEX
8
0
10
8.9581
20
5.6709
42
0.1964
0
VERTEX
8
0
10
8.9388
20
5.7520
42
0.2195
0
VERTEX
8
0
10
8.8799
20
5.7793
0
SEQEND
8
0
0
POLYLINE
8
Layer 1
66
1
0
VERTEX
8
0
10
8.7483
20
6.2475
42
0.0296
0
VERTEX
8
0
10
8.6988
20
6.3167
42
0.0984
0
VERTEX
8
0
10
8.6543
20
6.3479
42
-0.2279
0
VERTEX
8
0
10
8.6211
20
6.3974
42
-0.1349
0
VERTEX
8
0
10
8.6285
20
6.4246
42
-0.2235
0
VERTEX
8
0
10
8.6471
20
6.4311
42
-0.0357
0
VERTEX
8
0
10
8.6671
20
6.4321
42
0.0373
0
VERTEX
8
0
10
8.7389
20
6.4444
42
-0.0272
0
VERTEX
8
0
10
8.7958
20
6.4543
42
-0.2024
0
VERTEX
8
0
10
8.8809
20
6.4182
42
-0.2024
0
VERTEX
8
0
10
8.9141
20
6.3261
42
-0.1551
0
VERTEX
8
0
10
8.8849
20
6.2346
42
-0.2138
0
VERTEX
8
0
10
8.8146
20
6.1970
42
-0.2053
0
VERTEX
8
0
10
8.7756
20
6.2138
42
-0.0823
0
VERTEX
8
0
10
8.7483
20
6.2475
0
SEQEND
8
0
0
POLYLINE
8
Layer 1
66
1
0
VERTEX
8
0
10
8.5196
20
6.0584
42
-0.1504
0
VERTEX
8
0
10
8.5300
20
6.0921
42
-0.2531
0
VERTEX
8
0
10
8.5701
20
6.1010
42
0.0619
0
VERTEX
8
0
10
8.6458
20
6.1104
42
-0.0159
0
VERTEX
8
0
10
8.6938
20
6.1198
42
-0.3043
0
VERTEX
8
0
10
8.7542
20
6.0792
42
-0.1530
0
VERTEX
8
0
10
8.7819
20
5.9861
42
-0.1654
0
VERTEX
8
0
10
8.7523
20
5.8985
42
-0.1938
0
VERTEX
8
0
10
8.6864
20
5.8599
42
-0.2827
0
VERTEX
8
0
10
8.6345
20
5.8918
42
-0.0809
0
VERTEX
8
0
10
8.6058
20
5.9480
42
0.0268
0
VERTEX
8
0
10
8.5914
20
5.9812
42
0.1709
0
VERTEX
8
0
10
8.5518
20
6.0089
42
-0.2585
0
VERTEX
8
0
10
8.5196
20
6.0584
0
SEQEND
8
0
0
POLYLINE
8
Layer 1
66
1
0
VERTEX
8
0
10
8.2989
20
5.9629
42
0.0104
0
VERTEX
8
0
10
8.2944
20
6.1782
42
0.0335
0
VERTEX
8
0
10
8.2821
20
6.2776
42
0.1755
0
VERTEX
8
0
10
8.2445
20
6.3133
42
-0.2806
0
VERTEX
8
0
10
8.2138
20
6.3836
42
-0.1351
0
VERTEX
8
0
10
8.2286
20
6.4375
42
-0.2596
0
VERTEX
8
0
10
8.2761
20
6.4543
42
-0.0590
0
VERTEX
8
0
10
8.3692
20
6.4429
42
0.0331
0
VERTEX
8
0
10
8.4944
20
6.4321
0
VERTEX
8
0
10
8.5117
20
6.4321
42
-0.0865
0
VERTEX
8
0
10
8.5691
20
6.4222
42
-0.2873
0
VERTEX
8
0
10
8.5830
20
6.3890
42
-0.2120
0
VERTEX
8
0
10
8.5703
20
6.3605
42
-0.0702
0
VERTEX
8
0
10
8.5464
20
6.3395
42
0.0276
0
VERTEX
8
0
10
8.5177
20
6.3167
42
0.1360
0
VERTEX
8
0
10
8.4943
20
6.2745
42
0.0478
0
VERTEX
8
0
10
8.4835
20
6.2272
42
0.0535
0
VERTEX
8
0
10
8.4736
20
5.9985
42
0.0135
0
VERTEX
8
0
10
8.4800
20
5.7610
42
0.0471
0
VERTEX
8
0
10
8.5003
20
5.6422
42
0.1075
0
VERTEX
8
0
10
8.5414
20
5.5833
42
-0.1273
0
VERTEX
8
0
10
8.5711
20
5.5283
42
-0.1573
0
VERTEX
8
0
10
8.5612
20
5.4977
42
-0.2360
0
VERTEX
8
0
10
8.5330
20
5.4873
42
-0.0214
0
VERTEX
8
0
10
8.4984
20
5.4887
42
0.0100
0
VERTEX
8
0
10
8.4612
20
5.4902
42
0.0617
0
VERTEX
8
0
10
8.3573
20
5.4774
42
-0.0259
0
VERTEX
8
0
10
8.2717
20
5.4645
42
-0.2288
0
VERTEX
8
0
10
8.2217
20
5.4887
42
-0.1853
0
VERTEX
8
0
10
8.2034
20
5.5541
42
-0.2678
0
VERTEX
8
0
10
8.2410
20
5.6194
42
0.0615
0
VERTEX
8
0
10
8.2821
20
5.6550
42
0.1669
0
VERTEX
8
0
10
8.2954
20
5.7228
42
0.0282
0
VERTEX
8
0
10
8.2989
20
5.9629
0
SEQEND
8
0
0
POLYLINE
8
Layer 1
66
1
0
VERTEX
8
0
10
7.8678
20
6.0079
42
-0.1008
0
VERTEX
8
0
10
7.8792
20
6.0341
42
-0.1205
0
VERTEX
8
0
10
7.9436
20
6.0831
42
-0.0984
0
VERTEX
8
0
10
8.0178
20
6.1044
42
-0.2610
0
VERTEX
8
0
10
8.0391
20
6.0926
42
-0.1745
0
VERTEX
8
0
10
8.0470
20
6.0599
42
-0.0146
0
VERTEX
8
0
10
8.0460
20
6.0426
42
0.0137
0
VERTEX
8
0
10
8.0415
20
5.8802
42
0.0422
0
VERTEX
8
0
10
8.0480
20
5.8050
42
0.1059
0
VERTEX
8
0
10
8.0702
20
5.7595
42
0.0475
0
VERTEX
8
0
10
8.0801
20
5.7481
42
-0.1650
0
VERTEX
8
0
10
8.1029
20
5.6966
42
-0.0742
0
VERTEX
8
0
10
8.0945
20
5.6402
42
-0.0391
0
VERTEX
8
0
10
8.0702
20
5.5684
42
-0.0648
0
VERTEX
8
0
10
8.0183
20
5.4793
42
-0.1502
0
VERTEX
8
0
10
7.9668
20
5.4467
42
-0.2169
0
VERTEX
8
0
10
7.9193
20
5.4682
42
-0.0977
0
VERTEX
8
0
10
7.8896
20
5.5125
42
-0.1317
0
VERTEX
8
0
10
7.8584
20
5.6793
42
-0.0165
0
VERTEX
8
0
10
7.8609
20
5.7540
42
0.0086
0
VERTEX
8
0
10
7.8634
20
5.8317
0
VERTEX
8
0
10
7.8644
20
5.9470
42
-0.0294
0
VERTEX
8
0
10
7.8678
20
6.0079
0
SEQEND
8
0
0
POLYLINE
8
Layer 1
66
1
0
VERTEX
8
0
10
7.3056
20
6.0921
42
-0.2881
0
VERTEX
8
0
10
7.3269
20
6.1044
42
-0.1525
0
VERTEX
8
0
10
7.4016
20
6.0812
42
-0.2213
0
VERTEX
8
0
10
7.4323
20
6.0228
42
-0.0108
0
VERTEX
8
0
10
7.4303
20
5.9629
42
0.0080
0
VERTEX
8
0
10
7.4283
20
5.8599
42
0.0474
0
VERTEX
8
0
10
7.4343
20
5.7981
42
0.1090
0
VERTEX
8
0
10
7.4575
20
5.7550
42
0.0189
0
VERTEX
8
0
10
7.4744
20
5.7347
42
-0.1490
0
VERTEX
8
0
10
7.5031
20
5.6724
42
-0.1145
0
VERTEX
8
0
10
7.4669
20
5.5160
42
-0.0580
0
VERTEX
8
0
10
7.4361
20
5.4706
42
-0.1748
0
VERTEX
8
0
10
7.3883
20
5.4467
42
-0.1965
0
VERTEX
8
0
10
7.3449
20
5.4644
42
-0.1066
0
VERTEX
8
0
10
7.3170
20
5.5031
42
-0.1384
0
VERTEX
8
0
10
7.2888
20
5.6481
42
-0.0034
0
VERTEX
8
0
10
7.2903
20
5.7021
0
VERTEX
8
0
10
7.2932
20
5.8109
0
VERTEX
8
0
10
7.2982
20
6.0445
42
-0.0630
0
VERTEX
8
0
10
7.3056
20
6.0921
0
SEQEND
8
0
0
POLYLINE
8
Layer 1
66
1
0
VERTEX
8
0
10
7.1834
20
6.2905
42
-0.0765
0
VERTEX
8
0
10
7.1641
20
6.3860
42
-0.1931
0
VERTEX
8
0
10
7.1898
20
6.4504
42
-0.1814
0
VERTEX
8
0
10
7.2477
20
6.4746
42
-0.0360
0
VERTEX
8
0
10
7.2581
20
6.4746
42
-0.1350
0
VERTEX
8
0
10
7.3773
20
6.4419
42
-0.0783
0
VERTEX
8
0
10
7.4759
20
6.3657
42
-0.0651
0
VERTEX
8
0
10
7.5847
20
6.2248
42
-0.0409
0
VERTEX
8
0
10
7.6644
20
6.0653
42
-0.0832
0
VERTEX
8
0
10
7.8530
20
6.3657
42
-0.0644
0
VERTEX
8
0
10
7.9517
20
6.4420
42
-0.1172
0
VERTEX
8
0
10
8.0712
20
6.4746
42
-0.1733
0
VERTEX
8
0
10
8.1395
20
6.4504
42
-0.2210
0
VERTEX
8
0
10
8.1653
20
6.3860
42
-0.0931
0
VERTEX
8
0
10
8.1484
20
6.2969
42
-0.0762
0
VERTEX
8
0
10
8.1059
20
6.2148
42
-0.2475
0
VERTEX
8
0
10
8.0307
20
6.1816
42
0.0048
0
VERTEX
8
0
10
8.0059
20
6.1782
42
0.1196
0
VERTEX
8
0
10
7.8767
20
6.1242
42
0.0873
0
VERTEX
8
0
10
7.7580
20
6.0069
42
0.0395
0
VERTEX
8
0
10
7.7124
20
5.9381
42
-0.0248
0
VERTEX
8
0
10
7.6923
20
5.9077
42
-0.1253
0
VERTEX
8
0
10
7.6644
20
5.8857
42
-0.3293
0
VERTEX
8
0
10
7.6383
20
5.9054
42
-0.0411
0
VERTEX
8
0
10
7.6199
20
5.9337
42
0.0192
0
VERTEX
8
0
10
7.5912
20
5.9797
42
0.0739
0
VERTEX
8
0
10
7.4640
20
6.1153
42
0.1092
0
VERTEX
8
0
10
7.3229
20
6.1782
42
0.0091
0
VERTEX
8
0
10
7.2982
20
6.1816
42
-0.1152
0
VERTEX
8
0
10
7.2309
20
6.2079
42
-0.1149
0
VERTEX
8
0
10
7.1834
20
6.2905
0
SEQEND
8
0
0
POLYLINE
8
Layer 1
66
1
0
VERTEX
8
0
10
6.3950
20
6.1029
42
-0.0741
0
VERTEX
8
0
10
6.4509
20
6.2326
42
-0.0654
0
VERTEX
8
0
10
6.5172
20
6.3118
42
-0.1300
0
VERTEX
8
0
10
6.5786
20
6.3410
42
-0.2092
0
VERTEX
8
0
10
6.6023
20
6.3306
42
-0.2054
0
VERTEX
8
0
10
6.6107
20
6.3019
42
-0.0106
0
VERTEX
8
0
10
6.5929
20
6.2138
42
0.0501
0
VERTEX
8
0
10
6.5756
20
6.0411
42
0.0523
0
VERTEX
8
0
10
6.5919
20
5.8837
42
0.0505
0
VERTEX
8
0
10
6.6419
20
5.7268
42
0.0895
0
VERTEX
8
0
10
6.7236
20
5.6021
42
0.1631
0
VERTEX
8
0
10
6.8216
20
5.5570
42
0.1773
0
VERTEX
8
0
10
6.8955
20
5.5840
42
0.1129
0
VERTEX
8
0
10
6.9443
20
5.6471
42
0.0845
0
VERTEX
8
0
10
6.9824
20
5.7621
42
0.0490
0
VERTEX
8
0
10
6.9923
20
5.8832
42
0.1039
0
VERTEX
8
0
10
6.9384
20
6.1376
42
0.0800
0
VERTEX
8
0
10
6.8821
20
6.2129
42
0.1452
0
VERTEX
8
0
10
6.7978
20
6.2524
42
0.0152
0
VERTEX
8
0
10
6.7587
20
6.2554
42
-0.0858
0
VERTEX
8
0
10
6.7098
20
6.2663
42
-0.2815
0
VERTEX
8
0
10
6.6855
20
6.3073
42
-0.1554
0
VERTEX
8
0
10
6.6958
20
6.3395
42
-0.0403
0
VERTEX
8
0
10
6.7142
20
6.3682
42
0.0072
0
VERTEX
8
0
10
6.7404
20
6.4044
42
0.0148
0
VERTEX
8
0
10
6.7617
20
6.4405
42
-0.0305
0
VERTEX
8
0
10
6.7894
20
6.4811
42
-0.1356
0
VERTEX
8
0
10
6.8285
20
6.5088
42
-0.1580
0
VERTEX
8
0
10
6.8983
20
6.4860
42
-0.0703
0
VERTEX
8
0
10
6.9814
20
6.4271
42
-0.1125
0
VERTEX
8
0
10
7.1146
20
6.2366
42
-0.1024
0
VERTEX
8
0
10
7.1606
20
5.9946
42
-0.0685
0
VERTEX
8
0
10
7.1269
20
5.7535
42
-0.0862
0
VERTEX
8
0
10
7.0294
20
5.5595
42
-0.0944
0
VERTEX
8
0
10
6.9141
20
5.4596
42
-0.1204
0
VERTEX
8
0
10
6.7815
20
5.4244
42
-0.1366
0
VERTEX
8
0
10
6.6256
20
5.4680
42
-0.1088
0
VERTEX
8
0
10
6.4910
20
5.5882
42
-0.0850
0
VERTEX
8
0
10
6.4058
20
5.7565
42
-0.0782
0
VERTEX
8
0
10
6.3762
20
5.9500
42
-0.0608
0
VERTEX
8
0
10
6.3950
20
6.1029
0
SEQEND
8
0
0
POLYLINE
8
Layer 1
66
1
0
VERTEX
8
0
10
6.1548
20
6.2069
42
-0.0654
0
VERTEX
8
0
10
6.1242
20
6.2653
42
0.0157
0
VERTEX
8
0
10
6.1039
20
6.3108
42
0.1365
0
VERTEX
8
0
10
6.0480
20
6.3717
42
-0.1842
0
VERTEX
8
0
10
6.0099
20
6.4246
42
-0.1406
0
VERTEX
8
0
10
6.0193
20
6.4573
42
-0.2525
0
VERTEX
8
0
10
6.0465
20
6.4687
42
-0.0527
0
VERTEX
8
0
10
6.0648
20
6.4662
42
0.0345
0
VERTEX
8
0
10
6.0916
20
6.4632
42
0.0276
0
VERTEX
8
0
10
6.1445
20
6.4662
42
-0.0150
0
VERTEX
8
0
10
6.1851
20
6.4687
42
-0.3195
0
VERTEX
8
0
10
6.2598
20
6.4157
42
-0.1491
0
VERTEX
8
0
10
6.2915
20
6.2880
42
-0.1319
0
VERTEX
8
0
10
6.2688
20
6.2029
42
-0.2396
0
VERTEX
8
0
10
6.2074
20
6.1712
42
-0.3073
0
VERTEX
8
0
10
6.1548
20
6.2069
0
SEQEND
8
0
0
POLYLINE
8
Layer 1
66
1
0
VERTEX
8
0
10
5.5972
20
5.7981
42
-0.0686
0
VERTEX
8
0
10
5.5719
20
5.9891
42
-0.0866
0
VERTEX
8
0
10
5.6115
20
6.2148
42
-0.1114
0
VERTEX
8
0
10
5.7224
20
6.3821
42
-0.0786
0
VERTEX
8
0
10
5.8228
20
6.4454
42
-0.0887
0
VERTEX
8
0
10
5.9228
20
6.4687
42
-0.1263
0
VERTEX
8
0
10
5.9594
20
6.4593
42
-0.2460
0
VERTEX
8
0
10
5.9718
20
6.4306
42
-0.2014
0
VERTEX
8
0
10
5.9579
20
6.3972
42
-0.0884
0
VERTEX
8
0
10
5.9292
20
6.3742
42
0.0446
0
VERTEX
8
0
10
5.8817
20
6.3390
42
0.1266
0
VERTEX
8
0
10
5.8040
20
6.2103
42
0.0916
0
VERTEX
8
0
10
5.7773
20
6.0312
42
0.0577
0
VERTEX
8
0
10
5.7947
20
5.8820
42
0.0840
0
VERTEX
8
0
10
5.8555
20
5.7451
42
0.0936
0
VERTEX
8
0
10
5.9380
20
5.6627
42
0.1429
0
VERTEX
8
0
10
6.0495
20
5.6313
42
0.1007
0
VERTEX
8
0
10
6.1326
20
5.6481
42
0.0913
0
VERTEX
8
0
10
6.2094
20
5.6981
42
0.0670
0
VERTEX
8
0
10
6.2381
20
5.7303
42
-0.1296
0
VERTEX
8
0
10
6.2697
20
5.7535
42
-0.2696
0
VERTEX
8
0
10
6.2920
20
5.7407
42
-0.1708
0
VERTEX
8
0
10
6.3014
20
5.7090
42
-0.1425
0
VERTEX
8
0
10
6.2846
20
5.6516
42
-0.0629
0
VERTEX
8
0
10
6.2361
20
5.5783
42
-0.1008
0
VERTEX
8
0
10
6.1193
20
5.4808
42
-0.1176
0
VERTEX
8
0
10
5.9792
20
5.4467
42
-0.1393
0
VERTEX
8
0
10
5.8080
20
5.4957
42
-0.1204
0
VERTEX
8
0
10
5.6699
20
5.6328
42
-0.0797
0
VERTEX
8
0
10
5.5972
20
5.7981
0
SEQEND
8
0
0
POLYLINE
8
Layer 1
66
1
0
VERTEX
8
0
10
5.4097
20
5.7666
42
-0.1798
0
VERTEX
8
0
10
5.4759
20
5.7991
42
-0.2439
0
VERTEX
8
0
10
5.5293
20
5.7714
42
-0.1814
0
VERTEX
8
0
10
5.5472
20
5.6882
42
-0.1241
0
VERTEX
8
0
10
5.5086
20
5.5338
42
-0.0686
0
VERTEX
8
0
10
5.4734
20
5.4869
42
-0.1701
0
VERTEX
8
0
10
5.4205
20
5.4645
42
-0.0828
0
VERTEX
8
0
10
5.3383
20
5.4784
42
0.0125
0
VERTEX
8
0
10
5.2962
20
5.4887
42
-0.0157
0
VERTEX
8
0
10
5.2794
20
5.4892
42
-0.0924
0
VERTEX
8
0
10
5.2371
20
5.4991
42
-0.2777
0
VERTEX
8
0
10
5.2166
20
5.5353
42
-0.2597
0
VERTEX
8
0
10
5.2328
20
5.5643
42
-0.0733
0
VERTEX
8
0
10
5.2616
20
5.5828
42
0.1210
0
VERTEX
8
0
10
5.3363
20
5.6466
42
0.0534
0
VERTEX
8
0
10
5.3680
20
5.7035
42
-0.0622
0
VERTEX
8
0
10
5.4097
20
5.7666
0
SEQEND
8
0
0
POLYLINE
8
Layer 1
66
1
0
VERTEX
8
0
10
4.8285
20
6.2965
42
-0.2069
0
VERTEX
8
0
10
4.8437
20
6.3315
42
-0.0790
0
VERTEX
8
0
10
4.8736
20
6.3563
42
-0.0169
0
VERTEX
8
0
10
4.8909
20
6.3672
42
0.0611
0
VERTEX
8
0
10
4.9627
20
6.4291
42
-0.1044
0
VERTEX
8
0
10
5.0364
20
6.4746
42
-0.3691
0
VERTEX
8
0
10
5.0909
20
6.4281
42
-0.0818
0
VERTEX
8
0
10
5.1052
20
6.3554
42
-0.0254
0
VERTEX
8
0
10
5.1082
20
6.2811
42
-0.0100
0
VERTEX
8
0
10
5.1047
20
6.1168
42
0.0046
0
VERTEX
8
0
10
5.1012
20
5.8901
42
0.0161
0
VERTEX
8
0
10
5.1072
20
5.7055
42
0.0785
0
VERTEX
8
0
10
5.1285
20
5.6283
42
0.0670
0
VERTEX
8
0
10
5.1636
20
5.5823
42
-0.1348
0
VERTEX
8
0
10
5.1888
20
5.5313
42
-0.1552
0
VERTEX
8
0
10
5.1785
20
5.4986
42
-0.2491
0
VERTEX
8
0
10
5.1448
20
5.4887
42
0.0363
0
VERTEX
8
0
10
4.9790
20
5.4764
42
-0.0089
0
VERTEX
8
0
10
4.8825
20
5.4645
42
-0.2034
0
VERTEX
8
0
10
4.8360
20
5.4843
42
-0.2086
0
VERTEX
8
0
10
4.8201
20
5.5427
42
-0.2682
0
VERTEX
8
0
10
4.8568
20
5.6060
42
0.0249
0
VERTEX
8
0
10
4.8756
20
5.6209
42
0.1880
0
VERTEX
8
0
10
4.9181
20
5.7085
42
0.0506
0
VERTEX
8
0
10
4.9281
20
5.8154
42
0.0120
0
VERTEX
8
0
10
4.9300
20
5.9228
42
0.0131
0
VERTEX
8
0
10
4.9246
20
6.1307
42
0.0568
0
VERTEX
8
0
10
4.9077
20
6.2178
42
0.2039
0
VERTEX
8
0
10
4.8637
20
6.2494
42
-0.2446
0
VERTEX
8
0
10
4.8285
20
6.2965
0
SEQEND
8
0
0
POLYLINE
8
Layer 1
66
1
0
VERTEX
8
0
10
4.6637
20
6.1970
42
-0.2036
0
VERTEX
8
0
10
4.6244
20
6.2137
42
-0.0838
0
VERTEX
8
0
10
4.5969
20
6.2475
42
0.0295
0
VERTEX
8
0
10
4.5474
20
6.3167
42
0.0954
0
VERTEX
8
0
10
4.5034
20
6.3479
42
-0.2279
0
VERTEX
8
0
10
4.4702
20
6.3974
42
-0.1349
0
VERTEX
8
0
10
4.4776
20
6.4246
42
-0.2235
0
VERTEX
8
0
10
4.4963
20
6.4311
42
-0.0357
0
VERTEX
8
0
10
4.5163
20
6.4321
42
0.0369
0
VERTEX
8
0
10
4.5875
20
6.4444
42
-0.0272
0
VERTEX
8
0
10
4.6444
20
6.4543
42
-0.2013
0
VERTEX
8
0
10
4.7301
20
6.4182
42
-0.2024
0
VERTEX
8
0
10
4.7632
20
6.3261
42
-0.1551
0
VERTEX
8
0
10
4.7340
20
6.2346
42
-0.2138
0
VERTEX
8
0
10
4.6637
20
6.1970
0
SEQEND
8
0
0
POLYLINE
8
Layer 1
66
1
0
VERTEX
8
0
10
4.5351
20
5.8599
42
-0.2845
0
VERTEX
8
0
10
4.4834
20
5.8919
42
-0.0799
0
VERTEX
8
0
10
4.4549
20
5.9480
42
0.0319
0
VERTEX
8
0
10
4.4400
20
5.9812
42
0.1673
0
VERTEX
8
0
10
4.4009
20
6.0089
42
-0.2584
0
VERTEX
8
0
10
4.3688
20
6.0584
42
-0.1504
0
VERTEX
8
0
10
4.3792
20
6.0921
42
-0.2531
0
VERTEX
8
0
10
4.4192
20
6.1010
42
0.0623
0
VERTEX
8
0
10
4.4945
20
6.1104
42
-0.0159
0
VERTEX
8
0
10
4.5425
20
6.1198
42
-0.3032
0
VERTEX
8
0
10
4.6034
20
6.0792
42
-0.1533
0
VERTEX
8
0
10
4.6311
20
5.9861
42
-0.1654
0
VERTEX
8
0
10
4.6014
20
5.8985
42
-0.1939
0
VERTEX
8
0
10
4.5351
20
5.8599
0
SEQEND
8
0
0
POLYLINE
8
Layer 1
66
1
0
VERTEX
8
0
10
4.4593
20
5.5338
42
-0.2536
0
VERTEX
8
0
10
4.4756
20
5.5637
42
-0.0969
0
VERTEX
8
0
10
4.5068
20
5.5798
42
0.0944
0
VERTEX
8
0
10
4.5816
20
5.6234
42
0.0856
0
VERTEX
8
0
10
4.6119
20
5.6654
42
0.0100
0
VERTEX
8
0
10
4.6385
20
5.7100
42
-0.0690
0
VERTEX
8
0
10
4.6751
20
5.7569
42
-0.1669
0
VERTEX
8
0
10
4.7291
20
5.7793
42
-0.2194
0
VERTEX
8
0
10
4.7880
20
5.7520
42
-0.1964
0
VERTEX
8
0
10
4.8073
20
5.6709
42
-0.1160
0
VERTEX
8
0
10
4.7726
20
5.5229
42
-0.2325
0
VERTEX
8
0
10
4.6840
20
5.4645
42
-0.0763
0
VERTEX
8
0
10
4.6108
20
5.4759
42
0.0239
0
VERTEX
8
0
10
4.5217
20
5.4902
0
VERTEX
8
0
10
4.5192
20
5.4902
42
-0.0932
0
VERTEX
8
0
10
4.4788
20
5.4993
42
-0.2826
0
VERTEX
8
0
10
4.4593
20
5.5338
0
SEQEND
8
0
0
POLYLINE
8
Layer 1
66
1
0
VERTEX
8
0
10
4.0525
20
5.5541
42
-0.2678
0
VERTEX
8
0
10
4.0901
20
5.6194
42
0.0649
0
VERTEX
8
0
10
4.1307
20
5.6550
42
0.1654
0
VERTEX
8
0
10
4.1446
20
5.7228
42
0.0282
0
VERTEX
8
0
10
4.1480
20
5.9629
42
0.0103
0
VERTEX
8
0
10
4.1436
20
6.1782
42
0.0366
0
VERTEX
8
0
10
4.1307
20
6.2776
42
0.1730
0
VERTEX
8
0
10
4.0936
20
6.3133
42
-0.2806
0
VERTEX
8
0
10
4.0629
20
6.3836
42
-0.1351
0
VERTEX
8
0
10
4.0778
20
6.4375
42
-0.2588
0
VERTEX
8
0
10
4.1248
20
6.4543
42
-0.0601
0
VERTEX
8
0
10
4.2183
20
6.4429
42
0.0334
0
VERTEX
8
0
10
4.3435
20
6.4321
0
VERTEX
8
0
10
4.3608
20
6.4321
42
-0.0865
0
VERTEX
8
0
10
4.4183
20
6.4222
42
-0.2936
0
VERTEX
8
0
10
4.4316
20
6.3890
42
-0.2073
0
VERTEX
8
0
10
4.4192
20
6.3605
42
-0.0721
0
VERTEX
8
0
10
4.3955
20
6.3395
42
0.0276
0
VERTEX
8
0
10
4.3668
20
6.3167
42
0.1328
0
VERTEX
8
0
10
4.3432
20
6.2746
42
0.0486
0
VERTEX
8
0
10
4.3321
20
6.2272
42
0.0405
0
VERTEX
8
0
10
4.3241
20
6.1130
42
0.0080
0
VERTEX
8
0
10
4.3227
20
5.9985
42
0.0135
0
VERTEX
8
0
10
4.3292
20
5.7610
42
0.0466
0
VERTEX
8
0
10
4.3495
20
5.6422
42
0.1075
0
VERTEX
8
0
10
4.3905
20
5.5833
42
-0.1273
0
VERTEX
8
0
10
4.4202
20
5.5283
42
-0.1573
0
VERTEX
8
0
10
4.4103
20
5.4977
42
-0.2390
0
VERTEX
8
0
10
4.3816
20
5.4873
42
-0.0217
0
VERTEX
8
0
10
4.3475
20
5.4887
42
0.0101
0
VERTEX
8
0
10
4.3104
20
5.4902
42
0.0614
0
VERTEX
8
0
10
4.2059
20
5.4774
42
-0.0250
0
VERTEX
8
0
10
4.1208
20
5.4645
42
-0.2288
0
VERTEX
8
0
10
4.0708
20
5.4887
42
-0.1853
0
VERTEX
8
0
10
4.0525
20
5.5541
0
SEQEND
8
0
0
POLYLINE
8
Layer 1
66
1
0
VERTEX
8
0
10
3.6591
20
5.5699
0
VERTEX
8
0
10
3.6452
20
5.6140
0
VERTEX
8
0
10
3.5437
20
5.9228
42
0.0204
0
VERTEX
8
0
10
3.5096
20
6.0153
42
0.0370
0
VERTEX
8
0
10
3.4824
20
6.0683
42
0.1806
0
VERTEX
8
0
10
3.4542
20
6.0851
42
-0.0115
0
VERTEX
8
0
10
3.4279
20
6.0940
42
-0.1296
0
VERTEX
8
0
10
3.4007
20
6.1178
42
-0.1517
0
VERTEX
8
0
10
3.3913
20
6.1539
42
-0.2641
0
VERTEX
8
0
10
3.4294
20
6.2207
42
-0.0144
0
VERTEX
8
0
10
3.4373
20
6.2282
42
0.0085
0
VERTEX
8
0
10
3.4631
20
6.2519
42
-0.0159
0
VERTEX
8
0
10
3.5077
20
6.2900
42
-0.0800
0
VERTEX
8
0
10
3.5586
20
6.3177
42
-0.3354
0
VERTEX
8
0
10
3.5909
20
6.2932
42
-0.0446
0
VERTEX
8
0
10
3.6126
20
6.2573
42
-0.0303
0
VERTEX
8
0
10
3.6468
20
6.1808
42
-0.0200
0
VERTEX
8
0
10
3.7021
20
6.0223
42
0.0076
0
VERTEX
8
0
10
3.8090
20
5.6996
42
0.0251
0
VERTEX
8
0
10
3.8471
20
5.8867
42
0.0340
0
VERTEX
8
0
10
3.8590
20
6.0544
42
0.0733
0
VERTEX
8
0
10
3.8303
20
6.2519
42
0.1912
0
VERTEX
8
0
10
3.7422
20
6.3450
42
0.0585
0
VERTEX
8
0
10
3.7095
20
6.3529
42
-0.3402
0
VERTEX
8
0
10
3.6620
20
6.4034
42
-0.1281
0
VERTEX
8
0
10
3.6694
20
6.4321
42
-0.1168
0
VERTEX
8
0
10
3.7046
20
6.4702
42
0.0362
0
VERTEX
8
0
10
3.7501
20
6.5207
42
-0.0344
0
VERTEX
8
0
10
3.7833
20
6.5549
42
-0.1237
0
VERTEX
8
0
10
3.8253
20
6.5756
42
-0.1776
0
VERTEX
8
0
10
3.8669
20
6.5602
42
-0.0858
0
VERTEX
8
0
10
3.9125
20
6.5167
42
-0.1044
0
VERTEX
8
0
10
3.9798
20
6.3841
42
-0.0789
0
VERTEX
8
0
10
4.0015
20
6.2024
42
-0.0617
0
VERTEX
8
0
10
3.9689
20
5.9431
42
-0.0493
0
VERTEX
8
0
10
3.8659
20
5.6491
42
-0.0270
0
VERTEX
8
0
10
3.7862
20
5.4917
42
-0.0415
0
VERTEX
8
0
10
3.7636
20
5.4633
42
-0.1475
0
VERTEX
8
0
10
3.7323
20
5.4467
42
-0.3179
0
VERTEX
8
0
10
3.7029
20
5.4674
42
-0.0564
0
VERTEX
8
0
10
3.6848
20
5.5000
42
-0.0375
0
VERTEX
8
0
10
3.6591
20
5.5699
0
SEQEND
8
0
0
POLYLINE
8
Layer 1
66
1
0
VERTEX
8
0
10
3.3893
20
5.4705
42
-0.0626
0
VERTEX
8
0
10
3.3663
20
5.5095
42
-0.0418
0
VERTEX
8
0
10
3.3344
20
5.5942
42
0.0047
0
VERTEX
8
0
10
3.3037
20
5.6897
0
VERTEX
8
0
10
3.1844
20
6.0396
42
0.0191
0
VERTEX
8
0
10
3.1429
20
6.1495
42
0.0691
0
VERTEX
8
0
10
3.1097
20
6.2009
42
0.1039
0
VERTEX
8
0
10
3.0780
20
6.2197
42
-0.2555
0
VERTEX
8
0
10
3.0419
20
6.2653
42
-0.2236
0
VERTEX
8
0
10
3.0667
20
6.3175
42
-0.0497
0
VERTEX
8
0
10
3.1087
20
6.3588
0
VERTEX
8
0
10
3.1137
20
6.3633
42
0.0261
0
VERTEX
8
0
10
3.1374
20
6.3841
42
-0.1026
0
VERTEX
8
0
10
3.2082
20
6.4256
42
-0.2907
0
VERTEX
8
0
10
3.2517
20
6.3979
42
-0.0806
0
VERTEX
8
0
10
3.2808
20
6.3364
42
-0.0134
0
VERTEX
8
0
10
3.3037
20
6.2722
42
-0.0035
0
VERTEX
8
0
10
3.3586
20
6.1000
42
0.0083
0
VERTEX
8
0
10
3.4893
20
5.7065
0
VERTEX
8
0
10
3.5388
20
5.7931
0
VERTEX
8
0
10
3.5769
20
5.6753
0
VERTEX
8
0
10
3.4893
20
5.5130
42
-0.0501
0
VERTEX
8
0
10
3.4556
20
5.4615
42
-0.1654
0
VERTEX
8
0
10
3.4260
20
5.4467
42
-0.2963
0
VERTEX
8
0
10
3.3893
20
5.4705
0
SEQEND
8
0
0
POLYLINE
8
Layer 1
66
1
0
VERTEX
8
0
10
2.2104
20
4.4445
42
0.0422
0
VERTEX
8
0
10
2.2302
20
4.3821
42
0.1177
0
VERTEX
8
0
10
2.3577
20
4.2028
42
0.0655
0
VERTEX
8
0
10
2.5371
20
4.0733
42
0.0121
0
VERTEX
8
0
10
2.5871
20
4.0461
42
0.1235
0
VERTEX
8
0
10
2.9798
20
3.9265
42
0.0748
0
VERTEX
8
0
10
3.3918
20
3.9505
42
0.0217
0
VERTEX
8
0
10
3.4982
20
3.9763
42
0.0858
0
VERTEX
8
0
10
3.9516
20
4.1926
42
0.0158
0
VERTEX
8
0
10
4.0149
20
4.2411
42
0.0469
0
VERTEX
8
0
10
4.1312
20
4.3613
42
0.0033
0
VERTEX
8
0
10
4.1673
20
4.4217
42
0.0074
0
VERTEX
8
0
10
4.2020
20
4.4821
42
-0.0252
0
VERTEX
8
0
10
4.2846
20
4.6212
42
-0.0124
0
VERTEX
8
0
10
4.3307
20
4.6895
42
0.0245
0
VERTEX
8
0
10
4.4779
20
4.8965
42
-0.0200
0
VERTEX
8
0
10
4.6296
20
5.1002
42
-0.0168
0
VERTEX
8
0
10
4.6835
20
5.1601
42
-0.0169
0
VERTEX
8
0
10
4.7231
20
5.2081
42
0.0453
0
VERTEX
8
0
10
4.7845
20
5.2235
42
0.0654
0
VERTEX
8
0
10
4.8825
20
5.2047
42
0.0373
0
VERTEX
8
0
10
4.9429
20
5.2091
42
0.0067
0
VERTEX
8
0
10
5.0151
20
5.2190
42
-0.0309
0
VERTEX
8
0
10
5.1448
20
5.2289
42
0.0563
0
VERTEX
8
0
10
5.2156
20
5.2368
42
0.0048
0
VERTEX
8
0
10
5.2537
20
5.2314
42
-0.0077
0
VERTEX
8
0
10
5.2695
20
5.2274
42
0.0056
0
VERTEX
8
0
10
5.2750
20
5.2264
42
0.0479
0
VERTEX
8
0
10
5.4205
20
5.2047
42
0.1967
0
VERTEX
8
0
10
5.6412
20
5.2952
42
0.0057
0
VERTEX
8
0
10
5.6744
20
5.2730
42
0.1342
0
VERTEX
8
0
10
5.9792
20
5.1869
42
0.1178
0
VERTEX
8
0
10
6.2381
20
5.2497
42
0.0735
0
VERTEX
8
0
10
6.3662
20
5.3413
42
0.0549
0
VERTEX
8
0
10
6.4979
20
5.2413
42
0.1236
0
VERTEX
8
0
10
6.7815
20
5.1646
42
0.1277
0
VERTEX
8
0
10
7.0388
20
5.2314
42
0.0548
0
VERTEX
8
0
10
7.1448
20
5.3051
42
0.0968
0
VERTEX
8
0
10
7.2734
20
5.2116
42
-0.0218
0
VERTEX
8
0
10
7.3165
20
5.1601
42
-0.0046
0
VERTEX
8
0
10
7.3704
20
5.1002
42
-0.0338
0
VERTEX
8
0
10
7.5221
20
4.8965
42
0.0092
0
VERTEX
8
0
10
7.6694
20
4.6895
42
-0.0089
0
VERTEX
8
0
10
7.7154
20
4.6212
42
-0.0182
0
VERTEX
8
0
10
7.7980
20
4.4821
42
0.0038
0
VERTEX
8
0
10
7.8327
20
4.4217
42
0.0120
0
VERTEX
8
0
10
7.8688
20
4.3613
42
0.0771
0
VERTEX
8
0
10
7.9851
20
4.2411
42
0.0207
0
VERTEX
8
0
10
8.0485
20
4.1926
42
0.0925
0
VERTEX
8
0
10
8.5018
20
3.9763
42
0.0176
0
VERTEX
8
0
10
8.6082
20
3.9505
42
0.0679
0
VERTEX
8
0
10
9.0202
20
3.9265
42
0.1025
0
VERTEX
8
0
10
9.4130
20
4.0461
42
0.0106
0
VERTEX
8
0
10
9.4629
20
4.0733
42
0.0522
0
VERTEX
8
0
10
9.6423
20
4.2028
42
0.0992
0
VERTEX
8
0
10
9.7698
20
4.3821
42
0.0440
0
VERTEX
8
0
10
9.7896
20
4.4445
42
0.1164
0
VERTEX
8
0
10
9.7965
20
4.6726
42
0.0335
0
VERTEX
8
0
10
9.7747
20
4.7464
42
0.1165
0
VERTEX
8
0
10
9.6532
20
4.9404
42
0.0817
0
VERTEX
8
0
10
9.4694
20
5.0785
42
0.1323
0
VERTEX
8
0
10
9.0249
20
5.1829
0
VERTEX
8
0
10
9.0111
20
5.1824
0
VERTEX
8
0
10
9.0071
20
5.1824
42
0.0132
0
VERTEX
8
0
10
8.9388
20
5.1760
42
0.0562
0
VERTEX
8
0
10
8.7503
20
5.1299
42
0.0429
0
VERTEX
8
0
10
8.6362
20
5.0808
42
0.0796
0
VERTEX
8
0
10
8.5390
20
5.0042
42
0.2967
0
VERTEX
8
0
10
8.5092
20
4.7706
42
0.1385
0
VERTEX
8
0
10
8.5236
20
4.7409
42
-0.0658
0
VERTEX
8
0
10
8.5538
20
4.7879
42
-0.0723
0
VERTEX
8
0
10
8.5944
20
4.8231
42
-0.1369
0
VERTEX
8
0
10
8.8468
20
4.8830
42
-0.0362
0
VERTEX
8
0
10
8.9339
20
4.8755
42
-0.1111
0
VERTEX
8
0
10
9.1293
20
4.8118
42
-0.1749
0
VERTEX
8
0
10
9.2546
20
4.6533
42
-0.0697
0
VERTEX
8
0
10
9.2590
20
4.6053
42
-0.2541
0
VERTEX
8
0
10
9.1704
20
4.4474
42
-0.0526
0
VERTEX
8
0
10
9.1106
20
4.4108
42
-0.1691
0
VERTEX
8
0
10
8.7310
20
4.3677
42
-0.1087
0
VERTEX
8
0
10
8.3751
20
4.5162
42
-0.0028
0
VERTEX
8
0
10
8.3266
20
4.5494
42
-0.0190
0
VERTEX
8
0
10
8.2722
20
4.5959
42
-0.0219
0
VERTEX
8
0
10
8.2232
20
4.6454
42
-0.1358
0
VERTEX
8
0
10
8.1175
20
4.8108
42
-0.0656
0
VERTEX
8
0
10
8.0811
20
5.0057
42
-0.0256
0
VERTEX
8
0
10
8.0816
20
5.0691
42
-0.0177
0
VERTEX
8
0
10
8.0881
20
5.1319
42
-0.0160
0
VERTEX
8
0
10
8.0995
20
5.1784
42
-0.0188
0
VERTEX
8
0
10
8.1128
20
5.2230
42
0.0237
0
VERTEX
8
0
10
8.1376
20
5.2383
42
0.0963
0
VERTEX
8
0
10
8.2717
20
5.2047
42
0.0642
0
VERTEX
8
0
10
8.4088
20
5.2225
42
-0.0251
0
VERTEX
8
0
10
8.4612
20
5.2304
42
-0.0055
0
VERTEX
8
0
10
8.4830
20
5.2294
42
0.0092
0
VERTEX
8
0
10
8.5330
20
5.2274
42
0.0755
0
VERTEX
8
0
10
8.6038
20
5.2383
42
0.0140
0
VERTEX
8
0
10
8.6518
20
5.2319
0
VERTEX
8
0
10
8.6518
20
5.2309
42
-0.0398
0
VERTEX
8
0
10
8.7077
20
5.2215
42
0.0393
0
VERTEX
8
0
10
8.8349
20
5.2047
42
0.1515
0
VERTEX
8
0
10
9.0137
20
5.2601
42
0.1123
0
VERTEX
8
0
10
9.1482
20
5.3912
42
0.1433
0
VERTEX
8
0
10
9.2180
20
5.6709
42
0.0570
0
VERTEX
8
0
10
9.2038
20
5.7927
42
0.0895
0
VERTEX
8
0
10
9.1507
20
5.9030
42
0.0967
0
VERTEX
8
0
10
9.0819
20
5.9683
42
-0.0045
0
VERTEX
8
0
10
9.1022
20
5.9728
42
-0.0241
0
VERTEX
8
0
10
9.2689
20
6.0000
42
-0.0221
0
VERTEX
8
0
10
9.1022
20
6.0277
42
-0.0121
0
VERTEX
8
0
10
9.0561
20
6.0386
42
0.0366
0
VERTEX
8
0
10
9.0903
20
6.0752
42
0.1713
0
VERTEX
8
0
10
9.1739
20
6.3261
42
0.1846
0
VERTEX
8
0
10
9.0720
20
6.5944
42
0.2117
0
VERTEX
8
0
10
8.7958
20
6.7142
42
0.0698
0
VERTEX
8
0
10
8.6810
20
6.6978
42
-0.0235
0
VERTEX
8
0
10
8.6424
20
6.6909
0
VERTEX
8
0
10
8.6424
20
6.6899
42
0.0224
0
VERTEX
8
0
10
8.6117
20
6.6874
42
0.0995
0
VERTEX
8
0
10
8.5117
20
6.6919
0
VERTEX
8
0
10
8.4944
20
6.6919
42
-0.0459
0
VERTEX
8
0
10
8.4083
20
6.6998
42
0.0212
0
VERTEX
8
0
10
8.2761
20
6.7142
42
0.0572
0
VERTEX
8
0
10
8.2083
20
6.7062
42
0.0483
0
VERTEX
8
0
10
8.1311
20
6.7285
0
VERTEX
8
0
10
8.1291
20
6.7335
42
-0.0324
0
VERTEX
8
0
10
8.0995
20
6.8221
42
-0.0254
0
VERTEX
8
0
10
8.0881
20
6.8681
42
-0.0150
0
VERTEX
8
0
10
8.0816
20
6.9304
42
-0.0298
0
VERTEX
8
0
10
8.0811
20
6.9948
42
-0.0269
0
VERTEX
8
0
10
8.1176
20
7.1897
42
-0.1275
0
VERTEX
8
0
10
8.2232
20
7.3551
42
-0.0304
0
VERTEX
8
0
10
8.2722
20
7.4041
42
-0.0204
0
VERTEX
8
0
10
8.3266
20
7.4506
42
-0.0088
0
VERTEX
8
0
10
8.3751
20
7.4843
42
-0.1025
0
VERTEX
8
0
10
8.7310
20
7.6329
42
-0.1473
0
VERTEX
8
0
10
9.1106
20
7.5897
42
-0.0537
0
VERTEX
8
0
10
9.1704
20
7.5526
42
-0.0889
0
VERTEX
8
0
10
9.2336
20
7.4839
42
-0.1295
0
VERTEX
8
0
10
9.2590
20
7.3947
42
-0.0758
0
VERTEX
8
0
10
9.2546
20
7.3472
42
-0.1289
0
VERTEX
8
0
10
9.2077
20
7.2558
42
-0.0848
0
VERTEX
8
0
10
9.1292
20
7.1887
42
-0.1217
0
VERTEX
8
0
10
8.9339
20
7.1249
42
-0.0360
0
VERTEX
8
0
10
8.8468
20
7.1175
42
-0.1220
0
VERTEX
8
0
10
8.5944
20
7.1769
42
-0.0600
0
VERTEX
8
0
10
8.5538
20
7.2125
42
-0.0696
0
VERTEX
8
0
10
8.5236
20
7.2591
42
0.1565
0
VERTEX
8
0
10
8.5092
20
7.2294
42
0.1067
0
VERTEX
8
0
10
8.4898
20
7.1078
42
0.1575
0
VERTEX
8
0
10
8.5392
20
6.9958
42
0.0999
0
VERTEX
8
0
10
8.6364
20
6.9194
42
0.0505
0
VERTEX
8
0
10
8.7503
20
6.8706
42
0.0610
0
VERTEX
8
0
10
8.9388
20
6.8245
42
0.0216
0
VERTEX
8
0
10
9.0071
20
6.8181
0
VERTEX
8
0
10
9.0111
20
6.8181
42
-0.0186
0
VERTEX
8
0
10
9.0249
20
6.8171
42
0.1269
0
VERTEX
8
0
10
9.4695
20
6.9218
42
0.0752
0
VERTEX
8
0
10
9.6532
20
7.0600
42
0.1020
0
VERTEX
8
0
10
9.7747
20
7.2541
42
0.0353
0
VERTEX
8
0
10
9.7965
20
7.3279
42
0.1166
0
VERTEX
8
0
10
9.7896
20
7.5555
42
0.0423
0
VERTEX
8
0
10
9.7698
20
7.6179
42
0.1183
0
VERTEX
8
0
10
9.6423
20
7.7974
42
0.0660
0
VERTEX
8
0
10
9.4629
20
7.9272
42
0.0120
0
VERTEX
8
0
10
9.4130
20
7.9544
42
0.0815
0
VERTEX
8
0
10
9.1776
20
8.0483
42
0.0573
0
VERTEX
8
0
10
8.9255
20
8.0787
42
0.0530
0
VERTEX
8
0
10
8.6082
20
8.0499
42
0.0217
0
VERTEX
8
0
10
8.5018
20
8.0242
42
0.0847
0
VERTEX
8
0
10
8.0485
20
7.8079
42
0.0177
0
VERTEX
8
0
10
7.9851
20
7.7589
42
0.0486
0
VERTEX
8
0
10
7.8688
20
7.6387
42
0.0033
0
VERTEX
8
0
10
7.8327
20
7.5783
42
0.0056
0
VERTEX
8
0
10
7.7980
20
7.5184
42
-0.0254
0
VERTEX
8
0
10
7.7154
20
7.3793
42
-0.0124
0
VERTEX
8
0
10
7.6694
20
7.3110
42
0.0247
0
VERTEX
8
0
10
7.5221
20
7.1040
42
-0.0200
0
VERTEX
8
0
10
7.3704
20
6.9003
42
-0.0132
0
VERTEX
8
0
10
7.3165
20
6.8399
42
-0.0468
0
VERTEX
8
0
10
7.2155
20
6.7315
42
0.0969
0
VERTEX
8
0
10
7.0720
20
6.6840
42
0.0189
0
VERTEX
8
0
10
7.0171
20
6.7171
42
0.0334
0
VERTEX
8
0
10
6.9264
20
6.7564
42
0.0746
0
VERTEX
8
0
10
6.8285
20
6.7686
42
0.2115
0
VERTEX
8
0
10
6.6127
20
6.6736
42
0.0582
0
VERTEX
8
0
10
6.5543
20
6.5984
42
0.0716
0
VERTEX
8
0
10
6.4608
20
6.5781
42
0.0993
0
VERTEX
8
0
10
6.3398
20
6.6850
42
0.1244
0
VERTEX
8
0
10
6.1851
20
6.7285
42
0.0271
0
VERTEX
8
0
10
6.1213
20
6.7251
42
-0.0150
0
VERTEX
8
0
10
6.1044
20
6.7241
42
0.1079
0
VERTEX
8
0
10
6.0465
20
6.7285
42
0.0607
0
VERTEX
8
0
10
5.9901
20
6.7216
42
0.0326
0
VERTEX
8
0
10
5.9228
20
6.7285
42
0.1075
0
VERTEX
8
0
10
5.7204
20
6.6845
42
0.0788
0
VERTEX
8
0
10
5.5506
20
6.5771
0
VERTEX
8
0
10
5.5501
20
6.5766
42
0.0713
0
VERTEX
8
0
10
5.4358
20
6.4420
42
-0.0120
0
VERTEX
8
0
10
5.3527
20
6.4593
42
0.0327
0
VERTEX
8
0
10
5.3344
20
6.5192
42
0.1226
0
VERTEX
8
0
10
5.2373
20
6.6607
42
0.1798
0
VERTEX
8
0
10
5.0364
20
6.7345
42
0.0536
0
VERTEX
8
0
10
4.9367
20
6.7236
42
0.1059
0
VERTEX
8
0
10
4.8474
20
6.6795
42
-0.0651
0
VERTEX
8
0
10
4.6835
20
6.8399
42
-0.0057
0
VERTEX
8
0
10
4.6296
20
6.9003
42
-0.0339
0
VERTEX
8
0
10
4.4779
20
7.1040
42
0.0092
0
VERTEX
8
0
10
4.3307
20
7.3110
42
-0.0087
0
VERTEX
8
0
10
4.2846
20
7.3793
42
-0.0184
0
VERTEX
8
0
10
4.2020
20
7.5184
42
0.0056
0
VERTEX
8
0
10
4.1673
20
7.5783
42
0.0108
0
VERTEX
8
0
10
4.1312
20
7.6387
42
0.0792
0
VERTEX
8
0
10
4.0149
20
7.7589
42
0.0193
0
VERTEX
8
0
10
3.9516
20
7.8079
42
0.0925
0
VERTEX
8
0
10
3.4982
20
8.0242
42
0.0136
0
VERTEX
8
0
10
3.3918
20
8.0499
42
0.0442
0
VERTEX
8
0
10
3.1142
20
8.0791
42
0.0124
0
VERTEX
8
0
10
3.0746
20
8.0787
42
0.0515
0
VERTEX
8
0
10
2.8225
20
8.0483
42
0.0724
0
VERTEX
8
0
10
2.5871
20
7.9544
42
0.0104
0
VERTEX
8
0
10
2.5371
20
7.9272
42
0.0537
0
VERTEX
8
0
10
2.3577
20
7.7974
42
0.0990
0
VERTEX
8
0
10
2.2302
20
7.6179
42
0.0444
0
VERTEX
8
0
10
2.2104
20
7.5555
42
0.1167
0
VERTEX
8
0
10
2.2035
20
7.3279
42
0.0335
0
VERTEX
8
0
10
2.2253
20
7.2541
42
0.1164
0
VERTEX
8
0
10
2.3468
20
7.0600
42
0.0817
0
VERTEX
8
0
10
2.5306
20
6.9218
42
0.1325
0
VERTEX
8
0
10
2.9751
20
6.8171
0
VERTEX
8
0
10
2.9889
20
6.8181
0
VERTEX
8
0
10
2.9929
20
6.8181
42
0.0216
0
VERTEX
8
0
10
3.0612
20
6.8245
42
0.0562
0
VERTEX
8
0
10
3.2498
20
6.8706
42
0.0421
0
VERTEX
8
0
10
3.3638
20
6.9195
42
0.0792
0
VERTEX
8
0
10
3.4610
20
6.9960
42
0.2974
0
VERTEX
8
0
10
3.4908
20
7.2294
42
0.1389
0
VERTEX
8
0
10
3.4764
20
7.2591
42
-0.0659
0
VERTEX
8
0
10
3.4462
20
7.2125
42
-0.0648
0
VERTEX
8
0
10
3.4057
20
7.1769
42
-0.1381
0
VERTEX
8
0
10
3.1533
20
7.1175
42
-0.0367
0
VERTEX
8
0
10
3.0661
20
7.1249
42
-0.1117
0
VERTEX
8
0
10
2.8708
20
7.1887
42
-0.1740
0
VERTEX
8
0
10
2.7454
20
7.3472
42
-0.0694
0
VERTEX
8
0
10
2.7410
20
7.3947
42
-0.2541
0
VERTEX
8
0
10
2.8296
20
7.5526
42
-0.0493
0
VERTEX
8
0
10
2.8895
20
7.5897
42
-0.1694
0
VERTEX
8
0
10
3.2690
20
7.6329
42
-0.1087
0
VERTEX
8
0
10
3.6249
20
7.4843
42
-0.0044
0
VERTEX
8
0
10
3.6734
20
7.4506
42
-0.0202
0
VERTEX
8
0
10
3.7278
20
7.4041
42
-0.0212
0
VERTEX
8
0
10
3.7768
20
7.3551
42
-0.1349
0
VERTEX
8
0
10
3.8825
20
7.1897
42
-0.0651
0
VERTEX
8
0
10
3.9189
20
6.9948
42
-0.0264
0
VERTEX
8
0
10
3.9184
20
6.9304
42
-0.0177
0
VERTEX
8
0
10
3.9120
20
6.8681
42
-0.0184
0
VERTEX
8
0
10
3.9016
20
6.8260
42
0.0604
0
VERTEX
8
0
10
3.8253
20
6.8354
42
0.1040
0
VERTEX
8
0
10
3.6672
20
6.8022
42
0.0872
0
VERTEX
8
0
10
3.6032
20
6.7522
42
0.0327
0
VERTEX
8
0
10
3.5517
20
6.6889
0
VERTEX
8
0
10
3.5512
20
6.6879
42
-0.0131
0
VERTEX
8
0
10
3.5243
20
6.6576
42
0.0674
0
VERTEX
8
0
10
3.4477
20
6.5662
42
0.2040
0
VERTEX
8
0
10
3.2082
20
6.6855
42
0.0858
0
VERTEX
8
0
10
3.0717
20
6.6619
42
0.1295
0
VERTEX
8
0
10
2.9627
20
6.5766
0
VERTEX
8
0
10
2.9587
20
6.5731
42
0.0121
0
VERTEX
8
0
10
2.9526
20
6.5671
42
0.0161
0
VERTEX
8
0
10
2.9399
20
6.5563
0
VERTEX
8
0
10
2.9350
20
6.5518
0
VERTEX
8
0
10
2.8702
20
6.4967
42
0.0723
0
VERTEX
8
0
10
2.8181
20
6.4298
42
0.1435
0
VERTEX
8
0
10
2.7821
20
6.2653
42
0.1388
0
VERTEX
8
0
10
2.8192
20
6.1353
42
0.0862
0
VERTEX
8
0
10
2.9043
20
6.0292
42
0.0047
0
VERTEX
8
0
10
2.8979
20
6.0277
42
-0.0221
0
VERTEX
8
0
10
2.7311
20
6.0000
42
-0.0226
0
VERTEX
8
0
10
2.8979
20
5.9728
42
-0.0050
0
VERTEX
8
0
10
2.9355
20
5.9644
42
-0.0023
0
VERTEX
8
0
10
2.9380
20
5.9569
0
VERTEX
8
0
10
2.9385
20
5.9560
0
VERTEX
8
0
10
3.0577
20
5.6060
42
-0.0067
0
VERTEX
8
0
10
3.0859
20
5.5170
42
0.0523
0
VERTEX
8
0
10
3.1592
20
5.3467
42
0.1035
0
VERTEX
8
0
10
3.2706
20
5.2294
42
0.1462
0
VERTEX
8
0
10
3.4260
20
5.1869
42
0.1486
0
VERTEX
8
0
10
3.5823
20
5.2344
42
0.1320
0
VERTEX
8
0
10
3.7323
20
5.1869
42
0.1400
0
VERTEX
8
0
10
3.8847
20
5.2299
42
-0.0173
0
VERTEX
8
0
10
3.9006
20
5.1784
42
-0.0250
0
VERTEX
8
0
10
3.9120
20
5.1319
42
-0.0150
0
VERTEX
8
0
10
3.9184
20
5.0691
42
-0.0289
0
VERTEX
8
0
10
3.9189
20
5.0057
42
-0.0268
0
VERTEX
8
0
10
3.8825
20
4.8108
42
-0.1274
0
VERTEX
8
0
10
3.7768
20
4.6454
42
-0.0322
0
VERTEX
8
0
10
3.7278
20
4.5959
42
-0.0183
0
VERTEX
8
0
10
3.6734
20
4.5494
42
-0.0082
0
VERTEX
8
0
10
3.6249
20
4.5162
42
-0.1027
0
VERTEX
8
0
10
3.2690
20
4.3677
42
-0.1471
0
VERTEX
8
0
10
2.8895
20
4.4108
42
-0.0481
0
VERTEX
8
0
10
2.8296
20
4.4474
42
-0.0871
0
VERTEX
8
0
10
2.7664
20
4.5161
42
-0.1298
0
VERTEX
8
0
10
2.7410
20
4.6053
42
-0.0747
0
VERTEX
8
0
10
2.7454
20
4.6533
42
-0.1271
0
VERTEX
8
0
10
2.7923
20
4.7447
42
-0.0841
0
VERTEX
8
0
10
2.8708
20
4.8118
42
-0.1213
0
VERTEX
8
0
10
3.0661
20
4.8755
42
-0.0360
0
VERTEX
8
0
10
3.1533
20
4.8830
42
-0.1230
0
VERTEX
8
0
10
3.4057
20
4.8231
42
-0.0595
0
VERTEX
8
0
10
3.4462
20
4.7879
42
-0.0741
0
VERTEX
8
0
10
3.4764
20
4.7409
42
0.1545
0
VERTEX
8
0
10
3.4908
20
4.7706
42
0.1069
0
VERTEX
8
0
10
3.5102
20
4.8923
42
0.1570
0
VERTEX
8
0
10
3.4609
20
5.0044
42
0.0999
0
VERTEX
8
0
10
3.3637
20
5.0809
42
0.0515
0
VERTEX
8
0
10
3.2498
20
5.1299
42
0.0596
0
VERTEX
8
0
10
3.0612
20
5.1760
42
0.0258
0
VERTEX
8
0
10
2.9929
20
5.1824
0
VERTEX
8
0
10
2.9889
20
5.1824
0
VERTEX
8
0
10
2.9751
20
5.1829
42
0.1267
0
VERTEX
8
0
10
2.5306
20
5.0785
42
0.0754
0
VERTEX
8
0
10
2.3469
20
4.9404
42
0.1022
0
VERTEX
8
0
10
2.2253
20
4.7464
42
0.0348
0
VERTEX
8
0
10
2.2035
20
4.6726
42
0.1164
0
VERTEX
8
0
10
2.2104
20
4.4445
0
SEQEND
8
0
0
POLYLINE
8
Layer 1
66
1
0
VERTEX
8
0
10
0.4183
20
4.1554
42
0.0106
0
VERTEX
8
0
10
0.4530
20
4.1173
42
0.0242
0
VERTEX
8
0
10
0.5646
20
4.0234
42
0.0615
0
VERTEX
8
0
10
0.6925
20
3.9540
42
0.0052
0
VERTEX
8
0
10
0.7465
20
3.9263
42
0.0470
0
VERTEX
8
0
10
1.0281
20
3.8204
42
0.0139
0
VERTEX
8
0
10
1.0979
20
3.8041
42
0.0687
0
VERTEX
8
0
10
1.4329
20
3.7882
42
0.0358
0
VERTEX
8
0
10
1.5121
20
3.8060
42
0.0719
0
VERTEX
8
0
10
1.6159
20
3.8521
42
0.1077
0
VERTEX
8
0
10
1.6950
20
3.9330
42
0.3121
0
VERTEX
8
0
10
1.6794
20
4.1465
42
0.1517
0
VERTEX
8
0
10
1.4032
20
4.3024
42
0.0208
0
VERTEX
8
0
10
1.3131
20
4.3272
42
-0.0844
0
VERTEX
8
0
10
0.8867
20
4.5108
42
-0.0601
0
VERTEX
8
0
10
0.7079
20
4.6593
42
-0.0955
0
VERTEX
8
0
10
0.5876
20
4.8572
42
-0.0264
0
VERTEX
8
0
10
0.5728
20
4.9097
42
-0.1173
0
VERTEX
8
0
10
0.6083
20
5.2186
42
-0.1099
0
VERTEX
8
0
10
0.7767
20
5.4808
42
-0.0215
0
VERTEX
8
0
10
0.8365
20
5.5368
42
-0.0746
0
VERTEX
8
0
10
1.2038
20
5.7714
42
0.0963
0
VERTEX
8
0
10
0.9880
20
5.5749
42
0.0330
0
VERTEX
8
0
10
0.9524
20
5.5179
42
0.1967
0
VERTEX
8
0
10
0.9110
20
5.1390
42
0.1284
0
VERTEX
8
0
10
1.0188
20
4.9776
42
0.1040
0
VERTEX
8
0
10
1.1874
20
4.8800
42
0.0369
0
VERTEX
8
0
10
1.2602
20
4.8632
42
0.0438
0
VERTEX
8
0
10
1.3854
20
4.8523
42
0.0217
0
VERTEX
8
0
10
1.4547
20
4.8548
42
0.0911
0
VERTEX
8
0
10
1.6409
20
4.9045
42
0.2054
0
VERTEX
8
0
10
1.7554
20
5.0544
42
0.1281
0
VERTEX
8
0
10
1.7534
20
5.2471
42
0.0455
0
VERTEX
8
0
10
1.6997
20
5.4323
42
-0.0360
0
VERTEX
8
0
10
1.6942
20
5.4942
42
-0.0252
0
VERTEX
8
0
10
1.6942
20
5.5501
42
-0.0443
0
VERTEX
8
0
10
1.7036
20
5.6070
42
-0.0511
0
VERTEX
8
0
10
1.7269
20
5.6743
42
-0.0742
0
VERTEX
8
0
10
1.7690
20
5.7585
42
-0.0613
0
VERTEX
8
0
10
1.8333
20
5.8288
42
-0.1018
0
VERTEX
8
0
10
2.0579
20
5.9481
42
-0.0575
0
VERTEX
8
0
10
2.3079
20
6.0000
42
-0.0476
0
VERTEX
8
0
10
2.0580
20
6.0517
42
-0.0848
0
VERTEX
8
0
10
1.8333
20
6.1707
42
-0.0646
0
VERTEX
8
0
10
1.7690
20
6.2410
42
-0.0689
0
VERTEX
8
0
10
1.7269
20
6.3252
42
-0.0471
0
VERTEX
8
0
10
1.7036
20
6.3925
42
-0.0428
0
VERTEX
8
0
10
1.6942
20
6.4489
42
-0.0366
0
VERTEX
8
0
10
1.6942
20
6.5053
42
-0.0323
0
VERTEX
8
0
10
1.6997
20
6.5667
42
0.0306
0
VERTEX
8
0
10
1.7536
20
6.7532
42
0.0914
0
VERTEX
8
0
10
1.7551
20
6.9460
42
0.2066
0
VERTEX
8
0
10
1.6400
20
7.0954
42
0.1255
0
VERTEX
8
0
10
1.4547
20
7.1447
42
0.0179
0
VERTEX
8
0
10
1.3854
20
7.1472
42
0.0405
0
VERTEX
8
0
10
1.2602
20
7.1358
42
0.0267
0
VERTEX
8
0
10
1.1874
20
7.1190
42
0.0899
0
VERTEX
8
0
10
1.0188
20
7.0214
42
0.1255
0
VERTEX
8
0
10
0.9110
20
6.8602
42
0.1188
0
VERTEX
8
0
10
0.8922
20
6.6668
42
0.0960
0
VERTEX
8
0
10
0.9524
20
6.4816
42
0.0200
0
VERTEX
8
0
10
0.9880
20
6.4246
42
0.1062
0
VERTEX
8
0
10
1.2038
20
6.2282
42
-0.0649
0
VERTEX
8
0
10
0.8365
20
6.4623
42
-0.0216
0
VERTEX
8
0
10
0.7767
20
6.5187
42
-0.1007
0
VERTEX
8
0
10
0.6083
20
6.7809
42
-0.1192
0
VERTEX
8
0
10
0.5728
20
7.0898
42
-0.0303
0
VERTEX
8
0
10
0.5876
20
7.1423
42
-0.1073
0
VERTEX
8
0
10
0.7078
20
7.3400
42
-0.0706
0
VERTEX
8
0
10
0.8866
20
7.4885
42
-0.0838
0
VERTEX
8
0
10
1.3131
20
7.6718
42
0.0191
0
VERTEX
8
0
10
1.4032
20
7.6966
42
0.1403
0
VERTEX
8
0
10
1.6794
20
7.8525
42
0.3045
0
VERTEX
8
0
10
1.6950
20
8.0661
42
0.1226
0
VERTEX
8
0
10
1.6159
20
8.1469
42
0.0819
0
VERTEX
8
0
10
1.5121
20
8.1930
42
0.0359
0
VERTEX
8
0
10
1.4329
20
8.2118
42
0.0594
0
VERTEX
8
0
10
1.2648
20
8.2172
42
0.0321
0
VERTEX
8
0
10
1.0979
20
8.1950
42
0.0113
0
VERTEX
8
0
10
1.0281
20
8.1786
42
0.0514
0
VERTEX
8
0
10
0.7465
20
8.0727
42
0.0039
0
VERTEX
8
0
10
0.6925
20
8.0450
42
0.0680
0
VERTEX
8
0
10
0.5646
20
7.9758
42
0.0406
0
VERTEX
8
0
10
0.4530
20
7.8822
42
0.0187
0
VERTEX
8
0
10
0.4183
20
7.8436
42
0.0333
0
VERTEX
8
0
10
0.3006
20
7.6852
42
-0.0749
0
VERTEX
8
0
10
0.3426
20
7.8248
42
-0.0107
0
VERTEX
8
0
10
0.3644
20
7.8693
42
-0.0051
0
VERTEX
8
0
10
0.4971
20
8.0679
42
-0.0526
0
VERTEX
8
0
10
0.6584
20
8.2435
42
-0.0240
0
VERTEX
8
0
10
0.6960
20
8.2741
42
-0.0422
0
VERTEX
8
0
10
0.8433
20
8.3672
42
0.0149
0
VERTEX
8
0
10
0.9919
20
8.4583
42
-0.0083
0
VERTEX
8
0
10
1.0558
20
8.4875
42
-0.0054
0
VERTEX
8
0
10
1.1211
20
8.5162
42
-0.0121
0
VERTEX
8
0
10
1.1835
20
8.5364
42
-0.0154
0
VERTEX
8
0
10
1.3725
20
8.5884
42
-0.0165
0
VERTEX
8
0
10
1.4438
20
8.5978
42
-0.0417
0
VERTEX
8
0
10
1.8140
20
8.6052
42
-0.0069
0
VERTEX
8
0
10
1.8779
20
8.5988
42
-0.0750
0
VERTEX
8
0
10
2.4841
20
8.4360
42
0.0252
0
VERTEX
8
0
10
2.6311
20
8.3731
42
0.0181
0
VERTEX
8
0
10
2.6945
20
8.3523
42
0.1273
0
VERTEX
8
0
10
2.8866
20
8.3277
42
0.0814
0
VERTEX
8
0
10
2.9803
20
8.3537
42
0.1718
0
VERTEX
8
0
10
3.0459
20
8.4231
42
0.0623
0
VERTEX
8
0
10
3.0557
20
8.4647
42
0.2508
0
VERTEX
8
0
10
2.9998
20
8.5974
42
0.0893
0
VERTEX
8
0
10
2.8786
20
8.6829
42
0.0113
0
VERTEX
8
0
10
2.8291
20
8.7067
42
0.0724
0
VERTEX
8
0
10
2.3511
20
8.8236
42
0.0310
0
VERTEX
8
0
10
1.8590
20
8.8562
42
-0.0239
0
VERTEX
8
0
10
2.3421
20
8.8844
42
-0.0522
0
VERTEX
8
0
10
2.9632
20
8.8200
42
-0.0109
0
VERTEX
8
0
10
3.0572
20
8.7978
42
-0.0811
0
VERTEX
8
0
10
3.6056
20
8.5528
42
-0.0229
0
VERTEX
8
0
10
3.6779
20
8.4969
42
0.0326
0
VERTEX
8
0
10
3.7588
20
8.4213
42
-0.0374
0
VERTEX
8
0
10
3.8352
20
8.3414
42
-0.0159
0
VERTEX
8
0
10
3.8694
20
8.2959
42
-0.0489
0
VERTEX
8
0
10
3.9372
20
8.1776
42
0.0710
0
VERTEX
8
0
10
4.0160
20
8.0381
42
0.1524
0
VERTEX
8
0
10
4.1490
20
7.9529
42
0.1110
0
VERTEX
8
0
10
4.2455
20
7.9529
42
0.0695
0
VERTEX
8
0
10
4.3094
20
7.9920
42
0.0809
0
VERTEX
8
0
10
4.3500
20
8.0400
42
0.0450
0
VERTEX
8
0
10
4.3648
20
8.1064
42
0.0430
0
VERTEX
8
0
10
4.3688
20
8.1727
42
0.1085
0
VERTEX
8
0
10
4.2949
20
8.3539
42
0.0627
0
VERTEX
8
0
10
4.1687
20
8.5047
42
0.0550
0
VERTEX
8
0
10
3.8585
20
8.7468
42
-0.0776
0
VERTEX
8
0
10
4.2234
20
8.6236
42
-0.0631
0
VERTEX
8
0
10
4.5420
20
8.4063
42
-0.0125
0
VERTEX
8
0
10
4.6004
20
8.3533
42
-0.0553
0
VERTEX
8
0
10
4.7979
20
8.0519
42
-0.0084
0
VERTEX
8
0
10
4.8281
20
7.9886
42
-0.0728
0
VERTEX
8
0
10
4.9260
20
7.6585
42
-0.0789
0
VERTEX
8
0
10
5.1442
20
7.8660
42
-0.0608
0
VERTEX
8
0
10
5.4095
20
8.0093
42
-0.0988
0
VERTEX
8
0
10
6.0000
20
8.1197
42
-0.0927
0
VERTEX
8
0
10
6.5906
20
8.0093
42
-0.0569
0
VERTEX
8
0
10
6.8558
20
7.8660
42
-0.0718
0
VERTEX
8
0
10
7.0740
20
7.6585
42
-0.0548
0
VERTEX
8
0
10
7.1720
20
7.9886
42
-0.0114
0
VERTEX
8
0
10
7.2022
20
8.0519
42
-0.0553
0
VERTEX
8
0
10
7.3996
20
8.3533
42
-0.0086
0
VERTEX
8
0
10
7.4580
20
8.4063
42
-0.0572
0
VERTEX
8
0
10
7.7767
20
8.6236
42
-0.0737
0
VERTEX
8
0
10
8.1415
20
8.7468
42
0.0342
0
VERTEX
8
0
10
7.8313
20
8.5047
42
0.0506
0
VERTEX
8
0
10
7.7051
20
8.3539
42
0.0926
0
VERTEX
8
0
10
7.6313
20
8.1727
42
0.0411
0
VERTEX
8
0
10
7.6352
20
8.1064
42
0.0367
0
VERTEX
8
0
10
7.6501
20
8.0400
42
0.0901
0
VERTEX
8
0
10
7.6906
20
7.9920
42
0.0772
0
VERTEX
8
0
10
7.7545
20
7.9529
42
0.1023
0
VERTEX
8
0
10
7.8510
20
7.9529
42
0.1789
0
VERTEX
8
0
10
7.9840
20
8.0381
42
0.0920
0
VERTEX
8
0
10
8.0628
20
8.1776
42
-0.0777
0
VERTEX
8
0
10
8.1306
20
8.2959
42
-0.0146
0
VERTEX
8
0
10
8.1648
20
8.3414
42
-0.0662
0
VERTEX
8
0
10
8.2412
20
8.4213
42
0.0092
0
VERTEX
8
0
10
8.3222
20
8.4969
42
-0.0152
0
VERTEX
8
0
10
8.3944
20
8.5528
42
-0.0969
0
VERTEX
8
0
10
8.9428
20
8.7978
42
-0.0125
0
VERTEX
8
0
10
9.0368
20
8.8200
42
-0.0604
0
VERTEX
8
0
10
9.6579
20
8.8844
42
-0.0282
0
VERTEX
8
0
10
10.1410
20
8.8562
42
0.0211
0
VERTEX
8
0
10
9.6489
20
8.8236
42
0.0560
0
VERTEX
8
0
10
9.1709
20
8.7067
42
0.0114
0
VERTEX
8
0
10
9.1215
20
8.6829
42
0.0653
0
VERTEX
8
0
10
9.0002
20
8.5974
42
0.1908
0
VERTEX
8
0
10
8.9443
20
8.4647
42
0.0660
0
VERTEX
8
0
10
8.9542
20
8.4231
42
0.2071
0
VERTEX
8
0
10
9.0197
20
8.3538
42
0.1017
0
VERTEX
8
0
10
9.1134
20
8.3277
42
0.1182
0
VERTEX
8
0
10
9.3056
20
8.3523
42
0.0178
0
VERTEX
8
0
10
9.3689
20
8.3731
42
0.0309
0
VERTEX
8
0
10
9.5159
20
8.4360
42
-0.0529
0
VERTEX
8
0
10
9.8129
20
8.5401
42
-0.0362
0
VERTEX
8
0
10
10.1222
20
8.5988
42
-0.0093
0
VERTEX
8
0
10
10.1860
20
8.6052
42
-0.0174
0
VERTEX
8
0
10
10.5562
20
8.5978
42
-0.0138
0
VERTEX
8
0
10
10.6275
20
8.5884
42
-0.0124
0
VERTEX
8
0
10
10.8165
20
8.5364
42
-0.0051
0
VERTEX
8
0
10
10.8789
20
8.5162
0
VERTEX
8
0
10
10.9442
20
8.4875
0
VERTEX
8
0
10
11.0081
20
8.4583
42
0.0319
0
VERTEX
8
0
10
11.1567
20
8.3672
42
-0.0218
0
VERTEX
8
0
10
11.3040
20
8.2741
42
-0.0209
0
VERTEX
8
0
10
11.3417
20
8.2435
42
-0.0581
0
VERTEX
8
0
10
11.5029
20
8.0679
42
-0.0247
0
VERTEX
8
0
10
11.6356
20
7.8693
42
-0.0155
0
VERTEX
8
0
10
11.6574
20
7.8248
42
-0.0644
0
VERTEX
8
0
10
11.6995
20
7.6852
42
0.0134
0
VERTEX
8
0
10
11.5817
20
7.8436
0
VERTEX
8
0
10
11.5470
20
7.8822
42
0.0262
0
VERTEX
8
0
10
11.4354
20
7.9758
42
0.0619
0
VERTEX
8
0
10
11.3075
20
8.0450
42
0.0048
0
VERTEX
8
0
10
11.2536
20
8.0727
42
0.0470
0
VERTEX
8
0
10
10.9720
20
8.1786
42
0.0165
0
VERTEX
8
0
10
10.9022
20
8.1950
42
0.0251
0
VERTEX
8
0
10
10.7352
20
8.2172
42
0.0500
0
VERTEX
8
0
10
10.5671
20
8.2118
42
0.0376
0
VERTEX
8
0
10
10.4879
20
8.1930
42
0.0719
0
VERTEX
8
0
10
10.3841
20
8.1469
42
0.1075
0
VERTEX
8
0
10
10.3050
20
8.0661
42
0.3111
0
VERTEX
8
0
10
10.3206
20
7.8525
42
0.1525
0
VERTEX
8
0
10
10.5968
20
7.6966
42
0.0207
0
VERTEX
8
0
10
10.6869
20
7.6718
42
-0.0844
0
VERTEX
8
0
10
11.1133
20
7.4886
42
-0.0602
0
VERTEX
8
0
10
11.2921
20
7.3401
42
-0.0956
0
VERTEX
8
0
10
11.4124
20
7.1423
42
-0.0264
0
VERTEX
8
0
10
11.4273
20
7.0898
42
-0.2351
0
VERTEX
8
0
10
11.2234
20
6.5187
42
-0.0194
0
VERTEX
8
0
10
11.1635
20
6.4623
42
-0.0764
0
VERTEX
8
0
10
10.7963
20
6.2282
42
0.0963
0
VERTEX
8
0
10
11.0120
20
6.4246
42
0.0334
0
VERTEX
8
0
10
11.0477
20
6.4816
42
0.1972
0
VERTEX
8
0
10
11.0890
20
6.8603
42
0.1285
0
VERTEX
8
0
10
10.9811
20
7.0215
42
0.1040
0
VERTEX
8
0
10
10.8126
20
7.1190
42
0.0369
0
VERTEX
8
0
10
10.7398
20
7.1358
42
0.0419
0
VERTEX
8
0
10
10.6146
20
7.1472
42
0.0217
0
VERTEX
8
0
10
10.5453
20
7.1447
42
0.0913
0
VERTEX
8
0
10
10.3590
20
7.0949
42
0.2055
0
VERTEX
8
0
10
10.2446
20
6.9449
42
0.1281
0
VERTEX
8
0
10
10.2466
20
6.7521
42
0.0455
0
VERTEX
8
0
10
10.3003
20
6.5667
42
-0.0360
0
VERTEX
8
0
10
10.3058
20
6.5053
42
-0.0250
0
VERTEX
8
0
10
10.3058
20
6.4489
42
-0.0445
0
VERTEX
8
0
10
10.2964
20
6.3925
42
-0.0525
0
VERTEX
8
0
10
10.2731
20
6.3252
42
-0.0742
0
VERTEX
8
0
10
10.2311
20
6.2410
42
-0.0613
0
VERTEX
8
0
10
10.1667
20
6.1707
42
-0.1023
0
VERTEX
8
0
10
9.9421
20
6.0517
42
-0.0572
0
VERTEX
8
0
10
9.6921
20
6.0000
42
-0.0480
0
VERTEX
8
0
10
9.9421
20
5.9481
42
-0.0844
0
VERTEX
8
0
10
10.1667
20
5.8288
42
-0.0680
0
VERTEX
8
0
10
10.2311
20
5.7585
42
-0.0689
0
VERTEX
8
0
10
10.2731
20
5.6743
42
-0.0458
0
VERTEX
8
0
10
10.2964
20
5.6070
42
-0.0440
0
VERTEX
8
0
10
10.3058
20
5.5501
42
-0.0365
0
VERTEX
8
0
10
10.3058
20
5.4942
42
-0.0331
0
VERTEX
8
0
10
10.3003
20
5.4323
42
0.0309
0
VERTEX
8
0
10
10.2464
20
5.2460
42
0.0913
0
VERTEX
8
0
10
10.2449
20
5.0533
42
0.2070
0
VERTEX
8
0
10
10.3601
20
4.9040
42
0.1254
0
VERTEX
8
0
10
10.5453
20
4.8548
42
0.0178
0
VERTEX
8
0
10
10.6146
20
4.8523
42
0.0405
0
VERTEX
8
0
10
10.7398
20
4.8632
42
0.0267
0
VERTEX
8
0
10
10.8126
20
4.8800
42
0.0901
0
VERTEX
8
0
10
10.9812
20
4.9777
42
0.1253
0
VERTEX
8
0
10
11.0890
20
5.1390
42
0.1188
0
VERTEX
8
0
10
11.1078
20
5.3325
42
0.0960
0
VERTEX
8
0
10
11.0477
20
5.5179
42
0.0194
0
VERTEX
8
0
10
11.0120
20
5.5749
42
0.1062
0
VERTEX
8
0
10
10.7963
20
5.7714
42
-0.0652
0
VERTEX
8
0
10
11.1635
20
5.5368
42
-0.0156
0
VERTEX
8
0
10
11.2234
20
5.4808
42
-0.1007
0
VERTEX
8
0
10
11.3917
20
5.2186
42
-0.1190
0
VERTEX
8
0
10
11.4273
20
4.9097
42
-0.0303
0
VERTEX
8
0
10
11.4124
20
4.8572
42
-0.1073
0
VERTEX
8
0
10
11.2922
20
4.6594
42
-0.0706
0
VERTEX
8
0
10
11.1134
20
4.5108
42
-0.0838
0
VERTEX
8
0
10
10.6869
20
4.3272
42
0.0191
0
VERTEX
8
0
10
10.5968
20
4.3024
42
0.1384
0
VERTEX
8
0
10
10.3206
20
4.1465
42
0.3045
0
VERTEX
8
0
10
10.3050
20
3.9329
42
0.1226
0
VERTEX
8
0
10
10.3841
20
3.8521
42
0.0820
0
VERTEX
8
0
10
10.4879
20
3.8060
42
0.0421
0
VERTEX
8
0
10
10.5671
20
3.7882
42
0.0578
0
VERTEX
8
0
10
10.7352
20
3.7823
42
0.0334
0
VERTEX
8
0
10
10.9022
20
3.8041
42
0.0086
0
VERTEX
8
0
10
10.9720
20
3.8204
42
0.0514
0
VERTEX
8
0
10
11.2536
20
3.9263
42
0.0037
0
VERTEX
8
0
10
11.3075
20
3.9540
42
0.0679
0
VERTEX
8
0
10
11.4354
20
4.0234
42
0.0399
0
VERTEX
8
0
10
11.5470
20
4.1173
42
0.0140
0
VERTEX
8
0
10
11.5817
20
4.1554
42
0.0325
0
VERTEX
8
0
10
11.6995
20
4.3138
42
-0.0749
0
VERTEX
8
0
10
11.6574
20
4.1743
42
-0.0117
0
VERTEX
8
0
10
11.6356
20
4.1302
42
-0.0028
0
VERTEX
8
0
10
11.5029
20
3.9316
42
-0.0526
0
VERTEX
8
0
10
11.3417
20
3.7560
42
-0.0215
0
VERTEX
8
0
10
11.3040
20
3.7249
42
-0.0423
0
VERTEX
8
0
10
11.1567
20
3.6318
42
0.0149
0
VERTEX
8
0
10
11.0081
20
3.5408
42
-0.0078
0
VERTEX
8
0
10
10.9442
20
3.5120
42
-0.0050
0
VERTEX
8
0
10
10.8789
20
3.4833
42
-0.0089
0
VERTEX
8
0
10
10.8165
20
3.4626
42
-0.0184
0
VERTEX
8
0
10
10.6275
20
3.4111
42
-0.0211
0
VERTEX
8
0
10
10.5562
20
3.4017
42
-0.0424
0
VERTEX
8
0
10
10.1860
20
3.3948
42
-0.0042
0
VERTEX
8
0
10
10.1222
20
3.4007
42
-0.0745
0
VERTEX
8
0
10
9.5159
20
3.5635
42
0.0253
0
VERTEX
8
0
10
9.3689
20
3.6259
42
0.0174
0
VERTEX
8
0
10
9.3056
20
3.6467
42
0.1260
0
VERTEX
8
0
10
9.1135
20
3.6717
42
0.0804
0
VERTEX
8
0
10
9.0198
20
3.6461
42
0.1721
0
VERTEX
8
0
10
8.9542
20
3.5769
42
0.0616
0
VERTEX
8
0
10
8.9443
20
3.5348
42
0.2509
0
VERTEX
8
0
10
9.0002
20
3.4021
42
0.0893
0
VERTEX
8
0
10
9.1215
20
3.3166
42
0.0066
0
VERTEX
8
0
10
9.1709
20
3.2923
42
0.0726
0
VERTEX
8
0
10
9.6489
20
3.1756
42
0.0309
0
VERTEX
8
0
10
10.1410
20
3.1433
42
-0.0289
0
VERTEX
8
0
10
9.5871
20
3.1160
42
-0.0475
0
VERTEX
8
0
10
9.0368
20
3.1795
42
-0.0092
0
VERTEX
8
0
10
8.9433
20
3.2012
42
-0.0813
0
VERTEX
8
0
10
8.3944
20
3.4467
42
-0.0213
0
VERTEX
8
0
10
8.3222
20
3.5021
42
0.0324
0
VERTEX
8
0
10
8.2413
20
3.5782
42
-0.0368
0
VERTEX
8
0
10
8.1648
20
3.6585
42
-0.0112
0
VERTEX
8
0
10
8.1306
20
3.7031
42
-0.0487
0
VERTEX
8
0
10
8.0628
20
3.8219
42
0.0712
0
VERTEX
8
0
10
7.9840
20
3.9615
42
0.1512
0
VERTEX
8
0
10
7.8510
20
4.0471
42
0.1143
0
VERTEX
8
0
10
7.7545
20
4.0461
42
0.0622
0
VERTEX
8
0
10
7.6906
20
4.0075
42
0.0806
0
VERTEX
8
0
10
7.6501
20
3.9590
42
0.0429
0
VERTEX
8
0
10
7.6352
20
3.8936
42
0.0436
0
VERTEX
8
0
10
7.6313
20
3.8263
42
0.1086
0
VERTEX
8
0
10
7.7051
20
3.6451
42
0.0625
0
VERTEX
8
0
10
7.8314
20
3.4944
42
0.0547
0
VERTEX
8
0
10
8.1415
20
3.2522
42
-0.0771
0
VERTEX
8
0
10
7.7767
20
3.3755
42
-0.0628
0
VERTEX
8
0
10
7.4580
20
3.5927
42
-0.0133
0
VERTEX
8
0
10
7.3996
20
3.6462
42
-0.0554
0
VERTEX
8
0
10
7.2022
20
3.9471
42
-0.0086
0
VERTEX
8
0
10
7.1720
20
4.0109
42
-0.0777
0
VERTEX
8
0
10
7.0680
20
4.3742
42
-0.0775
0
VERTEX
8
0
10
6.8499
20
4.1701
42
-0.0601
0
VERTEX
8
0
10
6.5861
20
4.0290
42
-0.0978
0
VERTEX
8
0
10
6.0000
20
3.9204
42
-0.0919
0
VERTEX
8
0
10
5.4139
20
4.0290
42
-0.0562
0
VERTEX
8
0
10
5.1501
20
4.1701
42
-0.0708
0
VERTEX
8
0
10
4.9320
20
4.3742
42
-0.0550
0
VERTEX
8
0
10
4.8281
20
4.0109
42
-0.0106
0
VERTEX
8
0
10
4.7979
20
3.9471
42
-0.0554
0
VERTEX
8
0
10
4.6004
20
3.6462
42
-0.0046
0
VERTEX
8
0
10
4.5420
20
3.5927
42
-0.0570
0
VERTEX
8
0
10
4.2233
20
3.3755
42
-0.0734
0
VERTEX
8
0
10
3.8585
20
3.2522
42
0.0338
0
VERTEX
8
0
10
4.1687
20
3.4944
42
0.0507
0
VERTEX
8
0
10
4.2949
20
3.6451
42
0.0929
0
VERTEX
8
0
10
4.3688
20
3.8263
42
0.0405
0
VERTEX
8
0
10
4.3648
20
3.8936
42
0.0390
0
VERTEX
8
0
10
4.3500
20
3.9590
42
0.0862
0
VERTEX
8
0
10
4.3094
20
4.0075
42
0.0789
0
VERTEX
8
0
10
4.2455
20
4.0461
42
0.0932
0
VERTEX
8
0
10
4.1490
20
4.0471
42
0.1802
0
VERTEX
8
0
10
4.0160
20
3.9615
42
0.0919
0
VERTEX
8
0
10
3.9372
20
3.8219
42
-0.0777
0
VERTEX
8
0
10
3.8694
20
3.7031
42
-0.0192
0
VERTEX
8
0
10
3.8352
20
3.6585
42
-0.0638
0
VERTEX
8
0
10
3.7588
20
3.5782
42
0.0092
0
VERTEX
8
0
10
3.6779
20
3.5021
42
-0.0160
0
VERTEX
8
0
10
3.6056
20
3.4467
42
-0.0529
0
VERTEX
8
0
10
3.3422
20
3.2997
42
-0.0404
0
VERTEX
8
0
10
3.0567
20
3.2012
42
-0.0137
0
VERTEX
8
0
10
2.9632
20
3.1795
42
-0.0549
0
VERTEX
8
0
10
2.4129
20
3.1160
42
-0.0347
0
VERTEX
8
0
10
1.8590
20
3.1433
42
0.0208
0
VERTEX
8
0
10
2.3511
20
3.1756
42
0.0561
0
VERTEX
8
0
10
2.8291
20
3.2923
42
0.0156
0
VERTEX
8
0
10
2.8786
20
3.3166
42
0.0653
0
VERTEX
8
0
10
2.9998
20
3.4021
42
0.1909
0
VERTEX
8
0
10
3.0557
20
3.5348
42
0.0656
0
VERTEX
8
0
10
3.0459
20
3.5769
42
0.2080
0
VERTEX
8
0
10
2.9802
20
3.6461
42
0.1029
0
VERTEX
8
0
10
2.8865
20
3.6717
42
0.1186
0
VERTEX
8
0
10
2.6945
20
3.6467
42
0.0179
0
VERTEX
8
0
10
2.6311
20
3.6259
42
0.0288
0
VERTEX
8
0
10
2.4841
20
3.5635
42
-0.0524
0
VERTEX
8
0
10
2.1871
20
3.4595
42
-0.0360
0
VERTEX
8
0
10
1.8779
20
3.4007
42
-0.0123
0
VERTEX
8
0
10
1.8140
20
3.3948
42
-0.0167
0
VERTEX
8
0
10
1.4438
20
3.4017
42
-0.0152
0
VERTEX
8
0
10
1.3725
20
3.4111
42
-0.0123
0
VERTEX
8
0
10
1.1835
20
3.4626
42
-0.0108
0
VERTEX
8
0
10
1.1211
20
3.4833
0
VERTEX
8
0
10
1.0558
20
3.5120
0
VERTEX
8
0
10
0.9919
20
3.5408
42
0.0318
0
VERTEX
8
0
10
0.8433
20
3.6318
42
-0.0211
0
VERTEX
8
0
10
0.6960
20
3.7249
42
-0.0249
0
VERTEX
8
0
10
0.6584
20
3.7560
42
-0.0567
0
VERTEX
8
0
10
0.4971
20
3.9316
42
-0.0242
0
VERTEX
8
0
10
0.3644
20
4.1302
42
-0.0136
0
VERTEX
8
0
10
0.3426
20
4.1743
42
-0.0644
0
VERTEX
8
0
10
0.3006
20
4.3138
42
0.0117
0
VERTEX
8
0
10
0.4183
20
4.1554
0
SEQEND
8
0
0
POLYLINE
8
Layer 1
66
1
0
VERTEX
8
0
10
0.1135
20
3.9654
42
-0.0238
0
VERTEX
8
0
10
0.0986
20
3.9901
42
-0.0086
0
VERTEX
8
0
10
0.0704
20
4.0480
0
VERTEX
8
0
10
0.0684
20
4.0520
42
-0.0734
0
VERTEX
8
0
10
0.0031
20
4.2713
42
-0.2516
0
VERTEX
8
0
10
0.1001
20
4.5385
42
-0.2514
0
VERTEX
8
0
10
0.3768
20
4.6048
42
-0.0548
0
VERTEX
8
0
10
0.3034
20
4.7602
42
-0.0281
0
VERTEX
8
0
10
0.2793
20
4.8459
42
-0.0241
0
VERTEX
8
0
10
0.2743
20
4.8746
42
-0.1145
0
VERTEX
8
0
10
0.3257
20
5.3147
42
-0.1062
0
VERTEX
8
0
10
0.5614
20
5.6907
0
VERTEX
8
0
10
0.5614
20
5.6907
42
-0.0189
0
VERTEX
8
0
10
0.6386
20
5.7634
42
-0.0550
0
VERTEX
8
0
10
0.9900
20
6.0000
42
-0.0623
0
VERTEX
8
0
10
0.6396
20
6.2361
42
-0.0204
0
VERTEX
8
0
10
0.5624
20
6.3088
0
VERTEX
8
0
10
0.5624
20
6.3088
42
-0.1086
0
VERTEX
8
0
10
0.3257
20
6.6858
42
-0.1184
0
VERTEX
8
0
10
0.2743
20
7.1259
42
-0.0242
0
VERTEX
8
0
10
0.2793
20
7.1546
42
-0.0307
0
VERTEX
8
0
10
0.3088
20
7.2549
42
-0.0405
0
VERTEX
8
0
10
0.3768
20
7.3957
42
-0.2513
0
VERTEX
8
0
10
0.1006
20
7.4620
42
-0.2513
0
VERTEX
8
0
10
0.0031
20
7.7287
42
-0.0650
0
VERTEX
8
0
10
0.0684
20
7.9480
0
VERTEX
8
0
10
0.0704
20
7.9520
42
-0.0181
0
VERTEX
8
0
10
0.0986
20
8.0104
42
-0.0236
0
VERTEX
8
0
10
0.1135
20
8.0346
42
-0.0306
0
VERTEX
8
0
10
0.2678
20
8.2647
42
-0.0528
0
VERTEX
8
0
10
0.4569
20
8.4667
42
-0.0217
0
VERTEX
8
0
10
0.5148
20
8.5142
42
-0.0275
0
VERTEX
8
0
10
0.6642
20
8.6132
42
0.0404
0
VERTEX
8
0
10
0.8187
20
8.7042
42
-0.0419
0
VERTEX
8
0
10
0.8623
20
8.7295
42
-0.0028
0
VERTEX
8
0
10
0.9321
20
8.7616
42
0.0041
0
VERTEX
8
0
10
0.9989
20
8.7908
42
-0.0194
0
VERTEX
8
0
10
1.0207
20
8.7997
42
-0.0057
0
VERTEX
8
0
10
1.0929
20
8.8235
0
VERTEX
8
0
10
1.0929
20
8.8235
42
-0.0113
0
VERTEX
8
0
10
1.2998
20
8.8804
42
-0.0198
0
VERTEX
8
0
10
1.3230
20
8.8854
42
-0.0133
0
VERTEX
8
0
10
1.4131
20
8.8972
42
-0.0100
0
VERTEX
8
0
10
1.5631
20
8.9047
42
-0.3376
0
VERTEX
8
0
10
1.8274
20
9.1551
42
-0.0287
0
VERTEX
8
0
10
2.3416
20
9.1853
42
-0.0604
0
VERTEX
8
0
10
3.0256
20
9.1145
42
-0.0121
0
VERTEX
8
0
10
3.1339
20
9.0888
42
-0.0609
0
VERTEX
8
0
10
3.6031
20
8.9052
42
-0.3058
0
VERTEX
8
0
10
3.9095
20
9.0432
42
-0.0727
0
VERTEX
8
0
10
4.3518
20
8.8956
42
-0.0590
0
VERTEX
8
0
10
4.7385
20
8.6339
42
-0.0066
0
VERTEX
8
0
10
4.8053
20
8.5731
42
-0.0318
0
VERTEX
8
0
10
4.8315
20
8.5454
42
-0.0556
0
VERTEX
8
0
10
5.0665
20
8.1867
42
0.0083
0
VERTEX
8
0
10
5.0706
20
8.1781
42
-0.0705
0
VERTEX
8
0
10
5.5187
20
8.3620
42
-0.0607
0
VERTEX
8
0
10
6.0000
20
8.4206
42
-0.0634
0
VERTEX
8
0
10
6.4813
20
8.3620
42
-0.0752
0
VERTEX
8
0
10
6.9295
20
8.1781
42
-0.0095
0
VERTEX
8
0
10
6.9341
20
8.1879
42
-0.0554
0
VERTEX
8
0
10
7.1685
20
8.5454
42
-0.0318
0
VERTEX
8
0
10
7.1947
20
8.5731
42
-0.0125
0
VERTEX
8
0
10
7.2616
20
8.6339
42
-0.0638
0
VERTEX
8
0
10
7.6482
20
8.8956
42
-0.0757
0
VERTEX
8
0
10
8.0905
20
9.0432
42
-0.3061
0
VERTEX
8
0
10
8.3969
20
8.9047
42
-0.0582
0
VERTEX
8
0
10
8.8661
20
9.0888
42
-0.0127
0
VERTEX
8
0
10
8.9700
20
9.1135
42
-0.0524
0
VERTEX
8
0
10
9.6584
20
9.1853
42
-0.0239
0
VERTEX
8
0
10
10.1727
20
9.1551
42
-0.3376
0
VERTEX
8
0
10
10.4369
20
8.9047
42
-0.0275
0
VERTEX
8
0
10
10.5869
20
8.8972
42
-0.0172
0
VERTEX
8
0
10
10.6770
20
8.8854
42
-0.0199
0
VERTEX
8
0
10
10.7002
20
8.8804
42
-0.0163
0
VERTEX
8
0
10
10.9118
20
8.8221
42
-0.0118
0
VERTEX
8
0
10
10.9794
20
8.7997
42
-0.0194
0
VERTEX
8
0
10
11.0011
20
8.7908
42
-0.0069
0
VERTEX
8
0
10
11.0680
20
8.7616
42
-0.0065
0
VERTEX
8
0
10
11.1377
20
8.7295
42
-0.0420
0
VERTEX
8
0
10
11.1813
20
8.7042
0
VERTEX
8
0
10
11.3350
20
8.6137
42
-0.0301
0
VERTEX
8
0
10
11.4837
20
8.5152
42
-0.0276
0
VERTEX
8
0
10
11.5381
20
8.4711
42
-0.0494
0
VERTEX
8
0
10
11.7296
20
8.2669
42
-0.0063
0
VERTEX
8
0
10
11.8866
20
8.0346
42
-0.0237
0
VERTEX
8
0
10
11.9014
20
8.0104
42
-0.0071
0
VERTEX
8
0
10
11.9296
20
7.9520
0
VERTEX
8
0
10
11.9316
20
7.9480
42
-0.0736
0
VERTEX
8
0
10
11.9969
20
7.7287
42
-0.2514
0
VERTEX
8
0
10
11.8999
20
7.4620
42
-0.2512
0
VERTEX
8
0
10
11.6238
20
7.3952
42
-0.0734
0
VERTEX
8
0
10
11.7132
20
7.1856
42
-0.0107
0
VERTEX
8
0
10
11.7208
20
7.1546
42
-0.0245
0
VERTEX
8
0
10
11.7257
20
7.1259
42
-0.1145
0
VERTEX
8
0
10
11.6743
20
6.6858
42
-0.1070
0
VERTEX
8
0
10
11.4364
20
6.3075
42
-0.0220
0
VERTEX
8
0
10
11.3614
20
6.2366
42
-0.0546
0
VERTEX
8
0
10
11.0101
20
6.0000
42
-0.0638
0
VERTEX
8
0
10
11.3614
20
5.7634
42
-0.0199
0
VERTEX
8
0
10
11.4353
20
5.6941
42
-0.1094
0
VERTEX
8
0
10
11.6744
20
5.3147
42
-0.1183
0
VERTEX
8
0
10
11.7257
20
4.8746
42
-0.0244
0
VERTEX
8
0
10
11.7208
20
4.8459
42
-0.0303
0
VERTEX
8
0
10
11.6917
20
4.7471
42
-0.0404
0
VERTEX
8
0
10
11.6228
20
4.6043
42
-0.2516
0
VERTEX
8
0
10
11.8994
20
4.5385
42
-0.2515
0
VERTEX
8
0
10
11.9969
20
4.2713
42
-0.0650
0
VERTEX
8
0
10
11.9316
20
4.0520
0
VERTEX
8
0
10
11.9296
20
4.0480
42
-0.0154
0
VERTEX
8
0
10
11.9014
20
3.9901
42
-0.0238
0
VERTEX
8
0
10
11.8866
20
3.9654
42
-0.0306
0
VERTEX
8
0
10
11.7322
20
3.7355
42
-0.0526
0
VERTEX
8
0
10
11.5431
20
3.5338
42
-0.0254
0
VERTEX
8
0
10
11.4852
20
3.4858
42
-0.0270
0
VERTEX
8
0
10
11.3358
20
3.3868
42
0.0408
0
VERTEX
8
0
10
11.1813
20
3.2958
42
-0.0438
0
VERTEX
8
0
10
11.1358
20
3.2695
42
0.0033
0
VERTEX
8
0
10
11.0539
20
3.2327
0
VERTEX
8
0
10
10.9992
20
3.2087
42
-0.0179
0
VERTEX
8
0
10
10.9794
20
3.2007
42
-0.0109
0
VERTEX
8
0
10
10.9061
20
3.1765
42
-0.0119
0
VERTEX
8
0
10
10.6997
20
3.1201
42
-0.0178
0
VERTEX
8
0
10
10.6790
20
3.1156
42
-0.0165
0
VERTEX
8
0
10
10.5869
20
3.1033
42
-0.0109
0
VERTEX
8
0
10
10.4369
20
3.0958
42
-0.3371
0
VERTEX
8
0
10
10.1732
20
2.8454
42
-0.0356
0
VERTEX
8
0
10
9.5718
20
2.8155
42
-0.0537
0
VERTEX
8
0
10
8.9745
20
2.8860
42
-0.0140
0
VERTEX
8
0
10
8.8666
20
2.9112
42
-0.0611
0
VERTEX
8
0
10
8.3969
20
3.0953
42
-0.3066
0
VERTEX
8
0
10
8.0900
20
2.9568
42
-0.0727
0
VERTEX
8
0
10
7.6480
20
3.1045
42
-0.0589
0
VERTEX
8
0
10
7.2616
20
3.3660
42
-0.0043
0
VERTEX
8
0
10
7.1947
20
3.4274
42
-0.0318
0
VERTEX
8
0
10
7.1685
20
3.4551
42
-0.0557
0
VERTEX
8
0
10
6.9332
20
3.8138
0
VERTEX
8
0
10
6.9146
20
3.8535
42
-0.0693
0
VERTEX
8
0
10
6.4729
20
3.6767
42
-0.0593
0
VERTEX
8
0
10
6.0000
20
3.6204
42
-0.0621
0
VERTEX
8
0
10
5.5271
20
3.6767
42
-0.0736
0
VERTEX
8
0
10
5.0854
20
3.8535
42
-0.0111
0
VERTEX
8
0
10
5.0671
20
3.8144
0
VERTEX
8
0
10
5.0656
20
3.8115
42
-0.0554
0
VERTEX
8
0
10
4.8315
20
3.4551
42
-0.0318
0
VERTEX
8
0
10
4.8053
20
3.4274
42
-0.0147
0
VERTEX
8
0
10
4.7385
20
3.3660
42
-0.0637
0
VERTEX
8
0
10
4.3520
20
3.1045
42
-0.0754
0
VERTEX
8
0
10
3.9100
20
2.9568
42
-0.3065
0
VERTEX
8
0
10
3.6031
20
3.0953
42
-0.0579
0
VERTEX
8
0
10
3.1335
20
2.9112
42
-0.0107
0
VERTEX
8
0
10
3.0300
20
2.8870
42
-0.0476
0
VERTEX
8
0
10
2.4305
20
2.8161
42
-0.0295
0
VERTEX
8
0
10
1.8269
20
2.8454
42
-0.3371
0
VERTEX
8
0
10
1.5631
20
3.0958
42
-0.0275
0
VERTEX
8
0
10
1.4131
20
3.1033
42
-0.0186
0
VERTEX
8
0
10
1.3211
20
3.1156
42
-0.0174
0
VERTEX
8
0
10
1.3003
20
3.1201
42
-0.0184
0
VERTEX
8
0
10
1.0954
20
3.1760
42
-0.0106
0
VERTEX
8
0
10
1.0207
20
3.2007
42
-0.0176
0
VERTEX
8
0
10
1.0009
20
3.2087
42
-0.0071
0
VERTEX
8
0
10
0.9210
20
3.2439
42
-0.0075
0
VERTEX
8
0
10
0.8643
20
3.2695
42
-0.0438
0
VERTEX
8
0
10
0.8187
20
3.2958
0
VERTEX
8
0
10
0.6650
20
3.3863
42
-0.0301
0
VERTEX
8
0
10
0.5163
20
3.4848
42
-0.0249
0
VERTEX
8
0
10
0.4619
20
3.5294
42
-0.0493
0
VERTEX
8
0
10
0.2704
20
3.7334
42
-0.0066
0
VERTEX
8
0
10
0.1135
20
3.9654
0
SEQEND
8
0
0
ENDSEC
0
EOF
