0
SECTION
2
HEADER
9
$ACADVER
1
AC1009
9
$ANGDIR
70
0
9
$EXTMIN
10
0
20
0
9
$EXTMAX
10
24.0000
20
18.0000
0
ENDSEC
0
SECTION
2
ENTITIES
0
POLYLINE
8
Layer 1
66
1
0
VERTEX
8
0
10
0.0000
20
12.0000
0
VERTEX
8
0
10
12.0000
20
12.0000
0
VERTEX
8
0
10
12.0000
20
0.0000
0
VERTEX
8
0
10
0.0000
20
0.0000
0
VERTEX
8
0
10
0.0000
20
12.0000
0
SEQEND
8
0
0
POLYLINE
8
Layer 1
66
1
0
VERTEX
8
0
10
0.3558
20
11.6442
0
VERTEX
8
0
10
11.6442
20
11.6442
0
VERTEX
8
0
10
11.6442
20
0.3558
0
VERTEX
8
0
10
0.3558
20
0.3558
0
VERTEX
8
0
10
0.3558
20
11.6442
0
SEQEND
8
0
0
POLYLINE
8
Layer 1
66
1
0
VERTEX
8
0
10
0.6997
20
11.3003
0
VERTEX
8
0
10
0.6997
20
0.6997
0
VERTEX
8
0
10
11.3003
20
0.6997
0
VERTEX
8
0
10
11.3003
20
11.3003
0
VERTEX
8
0
10
0.6997
20
11.3003
0
SEQEND
8
0
0
POLYLINE
8
Layer 1
66
1
0
VERTEX
8
0
10
2.2900
20
10.6356
0
VERTEX
8
0
10
2.3533
20
10.5025
0
VERTEX
8
0
10
2.7506
20
9.6707
0
VERTEX
8
0
10
2.7757
20
9.6172
0
VERTEX
8
0
10
2.8346
20
9.6172
0
VERTEX
8
0
10
3.2090
20
9.6172
0
VERTEX
8
0
10
3.5812
20
8.7910
0
VERTEX
8
0
10
3.6063
20
8.7364
0
VERTEX
8
0
10
3.6664
20
8.7364
0
VERTEX
8
0
10
5.3669
20
8.7364
0
VERTEX
8
0
10
5.4051
20
8.7364
0
VERTEX
8
0
10
5.4324
20
8.7637
0
VERTEX
8
0
10
5.8297
20
9.1610
0
VERTEX
8
0
10
5.8570
20
9.1883
0
VERTEX
8
0
10
5.8570
20
9.2265
0
VERTEX
8
0
10
5.8570
20
9.5550
0
VERTEX
8
0
10
6.0000
20
9.6009
0
VERTEX
8
0
10
6.1430
20
9.5550
0
VERTEX
8
0
10
6.1430
20
9.2265
0
VERTEX
8
0
10
6.1430
20
9.1883
0
VERTEX
8
0
10
6.1703
20
9.1610
0
VERTEX
8
0
10
6.5676
20
8.7637
0
VERTEX
8
0
10
6.5949
20
8.7364
0
VERTEX
8
0
10
6.6331
20
8.7364
0
VERTEX
8
0
10
8.3336
20
8.7364
0
VERTEX
8
0
10
8.3937
20
8.7364
0
VERTEX
8
0
10
8.4188
20
8.7910
0
VERTEX
8
0
10
8.7910
20
9.6172
0
VERTEX
8
0
10
9.1654
20
9.6172
0
VERTEX
8
0
10
9.2243
20
9.6172
0
VERTEX
8
0
10
9.2494
20
9.6707
0
VERTEX
8
0
10
9.6467
20
10.5025
0
VERTEX
8
0
10
9.7100
20
10.6356
0
VERTEX
8
0
10
9.5627
20
10.6356
0
VERTEX
8
0
10
7.1974
20
10.6356
0
VERTEX
8
0
10
7.1974
20
10.8648
0
VERTEX
8
0
10
7.1974
20
10.9576
0
VERTEX
8
0
10
7.1046
20
10.9576
0
VERTEX
8
0
10
6.1987
20
10.9576
0
VERTEX
8
0
10
6.1692
20
10.9576
0
VERTEX
8
0
10
6.1463
20
10.9412
0
VERTEX
8
0
10
6.0000
20
10.8419
0
VERTEX
8
0
10
5.8537
20
10.9412
0
VERTEX
8
0
10
5.8297
20
10.9576
0
VERTEX
8
0
10
5.8013
20
10.9576
0
VERTEX
8
0
10
4.8954
20
10.9576
0
VERTEX
8
0
10
4.8015
20
10.9576
0
VERTEX
8
0
10
4.8015
20
10.8648
0
VERTEX
8
0
10
4.8015
20
10.6356
0
VERTEX
8
0
10
2.4373
20
10.6356
0
VERTEX
8
0
10
2.2900
20
10.6356
0
SEQEND
8
0
0
POLYLINE
8
Layer 1
66
1
0
VERTEX
8
0
10
2.5847
20
10.4490
0
VERTEX
8
0
10
4.8026
20
10.4490
0
VERTEX
8
0
10
4.8026
20
9.4317
0
VERTEX
8
0
10
4.1706
20
9.4317
0
VERTEX
8
0
10
3.9054
20
9.9523
0
VERTEX
8
0
10
4.3300
20
9.9523
0
VERTEX
8
0
10
4.3300
20
9.7351
0
VERTEX
8
0
10
4.5166
20
9.7351
0
VERTEX
8
0
10
4.5166
20
10.0451
0
VERTEX
8
0
10
4.5166
20
10.1390
0
VERTEX
8
0
10
4.4239
20
10.1390
0
VERTEX
8
0
10
3.7537
20
10.1390
0
VERTEX
8
0
10
3.6009
20
10.1390
0
VERTEX
8
0
10
3.6696
20
10.0036
0
VERTEX
8
0
10
4.0298
20
9.2952
0
VERTEX
8
0
10
4.0560
20
9.2451
0
VERTEX
8
0
10
4.1128
20
9.2451
0
VERTEX
8
0
10
4.8954
20
9.2451
0
VERTEX
8
0
10
4.9882
20
9.2451
0
VERTEX
8
0
10
4.9882
20
9.3378
0
VERTEX
8
0
10
4.9882
20
10.7721
0
VERTEX
8
0
10
5.7719
20
10.7721
0
VERTEX
8
0
10
5.9061
20
10.6793
0
VERTEX
8
0
10
5.9061
20
9.7668
0
VERTEX
8
0
10
5.7511
20
9.7177
0
VERTEX
8
0
10
5.5339
20
9.7253
0
VERTEX
8
0
10
5.5339
20
10.1139
0
VERTEX
8
0
10
5.6900
20
10.1139
0
VERTEX
8
0
10
5.6900
20
10.3005
0
VERTEX
8
0
10
5.4411
20
10.3005
0
VERTEX
8
0
10
5.3484
20
10.3005
0
VERTEX
8
0
10
5.3484
20
10.2067
0
VERTEX
8
0
10
5.3484
20
9.6358
0
VERTEX
8
0
10
5.3484
20
9.5463
0
VERTEX
8
0
10
5.4379
20
9.5430
0
VERTEX
8
0
10
5.6704
20
9.5343
0
VERTEX
8
0
10
5.6704
20
9.2647
0
VERTEX
8
0
10
5.3276
20
8.9220
0
VERTEX
8
0
10
3.7264
20
8.9220
0
VERTEX
8
0
10
3.3542
20
9.7482
0
VERTEX
8
0
10
3.3291
20
9.8039
0
VERTEX
8
0
10
3.2691
20
9.8039
0
VERTEX
8
0
10
2.8936
20
9.8039
0
VERTEX
8
0
10
2.5847
20
10.4490
0
SEQEND
8
0
0
POLYLINE
8
Layer 1
66
1
0
VERTEX
8
0
10
2.3293
20
9.2494
0
VERTEX
8
0
10
1.4975
20
9.6467
0
VERTEX
8
0
10
1.3644
20
9.7100
0
VERTEX
8
0
10
1.3644
20
9.5627
0
VERTEX
8
0
10
1.3644
20
7.1974
0
VERTEX
8
0
10
1.1352
20
7.1974
0
VERTEX
8
0
10
1.0424
20
7.1974
0
VERTEX
8
0
10
1.0424
20
7.1046
0
VERTEX
8
0
10
1.0424
20
6.1987
0
VERTEX
8
0
10
1.0424
20
6.1692
0
VERTEX
8
0
10
1.0588
20
6.1463
0
VERTEX
8
0
10
1.1581
20
6.0000
0
VERTEX
8
0
10
1.0588
20
5.8537
0
VERTEX
8
0
10
1.0424
20
5.8297
0
VERTEX
8
0
10
1.0424
20
5.8013
0
VERTEX
8
0
10
1.0424
20
4.8954
0
VERTEX
8
0
10
1.0424
20
4.8015
0
VERTEX
8
0
10
1.1352
20
4.8015
0
VERTEX
8
0
10
1.3644
20
4.8015
0
VERTEX
8
0
10
1.3644
20
2.4373
0
VERTEX
8
0
10
1.3644
20
2.2900
0
VERTEX
8
0
10
1.4975
20
2.3533
0
VERTEX
8
0
10
2.3293
20
2.7506
0
VERTEX
8
0
10
2.3828
20
2.7757
0
VERTEX
8
0
10
2.3828
20
2.8346
0
VERTEX
8
0
10
2.3828
20
3.2090
0
VERTEX
8
0
10
3.2090
20
3.5812
0
VERTEX
8
0
10
3.2636
20
3.6063
0
VERTEX
8
0
10
3.2636
20
3.6664
0
VERTEX
8
0
10
3.2636
20
5.3669
0
VERTEX
8
0
10
3.2636
20
5.4051
0
VERTEX
8
0
10
3.2363
20
5.4324
0
VERTEX
8
0
10
2.8390
20
5.8297
0
VERTEX
8
0
10
2.8117
20
5.8570
0
VERTEX
8
0
10
2.7735
20
5.8570
0
VERTEX
8
0
10
2.4450
20
5.8570
0
VERTEX
8
0
10
2.3991
20
6.0000
0
VERTEX
8
0
10
2.4450
20
6.1430
0
VERTEX
8
0
10
2.7735
20
6.1430
0
VERTEX
8
0
10
2.8117
20
6.1430
0
VERTEX
8
0
10
2.8390
20
6.1703
0
VERTEX
8
0
10
3.2363
20
6.5676
0
VERTEX
8
0
10
3.2636
20
6.5949
0
VERTEX
8
0
10
3.2636
20
6.6331
0
VERTEX
8
0
10
3.2636
20
8.3336
0
VERTEX
8
0
10
3.2636
20
8.3937
0
VERTEX
8
0
10
3.2090
20
8.4188
0
VERTEX
8
0
10
2.3828
20
8.7910
0
VERTEX
8
0
10
2.3828
20
9.1654
0
VERTEX
8
0
10
2.3828
20
9.2243
0
VERTEX
8
0
10
2.3293
20
9.2494
0
SEQEND
8
0
0
POLYLINE
8
Layer 1
66
1
0
VERTEX
8
0
10
2.1961
20
9.1064
0
VERTEX
8
0
10
2.1961
20
8.7309
0
VERTEX
8
0
10
2.1961
20
8.6709
0
VERTEX
8
0
10
2.2518
20
8.6458
0
VERTEX
8
0
10
3.0780
20
8.2736
0
VERTEX
8
0
10
3.0780
20
6.6713
0
VERTEX
8
0
10
2.7353
20
6.3285
0
VERTEX
8
0
10
2.4657
20
6.3285
0
VERTEX
8
0
10
2.4570
20
6.5621
0
VERTEX
8
0
10
2.4537
20
6.6516
0
VERTEX
8
0
10
2.3642
20
6.6516
0
VERTEX
8
0
10
1.7933
20
6.6516
0
VERTEX
8
0
10
1.6995
20
6.6516
0
VERTEX
8
0
10
1.6995
20
6.5589
0
VERTEX
8
0
10
1.6995
20
6.3100
0
VERTEX
8
0
10
1.8861
20
6.3100
0
VERTEX
8
0
10
1.8861
20
6.4650
0
VERTEX
8
0
10
2.2747
20
6.4650
0
VERTEX
8
0
10
2.2823
20
6.2478
0
VERTEX
8
0
10
2.2332
20
6.0928
0
VERTEX
8
0
10
1.3207
20
6.0928
0
VERTEX
8
0
10
1.2279
20
6.2270
0
VERTEX
8
0
10
1.2279
20
7.0118
0
VERTEX
8
0
10
2.6622
20
7.0118
0
VERTEX
8
0
10
2.7549
20
7.0118
0
VERTEX
8
0
10
2.7549
20
7.1046
0
VERTEX
8
0
10
2.7549
20
7.8872
0
VERTEX
8
0
10
2.7549
20
7.9440
0
VERTEX
8
0
10
2.7048
20
7.9702
0
VERTEX
8
0
10
1.9964
20
8.3293
0
VERTEX
8
0
10
1.8610
20
8.3980
0
VERTEX
8
0
10
1.8610
20
8.2463
0
VERTEX
8
0
10
1.8610
20
7.5761
0
VERTEX
8
0
10
1.8610
20
7.4834
0
VERTEX
8
0
10
1.9549
20
7.4834
0
VERTEX
8
0
10
2.2649
20
7.4834
0
VERTEX
8
0
10
2.2649
20
7.6700
0
VERTEX
8
0
10
2.0477
20
7.6700
0
VERTEX
8
0
10
2.0477
20
8.0946
0
VERTEX
8
0
10
2.5683
20
7.8294
0
VERTEX
8
0
10
2.5683
20
7.1974
0
VERTEX
8
0
10
1.5510
20
7.1974
0
VERTEX
8
0
10
1.5510
20
9.4153
0
VERTEX
8
0
10
2.1961
20
9.1064
0
SEQEND
8
0
0
POLYLINE
8
Layer 1
66
1
0
VERTEX
8
0
10
2.2332
20
5.9061
0
VERTEX
8
0
10
2.2823
20
5.7511
0
VERTEX
8
0
10
2.2747
20
5.5339
0
VERTEX
8
0
10
1.8861
20
5.5339
0
VERTEX
8
0
10
1.8861
20
5.6900
0
VERTEX
8
0
10
1.6995
20
5.6900
0
VERTEX
8
0
10
1.6995
20
5.4411
0
VERTEX
8
0
10
1.6995
20
5.3484
0
VERTEX
8
0
10
1.7933
20
5.3484
0
VERTEX
8
0
10
2.3642
20
5.3484
0
VERTEX
8
0
10
2.4537
20
5.3484
0
VERTEX
8
0
10
2.4570
20
5.4379
0
VERTEX
8
0
10
2.4657
20
5.6704
0
VERTEX
8
0
10
2.7353
20
5.6704
0
VERTEX
8
0
10
3.0780
20
5.3276
0
VERTEX
8
0
10
3.0780
20
3.7264
0
VERTEX
8
0
10
2.2518
20
3.3542
0
VERTEX
8
0
10
2.1961
20
3.3291
0
VERTEX
8
0
10
2.1961
20
3.2691
0
VERTEX
8
0
10
2.1961
20
2.8936
0
VERTEX
8
0
10
1.5510
20
2.5847
0
VERTEX
8
0
10
1.5510
20
4.8026
0
VERTEX
8
0
10
2.5683
20
4.8026
0
VERTEX
8
0
10
2.5683
20
4.1706
0
VERTEX
8
0
10
2.0477
20
3.9054
0
VERTEX
8
0
10
2.0477
20
4.3300
0
VERTEX
8
0
10
2.2649
20
4.3300
0
VERTEX
8
0
10
2.2649
20
4.5166
0
VERTEX
8
0
10
1.9549
20
4.5166
0
VERTEX
8
0
10
1.8610
20
4.5166
0
VERTEX
8
0
10
1.8610
20
4.4239
0
VERTEX
8
0
10
1.8610
20
3.7537
0
VERTEX
8
0
10
1.8610
20
3.6009
0
VERTEX
8
0
10
1.9964
20
3.6696
0
VERTEX
8
0
10
2.7048
20
4.0298
0
VERTEX
8
0
10
2.7549
20
4.0560
0
VERTEX
8
0
10
2.7549
20
4.1128
0
VERTEX
8
0
10
2.7549
20
4.8954
0
VERTEX
8
0
10
2.7549
20
4.9882
0
VERTEX
8
0
10
2.6622
20
4.9882
0
VERTEX
8
0
10
1.2279
20
4.9882
0
VERTEX
8
0
10
1.2279
20
5.7719
0
VERTEX
8
0
10
1.3207
20
5.9061
0
VERTEX
8
0
10
2.2332
20
5.9061
0
SEQEND
8
0
0
POLYLINE
8
Layer 1
66
1
0
VERTEX
8
0
10
3.6063
20
3.2636
0
VERTEX
8
0
10
3.6664
20
3.2636
0
VERTEX
8
0
10
5.3669
20
3.2636
0
VERTEX
8
0
10
5.4051
20
3.2636
0
VERTEX
8
0
10
5.4324
20
3.2363
0
VERTEX
8
0
10
5.8297
20
2.8390
0
VERTEX
8
0
10
5.8570
20
2.8117
0
VERTEX
8
0
10
5.8570
20
2.7735
0
VERTEX
8
0
10
5.8570
20
2.4450
0
VERTEX
8
0
10
6.0000
20
2.3991
0
VERTEX
8
0
10
6.1430
20
2.4450
0
VERTEX
8
0
10
6.1430
20
2.7735
0
VERTEX
8
0
10
6.1430
20
2.8117
0
VERTEX
8
0
10
6.1703
20
2.8390
0
VERTEX
8
0
10
6.5676
20
3.2363
0
VERTEX
8
0
10
6.5949
20
3.2636
0
VERTEX
8
0
10
6.6331
20
3.2636
0
VERTEX
8
0
10
8.3336
20
3.2636
0
VERTEX
8
0
10
8.3937
20
3.2636
0
VERTEX
8
0
10
8.4188
20
3.2090
0
VERTEX
8
0
10
8.7910
20
2.3828
0
VERTEX
8
0
10
9.1654
20
2.3828
0
VERTEX
8
0
10
9.2243
20
2.3828
0
VERTEX
8
0
10
9.2494
20
2.3293
0
VERTEX
8
0
10
9.6467
20
1.4975
0
VERTEX
8
0
10
9.7100
20
1.3644
0
VERTEX
8
0
10
9.5627
20
1.3644
0
VERTEX
8
0
10
7.1974
20
1.3644
0
VERTEX
8
0
10
7.1974
20
1.1352
0
VERTEX
8
0
10
7.1974
20
1.0424
0
VERTEX
8
0
10
7.1046
20
1.0424
0
VERTEX
8
0
10
6.1987
20
1.0424
0
VERTEX
8
0
10
6.1692
20
1.0424
0
VERTEX
8
0
10
6.1463
20
1.0588
0
VERTEX
8
0
10
6.0000
20
1.1581
0
VERTEX
8
0
10
5.8537
20
1.0588
0
VERTEX
8
0
10
5.8297
20
1.0424
0
VERTEX
8
0
10
5.8013
20
1.0424
0
VERTEX
8
0
10
4.8954
20
1.0424
0
VERTEX
8
0
10
4.8015
20
1.0424
0
VERTEX
8
0
10
4.8015
20
1.1352
0
VERTEX
8
0
10
4.8015
20
1.3644
0
VERTEX
8
0
10
2.4373
20
1.3644
0
VERTEX
8
0
10
2.2900
20
1.3644
0
VERTEX
8
0
10
2.3533
20
1.4975
0
VERTEX
8
0
10
2.7506
20
2.3293
0
VERTEX
8
0
10
2.7757
20
2.3828
0
VERTEX
8
0
10
2.8346
20
2.3828
0
VERTEX
8
0
10
3.2090
20
2.3828
0
VERTEX
8
0
10
3.5812
20
3.2090
0
VERTEX
8
0
10
3.6063
20
3.2636
0
SEQEND
8
0
0
POLYLINE
8
Layer 1
66
1
0
VERTEX
8
0
10
3.7264
20
3.0780
0
VERTEX
8
0
10
3.3542
20
2.2518
0
VERTEX
8
0
10
3.3291
20
2.1961
0
VERTEX
8
0
10
3.2691
20
2.1961
0
VERTEX
8
0
10
2.8936
20
2.1961
0
VERTEX
8
0
10
2.5847
20
1.5510
0
VERTEX
8
0
10
4.8026
20
1.5510
0
VERTEX
8
0
10
4.8026
20
2.5683
0
VERTEX
8
0
10
4.1706
20
2.5683
0
VERTEX
8
0
10
3.9054
20
2.0477
0
VERTEX
8
0
10
4.3300
20
2.0477
0
VERTEX
8
0
10
4.3300
20
2.2649
0
VERTEX
8
0
10
4.5166
20
2.2649
0
VERTEX
8
0
10
4.5166
20
1.9549
0
VERTEX
8
0
10
4.5166
20
1.8610
0
VERTEX
8
0
10
4.4239
20
1.8610
0
VERTEX
8
0
10
3.7537
20
1.8610
0
VERTEX
8
0
10
3.6009
20
1.8610
0
VERTEX
8
0
10
3.6696
20
1.9964
0
VERTEX
8
0
10
4.0298
20
2.7048
0
VERTEX
8
0
10
4.0560
20
2.7549
0
VERTEX
8
0
10
4.1128
20
2.7549
0
VERTEX
8
0
10
4.8954
20
2.7549
0
VERTEX
8
0
10
4.9882
20
2.7549
0
VERTEX
8
0
10
4.9882
20
2.6622
0
VERTEX
8
0
10
4.9882
20
1.2279
0
VERTEX
8
0
10
5.7719
20
1.2279
0
VERTEX
8
0
10
5.9061
20
1.3207
0
VERTEX
8
0
10
5.9061
20
2.2332
0
VERTEX
8
0
10
5.7511
20
2.2823
0
VERTEX
8
0
10
5.5339
20
2.2747
0
VERTEX
8
0
10
5.5339
20
1.8861
0
VERTEX
8
0
10
5.6900
20
1.8861
0
VERTEX
8
0
10
5.6900
20
1.6995
0
VERTEX
8
0
10
5.4411
20
1.6995
0
VERTEX
8
0
10
5.3484
20
1.6995
0
VERTEX
8
0
10
5.3484
20
1.7933
0
VERTEX
8
0
10
5.3484
20
2.3642
0
VERTEX
8
0
10
5.3484
20
2.4537
0
VERTEX
8
0
10
5.4379
20
2.4570
0
VERTEX
8
0
10
5.6704
20
2.4657
0
VERTEX
8
0
10
5.6704
20
2.7353
0
VERTEX
8
0
10
5.3276
20
3.0780
0
VERTEX
8
0
10
3.7264
20
3.0780
0
SEQEND
8
0
0
POLYLINE
8
Layer 1
66
1
0
VERTEX
8
0
10
6.0928
20
2.2332
0
VERTEX
8
0
10
6.2478
20
2.2823
0
VERTEX
8
0
10
6.4650
20
2.2747
0
VERTEX
8
0
10
6.4650
20
1.8861
0
VERTEX
8
0
10
6.3100
20
1.8861
0
VERTEX
8
0
10
6.3100
20
1.6995
0
VERTEX
8
0
10
6.5589
20
1.6995
0
VERTEX
8
0
10
6.6516
20
1.6995
0
VERTEX
8
0
10
6.6516
20
1.7933
0
VERTEX
8
0
10
6.6516
20
2.3642
0
VERTEX
8
0
10
6.6516
20
2.4537
0
VERTEX
8
0
10
6.5621
20
2.4570
0
VERTEX
8
0
10
6.3285
20
2.4657
0
VERTEX
8
0
10
6.3285
20
2.7353
0
VERTEX
8
0
10
6.6713
20
3.0780
0
VERTEX
8
0
10
8.2736
20
3.0780
0
VERTEX
8
0
10
8.6458
20
2.2518
0
VERTEX
8
0
10
8.6709
20
2.1961
0
VERTEX
8
0
10
8.7309
20
2.1961
0
VERTEX
8
0
10
9.1064
20
2.1961
0
VERTEX
8
0
10
9.4153
20
1.5510
0
VERTEX
8
0
10
7.1974
20
1.5510
0
VERTEX
8
0
10
7.1974
20
2.5683
0
VERTEX
8
0
10
7.8294
20
2.5683
0
VERTEX
8
0
10
8.0946
20
2.0477
0
VERTEX
8
0
10
7.6700
20
2.0477
0
VERTEX
8
0
10
7.6700
20
2.2649
0
VERTEX
8
0
10
7.4834
20
2.2649
0
VERTEX
8
0
10
7.4834
20
1.9549
0
VERTEX
8
0
10
7.4834
20
1.8610
0
VERTEX
8
0
10
7.5761
20
1.8610
0
VERTEX
8
0
10
8.2463
20
1.8610
0
VERTEX
8
0
10
8.3980
20
1.8610
0
VERTEX
8
0
10
8.3293
20
1.9964
0
VERTEX
8
0
10
7.9702
20
2.7048
0
VERTEX
8
0
10
7.9440
20
2.7549
0
VERTEX
8
0
10
7.8872
20
2.7549
0
VERTEX
8
0
10
7.1046
20
2.7549
0
VERTEX
8
0
10
7.0118
20
2.7549
0
VERTEX
8
0
10
7.0118
20
2.6622
0
VERTEX
8
0
10
7.0118
20
1.2279
0
VERTEX
8
0
10
6.2270
20
1.2279
0
VERTEX
8
0
10
6.0928
20
1.3207
0
VERTEX
8
0
10
6.0928
20
2.2332
0
SEQEND
8
0
0
POLYLINE
8
Layer 1
66
1
0
VERTEX
8
0
10
8.7364
20
3.6063
0
VERTEX
8
0
10
8.7910
20
3.5812
0
VERTEX
8
0
10
9.6172
20
3.2090
0
VERTEX
8
0
10
9.6172
20
2.8346
0
VERTEX
8
0
10
9.6172
20
2.7757
0
VERTEX
8
0
10
9.6707
20
2.7506
0
VERTEX
8
0
10
10.5025
20
2.3533
0
VERTEX
8
0
10
10.6356
20
2.2900
0
VERTEX
8
0
10
10.6356
20
2.4373
0
VERTEX
8
0
10
10.6356
20
4.8026
0
VERTEX
8
0
10
10.8648
20
4.8026
0
VERTEX
8
0
10
10.9576
20
4.8026
0
VERTEX
8
0
10
10.9576
20
4.8954
0
VERTEX
8
0
10
10.9576
20
5.8013
0
VERTEX
8
0
10
10.9576
20
5.8308
0
VERTEX
8
0
10
10.9412
20
5.8537
0
VERTEX
8
0
10
10.8419
20
6.0000
0
VERTEX
8
0
10
10.9412
20
6.1463
0
VERTEX
8
0
10
10.9576
20
6.1703
0
VERTEX
8
0
10
10.9576
20
6.1987
0
VERTEX
8
0
10
10.9576
20
7.1046
0
VERTEX
8
0
10
10.9576
20
7.1985
0
VERTEX
8
0
10
10.8648
20
7.1985
0
VERTEX
8
0
10
10.6356
20
7.1985
0
VERTEX
8
0
10
10.6356
20
9.5627
0
VERTEX
8
0
10
10.6356
20
9.7100
0
VERTEX
8
0
10
10.5025
20
9.6467
0
VERTEX
8
0
10
9.6707
20
9.2494
0
VERTEX
8
0
10
9.6172
20
9.2243
0
VERTEX
8
0
10
9.6172
20
9.1654
0
VERTEX
8
0
10
9.6172
20
8.7910
0
VERTEX
8
0
10
8.7910
20
8.4188
0
VERTEX
8
0
10
8.7364
20
8.3937
0
VERTEX
8
0
10
8.7364
20
8.3336
0
VERTEX
8
0
10
8.7364
20
6.6331
0
VERTEX
8
0
10
8.7364
20
6.5949
0
VERTEX
8
0
10
8.7637
20
6.5676
0
VERTEX
8
0
10
9.1610
20
6.1703
0
VERTEX
8
0
10
9.1883
20
6.1430
0
VERTEX
8
0
10
9.2265
20
6.1430
0
VERTEX
8
0
10
9.5550
20
6.1430
0
VERTEX
8
0
10
9.6009
20
6.0000
0
VERTEX
8
0
10
9.5550
20
5.8570
0
VERTEX
8
0
10
9.2265
20
5.8570
0
VERTEX
8
0
10
9.1883
20
5.8570
0
VERTEX
8
0
10
9.1610
20
5.8297
0
VERTEX
8
0
10
8.7637
20
5.4324
0
VERTEX
8
0
10
8.7364
20
5.4051
0
VERTEX
8
0
10
8.7364
20
5.3669
0
VERTEX
8
0
10
8.7364
20
3.6664
0
VERTEX
8
0
10
8.7364
20
3.6063
0
SEQEND
8
0
0
POLYLINE
8
Layer 1
66
1
0
VERTEX
8
0
10
8.9220
20
3.7264
0
VERTEX
8
0
10
8.9220
20
5.3287
0
VERTEX
8
0
10
9.2647
20
5.6715
0
VERTEX
8
0
10
9.5343
20
5.6715
0
VERTEX
8
0
10
9.5430
20
5.4379
0
VERTEX
8
0
10
9.5463
20
5.3484
0
VERTEX
8
0
10
9.6358
20
5.3484
0
VERTEX
8
0
10
10.2067
20
5.3484
0
VERTEX
8
0
10
10.3005
20
5.3484
0
VERTEX
8
0
10
10.3005
20
5.4411
0
VERTEX
8
0
10
10.3005
20
5.6900
0
VERTEX
8
0
10
10.1139
20
5.6900
0
VERTEX
8
0
10
10.1139
20
5.5350
0
VERTEX
8
0
10
9.7253
20
5.5350
0
VERTEX
8
0
10
9.7177
20
5.7522
0
VERTEX
8
0
10
9.7668
20
5.9072
0
VERTEX
8
0
10
10.6793
20
5.9072
0
VERTEX
8
0
10
10.7721
20
5.7730
0
VERTEX
8
0
10
10.7721
20
4.9882
0
VERTEX
8
0
10
9.3378
20
4.9882
0
VERTEX
8
0
10
9.2451
20
4.9882
0
VERTEX
8
0
10
9.2451
20
4.8954
0
VERTEX
8
0
10
9.2451
20
4.1128
0
VERTEX
8
0
10
9.2451
20
4.0560
0
VERTEX
8
0
10
9.2952
20
4.0298
0
VERTEX
8
0
10
10.0036
20
3.6707
0
VERTEX
8
0
10
10.1390
20
3.6020
0
VERTEX
8
0
10
10.1390
20
3.7537
0
VERTEX
8
0
10
10.1390
20
4.4239
0
VERTEX
8
0
10
10.1390
20
4.5166
0
VERTEX
8
0
10
10.0451
20
4.5166
0
VERTEX
8
0
10
9.7351
20
4.5166
0
VERTEX
8
0
10
9.7351
20
4.3300
0
VERTEX
8
0
10
9.9523
20
4.3300
0
VERTEX
8
0
10
9.9523
20
3.9054
0
VERTEX
8
0
10
9.4317
20
4.1706
0
VERTEX
8
0
10
9.4317
20
4.8026
0
VERTEX
8
0
10
10.4490
20
4.8026
0
VERTEX
8
0
10
10.4490
20
2.5847
0
VERTEX
8
0
10
9.8039
20
2.8936
0
VERTEX
8
0
10
9.8039
20
3.2691
0
VERTEX
8
0
10
9.8039
20
3.3291
0
VERTEX
8
0
10
9.7482
20
3.3542
0
VERTEX
8
0
10
8.9220
20
3.7264
0
SEQEND
8
0
0
POLYLINE
8
Layer 1
66
1
0
VERTEX
8
0
10
9.7668
20
6.0939
0
VERTEX
8
0
10
9.7177
20
6.2489
0
VERTEX
8
0
10
9.7253
20
6.4661
0
VERTEX
8
0
10
10.1139
20
6.4661
0
VERTEX
8
0
10
10.1139
20
6.3100
0
VERTEX
8
0
10
10.3005
20
6.3100
0
VERTEX
8
0
10
10.3005
20
6.5589
0
VERTEX
8
0
10
10.3005
20
6.6516
0
VERTEX
8
0
10
10.2067
20
6.6516
0
VERTEX
8
0
10
9.6358
20
6.6516
0
VERTEX
8
0
10
9.5463
20
6.6516
0
VERTEX
8
0
10
9.5430
20
6.5621
0
VERTEX
8
0
10
9.5343
20
6.3296
0
VERTEX
8
0
10
9.2647
20
6.3296
0
VERTEX
8
0
10
8.9220
20
6.6724
0
VERTEX
8
0
10
8.9220
20
8.2736
0
VERTEX
8
0
10
9.7482
20
8.6458
0
VERTEX
8
0
10
9.8039
20
8.6709
0
VERTEX
8
0
10
9.8039
20
8.7309
0
VERTEX
8
0
10
9.8039
20
9.1064
0
VERTEX
8
0
10
10.4490
20
9.4153
0
VERTEX
8
0
10
10.4490
20
7.1974
0
VERTEX
8
0
10
9.4317
20
7.1974
0
VERTEX
8
0
10
9.4317
20
7.8294
0
VERTEX
8
0
10
9.9523
20
8.0946
0
VERTEX
8
0
10
9.9523
20
7.6700
0
VERTEX
8
0
10
9.7351
20
7.6700
0
VERTEX
8
0
10
9.7351
20
7.4834
0
VERTEX
8
0
10
10.0451
20
7.4834
0
VERTEX
8
0
10
10.1390
20
7.4834
0
VERTEX
8
0
10
10.1390
20
7.5761
0
VERTEX
8
0
10
10.1390
20
8.2463
0
VERTEX
8
0
10
10.1390
20
8.3991
0
VERTEX
8
0
10
10.0036
20
8.3304
0
VERTEX
8
0
10
9.2952
20
7.9702
0
VERTEX
8
0
10
9.2451
20
7.9440
0
VERTEX
8
0
10
9.2451
20
7.8872
0
VERTEX
8
0
10
9.2451
20
7.1046
0
VERTEX
8
0
10
9.2451
20
7.0118
0
VERTEX
8
0
10
9.3378
20
7.0118
0
VERTEX
8
0
10
10.7721
20
7.0118
0
VERTEX
8
0
10
10.7721
20
6.2281
0
VERTEX
8
0
10
10.6793
20
6.0939
0
VERTEX
8
0
10
9.7668
20
6.0939
0
SEQEND
8
0
0
POLYLINE
8
Layer 1
66
1
0
VERTEX
8
0
10
8.2736
20
8.9220
0
VERTEX
8
0
10
6.6713
20
8.9220
0
VERTEX
8
0
10
6.3285
20
9.2647
0
VERTEX
8
0
10
6.3285
20
9.5343
0
VERTEX
8
0
10
6.5621
20
9.5430
0
VERTEX
8
0
10
6.6516
20
9.5463
0
VERTEX
8
0
10
6.6516
20
9.6358
0
VERTEX
8
0
10
6.6516
20
10.2067
0
VERTEX
8
0
10
6.6516
20
10.3005
0
VERTEX
8
0
10
6.5589
20
10.3005
0
VERTEX
8
0
10
6.3100
20
10.3005
0
VERTEX
8
0
10
6.3100
20
10.1139
0
VERTEX
8
0
10
6.4650
20
10.1139
0
VERTEX
8
0
10
6.4650
20
9.7253
0
VERTEX
8
0
10
6.2478
20
9.7177
0
VERTEX
8
0
10
6.0928
20
9.7668
0
VERTEX
8
0
10
6.0928
20
10.6793
0
VERTEX
8
0
10
6.2270
20
10.7721
0
VERTEX
8
0
10
7.0118
20
10.7721
0
VERTEX
8
0
10
7.0118
20
9.3378
0
VERTEX
8
0
10
7.0118
20
9.2451
0
VERTEX
8
0
10
7.1046
20
9.2451
0
VERTEX
8
0
10
7.8872
20
9.2451
0
VERTEX
8
0
10
7.9440
20
9.2451
0
VERTEX
8
0
10
7.9702
20
9.2952
0
VERTEX
8
0
10
8.3293
20
10.0036
0
VERTEX
8
0
10
8.3980
20
10.1390
0
VERTEX
8
0
10
8.2463
20
10.1390
0
VERTEX
8
0
10
7.5761
20
10.1390
0
VERTEX
8
0
10
7.4834
20
10.1390
0
VERTEX
8
0
10
7.4834
20
10.0451
0
VERTEX
8
0
10
7.4834
20
9.7351
0
VERTEX
8
0
10
7.6700
20
9.7351
0
VERTEX
8
0
10
7.6700
20
9.9523
0
VERTEX
8
0
10
8.0946
20
9.9523
0
VERTEX
8
0
10
7.8294
20
9.4317
0
VERTEX
8
0
10
7.1974
20
9.4317
0
VERTEX
8
0
10
7.1974
20
10.4490
0
VERTEX
8
0
10
9.4153
20
10.4490
0
VERTEX
8
0
10
9.1064
20
9.8039
0
VERTEX
8
0
10
8.7309
20
9.8039
0
VERTEX
8
0
10
8.6709
20
9.8039
0
VERTEX
8
0
10
8.6458
20
9.7482
0
VERTEX
8
0
10
8.2736
20
8.9220
0
SEQEND
8
0
0
ENDSEC
0
EOF
