0
SECTION
2
HEADER
9
$ACADVER
1
AC1009
9
$ANGDIR
70
0
9
$EXTMIN
10
0
20
0
9
$EXTMAX
10
24.0000
20
18.0000
0
ENDSEC
0
SECTION
2
ENTITIES
0
POLYLINE
8
Layer 1
66
1
0
VERTEX
8
0
10
5.8665
20
11.9743
42
0.0227
0
VERTEX
8
0
10
5.6180
20
11.9086
42
0.0263
0
VERTEX
8
0
10
5.3037
20
11.7926
42
0.0659
0
VERTEX
8
0
10
4.7459
20
11.4527
42
0.0842
0
VERTEX
8
0
10
4.3195
20
10.9595
0
VERTEX
8
0
10
4.2294
20
10.9209
42
0.1315
0
VERTEX
8
0
10
3.9557
20
11.2505
42
0.0794
0
VERTEX
8
0
10
3.7432
20
11.3488
42
0.0847
0
VERTEX
8
0
10
3.4495
20
11.3841
42
0.0900
0
VERTEX
8
0
10
3.0635
20
11.2924
42
0.1031
0
VERTEX
8
0
10
2.6458
20
11.0104
42
0.1118
0
VERTEX
8
0
10
2.3849
20
10.5800
42
0.1029
0
VERTEX
8
0
10
2.3267
20
10.0986
42
0.0816
0
VERTEX
8
0
10
2.4428
20
9.6264
42
0.0446
0
VERTEX
8
0
10
2.5135
20
9.4865
42
0.0413
0
VERTEX
8
0
10
2.3720
20
9.5572
42
0.0866
0
VERTEX
8
0
10
1.8140
20
9.6746
42
0.0805
0
VERTEX
8
0
10
1.4200
20
9.6167
42
0.1145
0
VERTEX
8
0
10
0.9893
20
9.3552
42
0.1049
0
VERTEX
8
0
10
0.7076
20
8.9365
42
0.0767
0
VERTEX
8
0
10
0.6143
20
8.5457
42
0.1785
0
VERTEX
8
0
10
0.7880
20
7.9941
42
0.1201
0
VERTEX
8
0
10
1.0791
20
7.7706
42
0.0197
0
VERTEX
8
0
10
1.0405
20
7.6821
42
0.0900
0
VERTEX
8
0
10
0.5477
20
7.2560
42
0.0715
0
VERTEX
8
0
10
0.2091
20
6.6979
42
0.0297
0
VERTEX
8
0
10
0.0917
20
6.3827
42
0.0189
0
VERTEX
8
0
10
0.0241
20
6.1319
42
0.0581
0
VERTEX
8
0
10
0.0048
20
6.0000
42
0.0723
0
VERTEX
8
0
10
0.0241
20
5.8681
42
0.0264
0
VERTEX
8
0
10
0.0917
20
5.6173
42
0.0297
0
VERTEX
8
0
10
0.2091
20
5.3021
42
0.0653
0
VERTEX
8
0
10
0.5477
20
4.7440
42
0.0849
0
VERTEX
8
0
10
1.0405
20
4.3179
0
VERTEX
8
0
10
1.0791
20
4.2294
42
0.1121
0
VERTEX
8
0
10
0.7880
20
4.0059
42
0.1785
0
VERTEX
8
0
10
0.6143
20
3.4543
42
0.0925
0
VERTEX
8
0
10
0.7076
20
3.0635
42
0.1025
0
VERTEX
8
0
10
0.9893
20
2.6448
42
0.1124
0
VERTEX
8
0
10
1.4200
20
2.3833
42
0.0863
0
VERTEX
8
0
10
1.8140
20
2.3254
42
0.0972
0
VERTEX
8
0
10
2.3720
20
2.4428
42
0.0432
0
VERTEX
8
0
10
2.5135
20
2.5135
42
0.0381
0
VERTEX
8
0
10
2.4428
20
2.3736
42
0.0698
0
VERTEX
8
0
10
2.3267
20
1.9013
42
0.0996
0
VERTEX
8
0
10
2.3849
20
1.4200
42
0.1136
0
VERTEX
8
0
10
2.6458
20
0.9896
42
0.1052
0
VERTEX
8
0
10
3.0635
20
0.7076
42
0.0763
0
VERTEX
8
0
10
3.4495
20
0.6159
42
0.1616
0
VERTEX
8
0
10
3.9638
20
0.7564
42
0.1374
0
VERTEX
8
0
10
4.2294
20
1.0791
42
0.0260
0
VERTEX
8
0
10
4.3195
20
1.0405
42
0.0894
0
VERTEX
8
0
10
4.7459
20
0.5473
42
0.0715
0
VERTEX
8
0
10
5.3037
20
0.2074
42
0.0361
0
VERTEX
8
0
10
5.6701
20
0.0764
42
0.0148
0
VERTEX
8
0
10
5.8665
20
0.0257
42
0.0144
0
VERTEX
8
0
10
6.0000
20
0.0000
42
0.0080
0
VERTEX
8
0
10
6.1335
20
0.0257
42
0.0227
0
VERTEX
8
0
10
6.3820
20
0.0914
42
0.0263
0
VERTEX
8
0
10
6.6963
20
0.2074
42
0.0659
0
VERTEX
8
0
10
7.2541
20
0.5473
42
0.0842
0
VERTEX
8
0
10
7.6805
20
1.0405
0
VERTEX
8
0
10
7.7706
20
1.0791
42
0.1315
0
VERTEX
8
0
10
8.0443
20
0.7495
42
0.0794
0
VERTEX
8
0
10
8.2568
20
0.6512
42
0.0847
0
VERTEX
8
0
10
8.5505
20
0.6159
42
0.0900
0
VERTEX
8
0
10
8.9365
20
0.7076
42
0.1031
0
VERTEX
8
0
10
9.3542
20
0.9896
42
0.1118
0
VERTEX
8
0
10
9.6151
20
1.4200
42
0.1029
0
VERTEX
8
0
10
9.6733
20
1.9014
42
0.0816
0
VERTEX
8
0
10
9.5572
20
2.3736
42
0.0446
0
VERTEX
8
0
10
9.4865
20
2.5135
42
0.0413
0
VERTEX
8
0
10
9.6280
20
2.4428
42
0.0866
0
VERTEX
8
0
10
10.1860
20
2.3254
42
0.0805
0
VERTEX
8
0
10
10.5800
20
2.3833
42
0.1145
0
VERTEX
8
0
10
11.0107
20
2.6448
42
0.1049
0
VERTEX
8
0
10
11.2924
20
3.0635
42
0.0767
0
VERTEX
8
0
10
11.3857
20
3.4543
42
0.1785
0
VERTEX
8
0
10
11.2120
20
4.0059
42
0.1201
0
VERTEX
8
0
10
10.9209
20
4.2294
42
0.0197
0
VERTEX
8
0
10
10.9595
20
4.3179
42
0.0900
0
VERTEX
8
0
10
11.4523
20
4.7440
42
0.0715
0
VERTEX
8
0
10
11.7909
20
5.3021
42
0.0297
0
VERTEX
8
0
10
11.9083
20
5.6173
42
0.0189
0
VERTEX
8
0
10
11.9759
20
5.8681
42
0.0581
0
VERTEX
8
0
10
11.9952
20
6.0000
42
0.0723
0
VERTEX
8
0
10
11.9759
20
6.1319
42
0.0264
0
VERTEX
8
0
10
11.9083
20
6.3827
42
0.0297
0
VERTEX
8
0
10
11.7909
20
6.6979
42
0.0653
0
VERTEX
8
0
10
11.4523
20
7.2560
42
0.0849
0
VERTEX
8
0
10
10.9595
20
7.6821
0
VERTEX
8
0
10
10.9209
20
7.7706
42
0.1121
0
VERTEX
8
0
10
11.2120
20
7.9941
42
0.1785
0
VERTEX
8
0
10
11.3857
20
8.5457
42
0.0925
0
VERTEX
8
0
10
11.2924
20
8.9365
42
0.1025
0
VERTEX
8
0
10
11.0107
20
9.3552
42
0.1124
0
VERTEX
8
0
10
10.5800
20
9.6167
42
0.0863
0
VERTEX
8
0
10
10.1860
20
9.6746
42
0.0972
0
VERTEX
8
0
10
9.6280
20
9.5572
42
0.0432
0
VERTEX
8
0
10
9.4865
20
9.4865
42
0.0381
0
VERTEX
8
0
10
9.5572
20
9.6264
42
0.0698
0
VERTEX
8
0
10
9.6733
20
10.0987
42
0.0996
0
VERTEX
8
0
10
9.6151
20
10.5800
42
0.1136
0
VERTEX
8
0
10
9.3542
20
11.0104
42
0.1052
0
VERTEX
8
0
10
8.9365
20
11.2924
42
0.0763
0
VERTEX
8
0
10
8.5505
20
11.3841
42
0.1616
0
VERTEX
8
0
10
8.0362
20
11.2436
42
0.1374
0
VERTEX
8
0
10
7.7706
20
10.9209
42
0.0260
0
VERTEX
8
0
10
7.6805
20
10.9595
42
0.0894
0
VERTEX
8
0
10
7.2541
20
11.4527
42
0.0715
0
VERTEX
8
0
10
6.6963
20
11.7926
42
0.0361
0
VERTEX
8
0
10
6.3299
20
11.9236
42
0.0148
0
VERTEX
8
0
10
6.1335
20
11.9743
42
0.0379
0
VERTEX
8
0
10
6.0000
20
12.0000
42
0.0178
0
VERTEX
8
0
10
5.8665
20
11.9743
0
SEQEND
8
0
0
POLYLINE
8
Layer 1
66
1
0
VERTEX
8
0
10
5.8987
20
11.4806
0
VERTEX
8
0
10
5.8987
20
10.8357
42
0.0467
0
VERTEX
8
0
10
5.6130
20
10.7095
42
0.0682
0
VERTEX
8
0
10
5.3664
20
10.5189
42
-0.0921
0
VERTEX
8
0
10
5.6088
20
10.3248
42
-0.0739
0
VERTEX
8
0
10
5.7781
20
10.0638
42
-0.0495
0
VERTEX
8
0
10
5.8560
20
9.8415
42
-0.1661
0
VERTEX
8
0
10
5.8199
20
9.6135
42
-0.3992
0
VERTEX
8
0
10
5.4034
20
9.5058
42
-0.1958
0
VERTEX
8
0
10
5.2602
20
9.6859
42
0.0297
0
VERTEX
8
0
10
5.2171
20
9.8042
42
0.0628
0
VERTEX
8
0
10
5.1509
20
9.9110
42
0.2726
0
VERTEX
8
0
10
4.9165
20
9.9940
42
0.0663
0
VERTEX
8
0
10
4.7911
20
9.9597
42
0.0332
0
VERTEX
8
0
10
4.6733
20
9.9046
42
0.0837
0
VERTEX
8
0
10
4.5682
20
9.8237
42
0.0439
0
VERTEX
8
0
10
4.4835
20
9.7213
42
0.1049
0
VERTEX
8
0
10
4.3613
20
9.4414
42
0.1130
0
VERTEX
8
0
10
4.3736
20
9.1604
42
0.0745
0
VERTEX
8
0
10
4.4819
20
8.8995
42
0.0139
0
VERTEX
8
0
10
4.5269
20
8.8255
42
-0.0125
0
VERTEX
8
0
10
4.5470
20
8.7928
42
0.1210
0
VERTEX
8
0
10
4.5752
20
8.7676
42
0.0445
0
VERTEX
8
0
10
4.7231
20
8.7355
42
0.0127
0
VERTEX
8
0
10
4.7783
20
8.7318
42
0.1210
0
VERTEX
8
0
10
4.8309
20
8.7451
42
0.1256
0
VERTEX
8
0
10
4.8496
20
8.7940
42
0.0420
0
VERTEX
8
0
10
4.8550
20
8.8464
42
0.0338
0
VERTEX
8
0
10
4.8541
20
8.9764
42
-0.0832
0
VERTEX
8
0
10
4.8759
20
9.1037
42
-0.1828
0
VERTEX
8
0
10
5.0271
20
9.2629
42
-0.3842
0
VERTEX
8
0
10
5.4259
20
9.1423
42
-0.1099
0
VERTEX
8
0
10
5.4674
20
9.0165
42
-0.0458
0
VERTEX
8
0
10
5.4741
20
8.8834
42
-0.0757
0
VERTEX
8
0
10
5.4275
20
8.5730
42
-0.2303
0
VERTEX
8
0
10
5.0239
20
8.1565
42
-0.1006
0
VERTEX
8
0
10
4.7177
20
8.1166
42
-0.0652
0
VERTEX
8
0
10
4.4128
20
8.1710
42
-0.0337
0
VERTEX
8
0
10
4.2359
20
8.2369
42
0.0140
0
VERTEX
8
0
10
4.1731
20
8.2643
42
-0.1969
0
VERTEX
8
0
10
4.1545
20
8.2844
42
-0.0046
0
VERTEX
8
0
10
4.1394
20
8.3077
42
-0.0594
0
VERTEX
8
0
10
3.8467
20
8.7917
42
-0.0501
0
VERTEX
8
0
10
3.7550
20
9.0941
42
-0.0291
0
VERTEX
8
0
10
3.7357
20
9.2501
42
-0.0223
0
VERTEX
8
0
10
3.7341
20
9.3192
0
VERTEX
8
0
10
3.7341
20
9.3498
42
-0.0117
0
VERTEX
8
0
10
3.6955
20
9.3514
42
-0.1425
0
VERTEX
8
0
10
3.1311
20
9.5556
42
-0.0312
0
VERTEX
8
0
10
2.9970
20
9.6664
42
-0.0880
0
VERTEX
8
0
10
2.8979
20
9.8081
42
-0.0636
0
VERTEX
8
0
10
2.8188
20
10.1133
42
-0.1016
0
VERTEX
8
0
10
2.8496
20
10.4256
42
-0.1167
0
VERTEX
8
0
10
3.0035
20
10.6758
42
-0.1038
0
VERTEX
8
0
10
3.2485
20
10.8389
42
-0.0713
0
VERTEX
8
0
10
3.4778
20
10.8964
42
-0.1703
0
VERTEX
8
0
10
3.7003
20
10.8309
42
-0.3860
0
VERTEX
8
0
10
3.7615
20
10.4160
42
-0.1884
0
VERTEX
8
0
10
3.5765
20
10.2889
42
-0.0058
0
VERTEX
8
0
10
3.4856
20
10.2693
42
0.1086
0
VERTEX
8
0
10
3.4466
20
10.2450
42
0.1948
0
VERTEX
8
0
10
3.4318
20
10.2021
42
0.0417
0
VERTEX
8
0
10
3.4370
20
10.1399
42
0.1100
0
VERTEX
8
0
10
3.4607
20
10.0831
42
0.0659
0
VERTEX
8
0
10
3.5733
20
10.0091
42
0.1633
0
VERTEX
8
0
10
3.8499
20
9.9753
42
-0.0351
0
VERTEX
8
0
10
3.8907
20
9.9801
42
0.1374
0
VERTEX
8
0
10
3.9271
20
9.9962
42
-0.0110
0
VERTEX
8
0
10
3.9689
20
10.0622
42
-0.0269
0
VERTEX
8
0
10
4.0557
20
10.1747
42
-0.0474
0
VERTEX
8
0
10
4.2584
20
10.3725
42
-0.0674
0
VERTEX
8
0
10
4.4417
20
10.4803
42
-0.0251
0
VERTEX
8
0
10
4.5880
20
10.5430
42
-0.0139
0
VERTEX
8
0
10
4.6540
20
10.5655
42
0.2262
0
VERTEX
8
0
10
4.6739
20
10.5844
42
0.0292
0
VERTEX
8
0
10
4.6845
20
10.6106
42
-0.1108
0
VERTEX
8
0
10
5.0272
20
11.0490
42
-0.0774
0
VERTEX
8
0
10
5.5015
20
11.3439
42
-0.0295
0
VERTEX
8
0
10
5.7620
20
11.4404
42
-0.0065
0
VERTEX
8
0
10
5.8987
20
11.4806
0
SEQEND
8
0
0
POLYLINE
8
Layer 1
66
1
0
VERTEX
8
0
10
6.1013
20
11.4806
42
-0.0141
0
VERTEX
8
0
10
6.2380
20
11.4404
42
-0.0276
0
VERTEX
8
0
10
6.4985
20
11.3439
42
-0.0703
0
VERTEX
8
0
10
6.9728
20
11.0490
42
-0.0986
0
VERTEX
8
0
10
7.3155
20
10.6106
42
-0.0308
0
VERTEX
8
0
10
7.3262
20
10.5844
42
0.1833
0
VERTEX
8
0
10
7.3460
20
10.5655
42
-0.0130
0
VERTEX
8
0
10
7.4120
20
10.5430
42
-0.0251
0
VERTEX
8
0
10
7.5583
20
10.4803
42
-0.0394
0
VERTEX
8
0
10
7.7416
20
10.3725
42
-0.0541
0
VERTEX
8
0
10
7.9443
20
10.1747
42
-0.0178
0
VERTEX
8
0
10
8.0311
20
10.0622
42
-0.0189
0
VERTEX
8
0
10
8.0729
20
9.9962
42
0.3090
0
VERTEX
8
0
10
8.1093
20
9.9801
42
0.0140
0
VERTEX
8
0
10
8.1501
20
9.9753
42
0.1550
0
VERTEX
8
0
10
8.4267
20
10.0091
42
0.0716
0
VERTEX
8
0
10
8.5393
20
10.0831
42
0.2300
0
VERTEX
8
0
10
8.5629
20
10.1398
42
0.0460
0
VERTEX
8
0
10
8.5682
20
10.2021
42
0.3516
0
VERTEX
8
0
10
8.5142
20
10.2693
42
0.0641
0
VERTEX
8
0
10
8.4235
20
10.2889
42
-0.1865
0
VERTEX
8
0
10
8.2385
20
10.4160
42
-0.3860
0
VERTEX
8
0
10
8.2997
20
10.8309
42
-0.1982
0
VERTEX
8
0
10
8.5223
20
10.8964
42
-0.0976
0
VERTEX
8
0
10
8.7515
20
10.8389
42
-0.0996
0
VERTEX
8
0
10
8.9965
20
10.6758
42
-0.1133
0
VERTEX
8
0
10
9.1504
20
10.4256
42
-0.1140
0
VERTEX
8
0
10
9.1812
20
10.1133
42
-0.0749
0
VERTEX
8
0
10
9.1021
20
9.8081
42
-0.1170
0
VERTEX
8
0
10
9.0030
20
9.6664
42
-0.0472
0
VERTEX
8
0
10
8.8689
20
9.5556
42
-0.1425
0
VERTEX
8
0
10
8.3045
20
9.3514
42
-0.0121
0
VERTEX
8
0
10
8.2659
20
9.3498
0
VERTEX
8
0
10
8.2659
20
9.3192
42
-0.0081
0
VERTEX
8
0
10
8.2643
20
9.2501
42
-0.0291
0
VERTEX
8
0
10
8.2450
20
9.0941
42
-0.0548
0
VERTEX
8
0
10
8.1533
20
8.7917
42
-0.0746
0
VERTEX
8
0
10
7.8606
20
8.3077
0
VERTEX
8
0
10
7.8269
20
8.2643
42
-0.0088
0
VERTEX
8
0
10
7.7641
20
8.2369
42
-0.0368
0
VERTEX
8
0
10
7.5872
20
8.1710
42
-0.0563
0
VERTEX
8
0
10
7.2823
20
8.1166
42
-0.0883
0
VERTEX
8
0
10
6.9761
20
8.1565
42
-0.2395
0
VERTEX
8
0
10
6.5725
20
8.5730
42
-0.0863
0
VERTEX
8
0
10
6.5259
20
8.8834
42
-0.0251
0
VERTEX
8
0
10
6.5326
20
9.0165
42
-0.0899
0
VERTEX
8
0
10
6.5741
20
9.1423
42
-0.3842
0
VERTEX
8
0
10
6.9729
20
9.2629
42
-0.1828
0
VERTEX
8
0
10
7.1241
20
9.1037
42
-0.1155
0
VERTEX
8
0
10
7.1459
20
8.9764
42
-0.0049
0
VERTEX
8
0
10
7.1450
20
8.8464
42
0.0890
0
VERTEX
8
0
10
7.1691
20
8.7451
42
0.2464
0
VERTEX
8
0
10
7.2217
20
8.7318
42
0.0375
0
VERTEX
8
0
10
7.2769
20
8.7355
42
0.0547
0
VERTEX
8
0
10
7.4248
20
8.7676
42
0.2126
0
VERTEX
8
0
10
7.4530
20
8.7927
42
0.0260
0
VERTEX
8
0
10
7.4731
20
8.8255
42
0.0163
0
VERTEX
8
0
10
7.5181
20
8.8995
42
0.0636
0
VERTEX
8
0
10
7.6264
20
9.1604
42
0.1009
0
VERTEX
8
0
10
7.6387
20
9.4414
42
0.1165
0
VERTEX
8
0
10
7.5165
20
9.7213
42
0.0343
0
VERTEX
8
0
10
7.4318
20
9.8237
42
0.0676
0
VERTEX
8
0
10
7.3267
20
9.9046
42
0.0689
0
VERTEX
8
0
10
7.0833
20
9.9940
42
0.1040
0
VERTEX
8
0
10
6.9545
20
9.9845
42
0.1435
0
VERTEX
8
0
10
6.8491
20
9.9110
42
0.1228
0
VERTEX
8
0
10
6.7398
20
9.6859
42
-0.1915
0
VERTEX
8
0
10
6.5966
20
9.5058
42
-0.3992
0
VERTEX
8
0
10
6.1801
20
9.6135
42
-0.1971
0
VERTEX
8
0
10
6.1440
20
9.8416
42
-0.0828
0
VERTEX
8
0
10
6.2219
20
10.0638
42
-0.0686
0
VERTEX
8
0
10
6.3912
20
10.3248
42
-0.0864
0
VERTEX
8
0
10
6.6336
20
10.5189
42
0.0764
0
VERTEX
8
0
10
6.3870
20
10.7095
42
0.0530
0
VERTEX
8
0
10
6.1013
20
10.8357
0
VERTEX
8
0
10
6.1013
20
11.4806
0
SEQEND
8
0
0
POLYLINE
8
Layer 1
66
1
0
VERTEX
8
0
10
6.0241
20
8.8738
42
0.0071
0
VERTEX
8
0
10
6.0000
20
8.8722
42
0.0325
0
VERTEX
8
0
10
5.9759
20
8.8738
42
0.3811
0
VERTEX
8
0
10
5.6671
20
8.5923
42
0.0612
0
VERTEX
8
0
10
5.6665
20
8.4248
42
0.1360
0
VERTEX
8
0
10
5.7202
20
8.2675
42
0.2639
0
VERTEX
8
0
10
6.0000
20
8.1340
42
0.2700
0
VERTEX
8
0
10
6.2798
20
8.2675
42
0.1058
0
VERTEX
8
0
10
6.3335
20
8.4248
42
0.0452
0
VERTEX
8
0
10
6.3329
20
8.5923
42
0.3811
0
VERTEX
8
0
10
6.0241
20
8.8738
0
SEQEND
8
0
0
POLYLINE
8
Layer 1
66
1
0
VERTEX
8
0
10
6.3852
20
8.0039
42
0.1882
0
VERTEX
8
0
10
6.1785
20
7.7738
42
0.1257
0
VERTEX
8
0
10
6.1480
20
7.4779
42
-0.0925
0
VERTEX
8
0
10
6.3781
20
7.5049
42
-0.1635
0
VERTEX
8
0
10
6.5934
20
7.4264
42
-0.1340
0
VERTEX
8
0
10
6.7205
20
7.2399
42
-0.0372
0
VERTEX
8
0
10
6.7381
20
7.1739
42
-0.1752
0
VERTEX
8
0
10
6.7265
20
7.1311
42
-0.0089
0
VERTEX
8
0
10
6.6963
20
7.0967
42
-0.1512
0
VERTEX
8
0
10
6.5766
20
7.0206
42
-0.1264
0
VERTEX
8
0
10
6.4343
20
7.0239
42
-0.1285
0
VERTEX
8
0
10
6.1978
20
7.1820
42
0.0637
0
VERTEX
8
0
10
6.1846
20
7.0048
42
0.0871
0
VERTEX
8
0
10
6.2219
20
6.8314
42
0.2246
0
VERTEX
8
0
10
6.5403
20
6.5387
42
0.2261
0
VERTEX
8
0
10
6.8314
20
6.2203
42
0.0806
0
VERTEX
8
0
10
7.0049
20
6.1839
42
0.0544
0
VERTEX
8
0
10
7.1820
20
6.1978
42
-0.0620
0
VERTEX
8
0
10
7.0869
20
6.3052
42
-0.0893
0
VERTEX
8
0
10
7.0247
20
6.4344
42
-0.2871
0
VERTEX
8
0
10
7.0984
20
6.6963
42
-0.0531
0
VERTEX
8
0
10
7.1318
20
6.7265
42
-0.2301
0
VERTEX
8
0
10
7.1739
20
6.7381
42
-0.0349
0
VERTEX
8
0
10
7.2415
20
6.7205
42
-0.1489
0
VERTEX
8
0
10
7.4264
20
6.5934
42
-0.1428
0
VERTEX
8
0
10
7.5050
20
6.3781
42
-0.0744
0
VERTEX
8
0
10
7.4779
20
6.1480
42
0.1256
0
VERTEX
8
0
10
7.7738
20
6.1785
42
0.1823
0
VERTEX
8
0
10
8.0038
20
6.3852
42
0.1089
0
VERTEX
8
0
10
8.0713
20
6.6915
42
0.1175
0
VERTEX
8
0
10
8.0461
20
6.8577
42
0.0870
0
VERTEX
8
0
10
7.9534
20
6.9988
42
0.1140
0
VERTEX
8
0
10
7.6693
20
7.1788
42
0.1204
0
VERTEX
8
0
10
7.8666
20
7.4699
42
0.0591
0
VERTEX
8
0
10
7.9394
20
7.8172
42
0.0151
0
VERTEX
8
0
10
7.9459
20
7.9443
0
VERTEX
8
0
10
7.9459
20
7.9443
0
VERTEX
8
0
10
7.9443
20
7.9459
42
0.0202
0
VERTEX
8
0
10
7.8172
20
7.9394
42
0.0748
0
VERTEX
8
0
10
7.4699
20
7.8666
42
0.1463
0
VERTEX
8
0
10
7.1788
20
7.6693
42
0.1152
0
VERTEX
8
0
10
7.0149
20
7.9373
42
0.0866
0
VERTEX
8
0
10
6.8885
20
8.0314
42
0.1109
0
VERTEX
8
0
10
6.7365
20
8.0713
42
0.0437
0
VERTEX
8
0
10
6.6915
20
8.0713
42
0.1315
0
VERTEX
8
0
10
6.3852
20
8.0039
0
SEQEND
8
0
0
POLYLINE
8
Layer 1
66
1
0
VERTEX
8
0
10
5.8215
20
7.7738
42
0.1824
0
VERTEX
8
0
10
5.6148
20
8.0039
42
0.1088
0
VERTEX
8
0
10
5.3085
20
8.0713
42
0.0182
0
VERTEX
8
0
10
5.2635
20
8.0713
42
0.1057
0
VERTEX
8
0
10
5.1116
20
8.0315
42
0.0768
0
VERTEX
8
0
10
4.9851
20
7.9374
42
0.1053
0
VERTEX
8
0
10
4.8212
20
7.6693
42
0.1202
0
VERTEX
8
0
10
4.5301
20
7.8666
42
0.0595
0
VERTEX
8
0
10
4.1828
20
7.9394
42
0.0111
0
VERTEX
8
0
10
4.0557
20
7.9459
0
VERTEX
8
0
10
4.0557
20
7.9459
0
VERTEX
8
0
10
4.0541
20
7.9443
42
0.0168
0
VERTEX
8
0
10
4.0606
20
7.8172
42
0.0746
0
VERTEX
8
0
10
4.1334
20
7.4699
42
0.1468
0
VERTEX
8
0
10
4.3307
20
7.1788
42
0.1265
0
VERTEX
8
0
10
4.0466
20
6.9988
42
0.0987
0
VERTEX
8
0
10
3.9539
20
6.8578
42
0.1194
0
VERTEX
8
0
10
3.9287
20
6.6915
42
0.1314
0
VERTEX
8
0
10
3.9962
20
6.3852
42
0.1880
0
VERTEX
8
0
10
4.2262
20
6.1785
42
0.1256
0
VERTEX
8
0
10
4.5221
20
6.1480
42
-0.0930
0
VERTEX
8
0
10
4.4950
20
6.3781
42
-0.1626
0
VERTEX
8
0
10
4.5736
20
6.5934
42
-0.1333
0
VERTEX
8
0
10
4.7585
20
6.7205
42
-0.0355
0
VERTEX
8
0
10
4.8261
20
6.7381
42
-0.1821
0
VERTEX
8
0
10
4.8682
20
6.7266
42
-0.0044
0
VERTEX
8
0
10
4.9016
20
6.6963
42
-0.1504
0
VERTEX
8
0
10
4.9781
20
6.5768
42
-0.1263
0
VERTEX
8
0
10
4.9754
20
6.4346
42
-0.1298
0
VERTEX
8
0
10
4.8180
20
6.1978
42
0.0624
0
VERTEX
8
0
10
4.9951
20
6.1839
42
0.0904
0
VERTEX
8
0
10
5.1686
20
6.2203
42
0.2234
0
VERTEX
8
0
10
5.4597
20
6.5387
42
0.2257
0
VERTEX
8
0
10
5.7781
20
6.8314
42
0.0797
0
VERTEX
8
0
10
5.8154
20
7.0048
42
0.0576
0
VERTEX
8
0
10
5.8022
20
7.1820
42
-0.0614
0
VERTEX
8
0
10
5.6949
20
7.0867
42
-0.0890
0
VERTEX
8
0
10
5.5659
20
7.0240
42
-0.2883
0
VERTEX
8
0
10
5.3037
20
7.0967
42
-0.0545
0
VERTEX
8
0
10
5.2735
20
7.1310
42
-0.2237
0
VERTEX
8
0
10
5.2619
20
7.1739
42
-0.0376
0
VERTEX
8
0
10
5.2795
20
7.2399
42
-0.1511
0
VERTEX
8
0
10
5.4066
20
7.4264
42
-0.1417
0
VERTEX
8
0
10
5.6219
20
7.5049
42
-0.0746
0
VERTEX
8
0
10
5.8520
20
7.4779
42
0.1257
0
VERTEX
8
0
10
5.8215
20
7.7738
0
SEQEND
8
0
0
POLYLINE
8
Layer 1
66
1
0
VERTEX
8
0
10
3.8835
20
7.2815
42
0.0559
0
VERTEX
8
0
10
3.8290
20
7.5856
42
0.0363
0
VERTEX
8
0
10
3.7631
20
7.7641
42
-0.0040
0
VERTEX
8
0
10
3.7341
20
7.8269
42
0.0158
0
VERTEX
8
0
10
3.6923
20
7.8606
42
0.0749
0
VERTEX
8
0
10
3.2083
20
8.1533
42
0.0518
0
VERTEX
8
0
10
2.9059
20
8.2434
42
0.0293
0
VERTEX
8
0
10
2.7499
20
8.2627
42
0.0237
0
VERTEX
8
0
10
2.6808
20
8.2659
0
VERTEX
8
0
10
2.6502
20
8.2659
42
0.0049
0
VERTEX
8
0
10
2.6486
20
8.3045
42
0.1413
0
VERTEX
8
0
10
2.4444
20
8.8689
42
0.0464
0
VERTEX
8
0
10
2.3336
20
9.0031
42
0.1188
0
VERTEX
8
0
10
2.1919
20
9.1021
42
0.1001
0
VERTEX
8
0
10
1.8076
20
9.1857
42
0.0881
0
VERTEX
8
0
10
1.5744
20
9.1520
42
0.1140
0
VERTEX
8
0
10
1.3240
20
8.9974
42
0.0988
0
VERTEX
8
0
10
1.1611
20
8.7515
42
0.0979
0
VERTEX
8
0
10
1.1035
20
8.5230
42
0.1967
0
VERTEX
8
0
10
1.1691
20
8.3012
42
0.3860
0
VERTEX
8
0
10
1.5840
20
8.2385
42
0.1852
0
VERTEX
8
0
10
1.7111
20
8.4251
42
-0.0642
0
VERTEX
8
0
10
1.7307
20
8.5158
42
-0.3515
0
VERTEX
8
0
10
1.7979
20
8.5698
42
-0.0459
0
VERTEX
8
0
10
1.8602
20
8.5646
42
-0.2320
0
VERTEX
8
0
10
1.9169
20
8.5409
42
-0.0696
0
VERTEX
8
0
10
1.9909
20
8.4283
42
-0.1529
0
VERTEX
8
0
10
2.0247
20
8.1501
42
-0.0145
0
VERTEX
8
0
10
2.0199
20
8.1101
42
-0.3094
0
VERTEX
8
0
10
2.0038
20
8.0745
42
0.0122
0
VERTEX
8
0
10
1.9394
20
8.0327
42
0.0232
0
VERTEX
8
0
10
1.8269
20
7.9459
42
0.0539
0
VERTEX
8
0
10
1.6275
20
7.7432
42
0.0398
0
VERTEX
8
0
10
1.5197
20
7.5599
42
0.0246
0
VERTEX
8
0
10
1.4570
20
7.4136
42
0.0130
0
VERTEX
8
0
10
1.4345
20
7.3476
42
-0.1742
0
VERTEX
8
0
10
1.4157
20
7.3270
42
0.0172
0
VERTEX
8
0
10
1.3894
20
7.3155
42
0.0984
0
VERTEX
8
0
10
0.9510
20
6.9737
42
0.0710
0
VERTEX
8
0
10
0.6561
20
6.5001
42
0.0290
0
VERTEX
8
0
10
0.5596
20
6.2396
42
0.0138
0
VERTEX
8
0
10
0.5194
20
6.1013
0
VERTEX
8
0
10
1.1627
20
6.1013
42
-0.0533
0
VERTEX
8
0
10
1.2897
20
6.3870
42
-0.0757
0
VERTEX
8
0
10
1.4811
20
6.6336
42
0.0861
0
VERTEX
8
0
10
1.6751
20
6.3904
42
0.0697
0
VERTEX
8
0
10
1.9362
20
6.2203
42
0.0839
0
VERTEX
8
0
10
2.1578
20
6.1431
42
0.1943
0
VERTEX
8
0
10
2.3849
20
6.1801
42
0.1911
0
VERTEX
8
0
10
2.5226
20
6.3658
42
0.1983
0
VERTEX
8
0
10
2.4942
20
6.5950
42
0.1949
0
VERTEX
8
0
10
2.3141
20
6.7398
42
-0.0386
0
VERTEX
8
0
10
2.1958
20
6.7820
42
-0.0754
0
VERTEX
8
0
10
2.0890
20
6.8475
42
-0.1427
0
VERTEX
8
0
10
2.0152
20
6.9531
42
-0.1035
0
VERTEX
8
0
10
2.0051
20
7.0823
42
-0.0713
0
VERTEX
8
0
10
2.0938
20
7.3267
42
-0.0699
0
VERTEX
8
0
10
2.1754
20
7.4319
42
-0.0328
0
VERTEX
8
0
10
2.2787
20
7.5165
42
-0.1152
0
VERTEX
8
0
10
2.5570
20
7.6371
42
-0.1002
0
VERTEX
8
0
10
2.8386
20
7.6257
42
-0.0645
0
VERTEX
8
0
10
3.1005
20
7.5181
42
-0.0078
0
VERTEX
8
0
10
3.1729
20
7.4731
42
-0.0215
0
VERTEX
8
0
10
3.2064
20
7.4530
42
-0.2258
0
VERTEX
8
0
10
3.2324
20
7.4248
42
-0.0567
0
VERTEX
8
0
10
3.2645
20
7.2769
42
-0.0371
0
VERTEX
8
0
10
3.2682
20
7.2209
42
-0.2468
0
VERTEX
8
0
10
3.2549
20
7.1675
42
-0.0919
0
VERTEX
8
0
10
3.2059
20
7.1498
42
-0.0153
0
VERTEX
8
0
10
3.1536
20
7.1450
42
0.0049
0
VERTEX
8
0
10
3.0236
20
7.1459
42
0.1146
0
VERTEX
8
0
10
2.8963
20
7.1241
42
0.1844
0
VERTEX
8
0
10
2.7371
20
6.9729
42
0.3835
0
VERTEX
8
0
10
2.8577
20
6.5741
42
0.0885
0
VERTEX
8
0
10
2.9835
20
6.5326
42
0.0254
0
VERTEX
8
0
10
3.1166
20
6.5259
42
0.0880
0
VERTEX
8
0
10
3.4270
20
6.5709
42
0.2388
0
VERTEX
8
0
10
3.8435
20
6.9761
42
0.0887
0
VERTEX
8
0
10
3.8835
20
7.2815
0
SEQEND
8
0
0
POLYLINE
8
Layer 1
66
1
0
VERTEX
8
0
10
3.6157
20
6.3264
42
0.0475
0
VERTEX
8
0
10
3.4897
20
6.3361
42
0.0169
0
VERTEX
8
0
10
3.4077
20
6.3313
42
0.3817
0
VERTEX
8
0
10
3.1262
20
6.0241
42
0.0091
0
VERTEX
8
0
10
3.1278
20
6.0000
42
0.0320
0
VERTEX
8
0
10
3.1262
20
5.9759
42
0.3817
0
VERTEX
8
0
10
3.4077
20
5.6687
42
0.0215
0
VERTEX
8
0
10
3.4897
20
5.6639
42
0.0591
0
VERTEX
8
0
10
3.6157
20
5.6736
42
0.1092
0
VERTEX
8
0
10
3.7325
20
5.7202
42
0.2638
0
VERTEX
8
0
10
3.8660
20
6.0000
42
0.2711
0
VERTEX
8
0
10
3.7325
20
6.2798
42
0.0922
0
VERTEX
8
0
10
3.6157
20
6.3264
0
SEQEND
8
0
0
POLYLINE
8
Layer 1
66
1
0
VERTEX
8
0
10
4.2262
20
5.8215
42
0.1823
0
VERTEX
8
0
10
3.9962
20
5.6148
42
0.1089
0
VERTEX
8
0
10
3.9287
20
5.3085
42
0.1175
0
VERTEX
8
0
10
3.9539
20
5.1423
42
0.0870
0
VERTEX
8
0
10
4.0466
20
5.0012
42
0.1140
0
VERTEX
8
0
10
4.3307
20
4.8212
42
0.1204
0
VERTEX
8
0
10
4.1334
20
4.5301
42
0.0591
0
VERTEX
8
0
10
4.0606
20
4.1828
42
0.0151
0
VERTEX
8
0
10
4.0541
20
4.0557
0
VERTEX
8
0
10
4.0541
20
4.0557
0
VERTEX
8
0
10
4.0557
20
4.0541
42
0.0202
0
VERTEX
8
0
10
4.1828
20
4.0606
42
0.0749
0
VERTEX
8
0
10
4.5301
20
4.1334
42
0.1462
0
VERTEX
8
0
10
4.8212
20
4.3307
42
0.1152
0
VERTEX
8
0
10
4.9851
20
4.0627
42
0.0866
0
VERTEX
8
0
10
5.1115
20
3.9686
42
0.1109
0
VERTEX
8
0
10
5.2635
20
3.9287
42
0.0437
0
VERTEX
8
0
10
5.3085
20
3.9287
42
0.1315
0
VERTEX
8
0
10
5.6148
20
3.9961
42
0.1882
0
VERTEX
8
0
10
5.8215
20
4.2262
42
0.1257
0
VERTEX
8
0
10
5.8520
20
4.5221
42
-0.0925
0
VERTEX
8
0
10
5.6219
20
4.4951
42
-0.1635
0
VERTEX
8
0
10
5.4066
20
4.5736
42
-0.1340
0
VERTEX
8
0
10
5.2795
20
4.7601
42
-0.0372
0
VERTEX
8
0
10
5.2619
20
4.8261
42
-0.1752
0
VERTEX
8
0
10
5.2735
20
4.8689
42
-0.0089
0
VERTEX
8
0
10
5.3037
20
4.9033
42
-0.1512
0
VERTEX
8
0
10
5.4234
20
4.9794
42
-0.1264
0
VERTEX
8
0
10
5.5657
20
4.9761
42
-0.1285
0
VERTEX
8
0
10
5.8022
20
4.8180
42
0.0637
0
VERTEX
8
0
10
5.8154
20
4.9952
42
0.0871
0
VERTEX
8
0
10
5.7781
20
5.1686
42
0.2246
0
VERTEX
8
0
10
5.4597
20
5.4613
42
0.2261
0
VERTEX
8
0
10
5.1686
20
5.7797
42
0.0806
0
VERTEX
8
0
10
4.9951
20
5.8161
42
0.0544
0
VERTEX
8
0
10
4.8180
20
5.8022
42
-0.0620
0
VERTEX
8
0
10
4.9131
20
5.6948
42
-0.0893
0
VERTEX
8
0
10
4.9753
20
5.5656
42
-0.2871
0
VERTEX
8
0
10
4.9016
20
5.3037
42
-0.0531
0
VERTEX
8
0
10
4.8682
20
5.2735
42
-0.2301
0
VERTEX
8
0
10
4.8261
20
5.2619
42
-0.0349
0
VERTEX
8
0
10
4.7585
20
5.2795
42
-0.1489
0
VERTEX
8
0
10
4.5736
20
5.4066
42
-0.1428
0
VERTEX
8
0
10
4.4950
20
5.6219
42
-0.0744
0
VERTEX
8
0
10
4.5221
20
5.8520
42
0.0326
0
VERTEX
8
0
10
4.4481
20
5.8585
42
0.0970
0
VERTEX
8
0
10
4.2262
20
5.8215
0
SEQEND
8
0
0
POLYLINE
8
Layer 1
66
1
0
VERTEX
8
0
10
3.8435
20
5.0239
42
0.2304
0
VERTEX
8
0
10
3.4270
20
5.4291
42
0.0731
0
VERTEX
8
0
10
3.1166
20
5.4741
42
0.0456
0
VERTEX
8
0
10
2.9835
20
5.4674
42
0.1076
0
VERTEX
8
0
10
2.8577
20
5.4259
42
0.3835
0
VERTEX
8
0
10
2.7371
20
5.0271
42
0.1830
0
VERTEX
8
0
10
2.8963
20
4.8759
42
0.0832
0
VERTEX
8
0
10
3.0236
20
4.8541
42
-0.0338
0
VERTEX
8
0
10
3.1536
20
4.8550
42
-0.0368
0
VERTEX
8
0
10
3.2059
20
4.8502
42
-0.1317
0
VERTEX
8
0
10
3.2549
20
4.8325
42
-0.1190
0
VERTEX
8
0
10
3.2682
20
4.7791
42
-0.0138
0
VERTEX
8
0
10
3.2645
20
4.7231
42
-0.0467
0
VERTEX
8
0
10
3.2324
20
4.5752
42
-0.1216
0
VERTEX
8
0
10
3.2064
20
4.5470
42
0.0202
0
VERTEX
8
0
10
3.1729
20
4.5269
42
-0.0180
0
VERTEX
8
0
10
3.1005
20
4.4819
42
-0.0750
0
VERTEX
8
0
10
2.8386
20
4.3744
42
-0.1118
0
VERTEX
8
0
10
2.5570
20
4.3629
42
-0.1074
0
VERTEX
8
0
10
2.2787
20
4.4835
42
-0.0435
0
VERTEX
8
0
10
2.1754
20
4.5681
42
-0.0868
0
VERTEX
8
0
10
2.0938
20
4.6733
42
-0.0343
0
VERTEX
8
0
10
2.0388
20
4.7915
42
-0.0665
0
VERTEX
8
0
10
2.0051
20
4.9175
42
-0.2717
0
VERTEX
8
0
10
2.0890
20
5.1525
42
-0.0640
0
VERTEX
8
0
10
2.1958
20
5.2180
42
-0.0257
0
VERTEX
8
0
10
2.3141
20
5.2602
42
0.1915
0
VERTEX
8
0
10
2.4942
20
5.4050
42
0.1940
0
VERTEX
8
0
10
2.5226
20
5.6342
42
0.1961
0
VERTEX
8
0
10
2.3849
20
5.8199
42
0.1652
0
VERTEX
8
0
10
2.1578
20
5.8569
42
0.0518
0
VERTEX
8
0
10
1.9362
20
5.7797
42
0.0744
0
VERTEX
8
0
10
1.6751
20
5.6096
42
0.0919
0
VERTEX
8
0
10
1.4811
20
5.3664
42
-0.0677
0
VERTEX
8
0
10
1.2897
20
5.6130
42
-0.0474
0
VERTEX
8
0
10
1.1627
20
5.8987
0
VERTEX
8
0
10
0.5194
20
5.8987
42
0.0081
0
VERTEX
8
0
10
0.5596
20
5.7604
42
0.0309
0
VERTEX
8
0
10
0.6561
20
5.4999
42
0.0778
0
VERTEX
8
0
10
0.9510
20
5.0263
42
0.1102
0
VERTEX
8
0
10
1.3894
20
4.6845
42
-0.0368
0
VERTEX
8
0
10
1.4157
20
4.6730
42
-0.2189
0
VERTEX
8
0
10
1.4345
20
4.6524
42
0.0146
0
VERTEX
8
0
10
1.4570
20
4.5864
42
0.0246
0
VERTEX
8
0
10
1.5197
20
4.4401
42
0.0674
0
VERTEX
8
0
10
1.6275
20
4.2568
42
0.0461
0
VERTEX
8
0
10
1.8269
20
4.0541
42
0.0259
0
VERTEX
8
0
10
1.9394
20
3.9673
42
0.0164
0
VERTEX
8
0
10
2.0038
20
3.9255
42
-0.1405
0
VERTEX
8
0
10
2.0199
20
3.8899
42
0.0338
0
VERTEX
8
0
10
2.0247
20
3.8499
42
-0.1616
0
VERTEX
8
0
10
1.9909
20
3.5717
42
-0.0666
0
VERTEX
8
0
10
1.9169
20
3.4591
42
-0.1104
0
VERTEX
8
0
10
1.8601
20
3.4354
42
-0.0409
0
VERTEX
8
0
10
1.7979
20
3.4302
42
-0.1932
0
VERTEX
8
0
10
1.7550
20
3.4450
42
-0.1080
0
VERTEX
8
0
10
1.7307
20
3.4840
42
0.0059
0
VERTEX
8
0
10
1.7111
20
3.5749
42
0.1903
0
VERTEX
8
0
10
1.5840
20
3.7615
42
0.3861
0
VERTEX
8
0
10
1.1691
20
3.6988
42
0.1714
0
VERTEX
8
0
10
1.1035
20
3.4770
42
0.0691
0
VERTEX
8
0
10
1.1611
20
3.2485
42
0.1030
0
VERTEX
8
0
10
1.3240
20
3.0026
42
0.1184
0
VERTEX
8
0
10
1.5744
20
2.8480
42
0.0780
0
VERTEX
8
0
10
1.8076
20
2.8143
42
0.0838
0
VERTEX
8
0
10
2.1919
20
2.8979
42
0.0886
0
VERTEX
8
0
10
2.3336
20
2.9969
42
0.0310
0
VERTEX
8
0
10
2.4444
20
3.1311
42
0.1449
0
VERTEX
8
0
10
2.6486
20
3.6955
42
0.0126
0
VERTEX
8
0
10
2.6502
20
3.7341
42
0.0126
0
VERTEX
8
0
10
2.6808
20
3.7341
42
0.0054
0
VERTEX
8
0
10
2.7499
20
3.7373
42
0.0293
0
VERTEX
8
0
10
2.9059
20
3.7566
42
0.0518
0
VERTEX
8
0
10
3.2083
20
3.8467
42
0.0602
0
VERTEX
8
0
10
3.6923
20
4.1394
42
0.0083
0
VERTEX
8
0
10
3.7148
20
4.1545
42
0.1882
0
VERTEX
8
0
10
3.7341
20
4.1731
42
0.0042
0
VERTEX
8
0
10
3.7631
20
4.2359
42
0.0330
0
VERTEX
8
0
10
3.8290
20
4.4144
42
0.0655
0
VERTEX
8
0
10
3.8835
20
4.7185
42
0.1007
0
VERTEX
8
0
10
3.8435
20
5.0239
0
SEQEND
8
0
0
POLYLINE
8
Layer 1
66
1
0
VERTEX
8
0
10
4.2359
20
3.7631
42
0.0088
0
VERTEX
8
0
10
4.1731
20
3.7357
0
VERTEX
8
0
10
4.1394
20
3.6923
42
0.0746
0
VERTEX
8
0
10
3.8467
20
3.2083
42
0.0548
0
VERTEX
8
0
10
3.7550
20
2.9059
42
0.0291
0
VERTEX
8
0
10
3.7357
20
2.7499
42
0.0081
0
VERTEX
8
0
10
3.7341
20
2.6808
0
VERTEX
8
0
10
3.7341
20
2.6502
42
0.0121
0
VERTEX
8
0
10
3.6955
20
2.6486
42
0.1425
0
VERTEX
8
0
10
3.1311
20
2.4444
42
0.0472
0
VERTEX
8
0
10
2.9970
20
2.3336
42
0.1170
0
VERTEX
8
0
10
2.8979
20
2.1919
42
0.0749
0
VERTEX
8
0
10
2.8188
20
1.8867
42
0.1140
0
VERTEX
8
0
10
2.8496
20
1.5744
42
0.1133
0
VERTEX
8
0
10
3.0035
20
1.3242
42
0.0996
0
VERTEX
8
0
10
3.2485
20
1.1611
42
0.0976
0
VERTEX
8
0
10
3.4777
20
1.1036
42
0.1982
0
VERTEX
8
0
10
3.7003
20
1.1691
42
0.3860
0
VERTEX
8
0
10
3.7615
20
1.5840
42
0.1865
0
VERTEX
8
0
10
3.5765
20
1.7111
42
-0.0641
0
VERTEX
8
0
10
3.4858
20
1.7307
42
-0.3516
0
VERTEX
8
0
10
3.4318
20
1.7979
42
-0.0460
0
VERTEX
8
0
10
3.4371
20
1.8602
42
-0.2300
0
VERTEX
8
0
10
3.4607
20
1.9169
42
-0.0716
0
VERTEX
8
0
10
3.5733
20
1.9909
42
-0.1550
0
VERTEX
8
0
10
3.8499
20
2.0247
42
-0.0140
0
VERTEX
8
0
10
3.8907
20
2.0199
42
-0.3090
0
VERTEX
8
0
10
3.9271
20
2.0038
42
0.0189
0
VERTEX
8
0
10
3.9689
20
1.9378
42
0.0178
0
VERTEX
8
0
10
4.0557
20
1.8253
42
0.0541
0
VERTEX
8
0
10
4.2584
20
1.6275
42
0.0394
0
VERTEX
8
0
10
4.4417
20
1.5197
42
0.0251
0
VERTEX
8
0
10
4.5880
20
1.4570
42
0.0130
0
VERTEX
8
0
10
4.6540
20
1.4345
42
-0.1833
0
VERTEX
8
0
10
4.6738
20
1.4156
42
0.0308
0
VERTEX
8
0
10
4.6845
20
1.3894
42
0.0986
0
VERTEX
8
0
10
5.0272
20
0.9510
42
0.0703
0
VERTEX
8
0
10
5.5015
20
0.6561
42
0.0276
0
VERTEX
8
0
10
5.7620
20
0.5596
42
0.0141
0
VERTEX
8
0
10
5.8987
20
0.5194
0
VERTEX
8
0
10
5.8987
20
1.1643
42
-0.0530
0
VERTEX
8
0
10
5.6130
20
1.2905
42
-0.0764
0
VERTEX
8
0
10
5.3664
20
1.4811
42
0.0864
0
VERTEX
8
0
10
5.6088
20
1.6752
42
0.0686
0
VERTEX
8
0
10
5.7781
20
1.9362
42
0.0828
0
VERTEX
8
0
10
5.8560
20
2.1584
42
0.1971
0
VERTEX
8
0
10
5.8199
20
2.3865
42
0.3992
0
VERTEX
8
0
10
5.4034
20
2.4942
42
0.1915
0
VERTEX
8
0
10
5.2602
20
2.3141
42
-0.1228
0
VERTEX
8
0
10
5.1509
20
2.0890
42
-0.1435
0
VERTEX
8
0
10
5.0455
20
2.0155
42
-0.1040
0
VERTEX
8
0
10
4.9167
20
2.0060
42
-0.0689
0
VERTEX
8
0
10
4.6733
20
2.0954
42
-0.0676
0
VERTEX
8
0
10
4.5682
20
2.1763
42
-0.0343
0
VERTEX
8
0
10
4.4835
20
2.2787
42
-0.1165
0
VERTEX
8
0
10
4.3613
20
2.5586
42
-0.1009
0
VERTEX
8
0
10
4.3736
20
2.8396
42
-0.0636
0
VERTEX
8
0
10
4.4819
20
3.1005
42
-0.0163
0
VERTEX
8
0
10
4.5269
20
3.1745
42
-0.0260
0
VERTEX
8
0
10
4.5470
20
3.2073
42
-0.2126
0
VERTEX
8
0
10
4.5752
20
3.2324
42
-0.0547
0
VERTEX
8
0
10
4.7231
20
3.2645
42
-0.0375
0
VERTEX
8
0
10
4.7783
20
3.2682
42
-0.2464
0
VERTEX
8
0
10
4.8309
20
3.2549
42
-0.0890
0
VERTEX
8
0
10
4.8550
20
3.1536
42
0.0049
0
VERTEX
8
0
10
4.8541
20
3.0236
42
0.1155
0
VERTEX
8
0
10
4.8759
20
2.8963
42
0.1828
0
VERTEX
8
0
10
5.0271
20
2.7371
42
0.3842
0
VERTEX
8
0
10
5.4259
20
2.8577
42
0.0899
0
VERTEX
8
0
10
5.4674
20
2.9835
42
0.0251
0
VERTEX
8
0
10
5.4741
20
3.1166
42
0.0863
0
VERTEX
8
0
10
5.4275
20
3.4270
42
0.2395
0
VERTEX
8
0
10
5.0239
20
3.8435
42
0.0887
0
VERTEX
8
0
10
4.7183
20
3.8837
42
0.0565
0
VERTEX
8
0
10
4.4128
20
3.8290
42
0.0368
0
VERTEX
8
0
10
4.2359
20
3.7631
0
SEQEND
8
0
0
POLYLINE
8
Layer 1
66
1
0
VERTEX
8
0
10
5.6665
20
3.5752
42
0.0452
0
VERTEX
8
0
10
5.6671
20
3.4077
42
0.3811
0
VERTEX
8
0
10
5.9759
20
3.1262
42
0.0071
0
VERTEX
8
0
10
6.0000
20
3.1278
42
0.0325
0
VERTEX
8
0
10
6.0241
20
3.1262
42
0.3811
0
VERTEX
8
0
10
6.3329
20
3.4077
42
0.0612
0
VERTEX
8
0
10
6.3335
20
3.5752
42
0.1360
0
VERTEX
8
0
10
6.2798
20
3.7325
42
0.2639
0
VERTEX
8
0
10
6.0000
20
3.8660
42
0.0289
0
VERTEX
8
0
10
5.9598
20
3.8660
42
0.2379
0
VERTEX
8
0
10
5.7202
20
3.7325
42
0.1058
0
VERTEX
8
0
10
5.6665
20
3.5752
0
SEQEND
8
0
0
POLYLINE
8
Layer 1
66
1
0
VERTEX
8
0
10
6.1785
20
4.2262
42
0.1824
0
VERTEX
8
0
10
6.3852
20
3.9961
42
0.1088
0
VERTEX
8
0
10
6.6915
20
3.9287
42
0.0182
0
VERTEX
8
0
10
6.7365
20
3.9287
42
0.1057
0
VERTEX
8
0
10
6.8884
20
3.9685
42
0.0768
0
VERTEX
8
0
10
7.0149
20
4.0626
42
0.1053
0
VERTEX
8
0
10
7.1788
20
4.3307
42
0.1203
0
VERTEX
8
0
10
7.4699
20
4.1334
42
0.0595
0
VERTEX
8
0
10
7.8172
20
4.0606
42
0.0111
0
VERTEX
8
0
10
7.9443
20
4.0541
0
VERTEX
8
0
10
7.9443
20
4.0541
0
VERTEX
8
0
10
7.9459
20
4.0557
42
0.0168
0
VERTEX
8
0
10
7.9394
20
4.1828
42
0.0746
0
VERTEX
8
0
10
7.8666
20
4.5301
42
0.1468
0
VERTEX
8
0
10
7.6693
20
4.8212
42
0.1265
0
VERTEX
8
0
10
7.9534
20
5.0012
42
0.0987
0
VERTEX
8
0
10
8.0461
20
5.1422
42
0.1194
0
VERTEX
8
0
10
8.0713
20
5.3085
42
0.1314
0
VERTEX
8
0
10
8.0038
20
5.6148
42
0.1880
0
VERTEX
8
0
10
7.7738
20
5.8215
42
0.0937
0
VERTEX
8
0
10
7.5519
20
5.8585
42
0.0332
0
VERTEX
8
0
10
7.4779
20
5.8520
42
-0.0930
0
VERTEX
8
0
10
7.5050
20
5.6219
42
-0.1626
0
VERTEX
8
0
10
7.4264
20
5.4066
42
-0.1333
0
VERTEX
8
0
10
7.2415
20
5.2795
42
-0.0355
0
VERTEX
8
0
10
7.1739
20
5.2619
42
-0.1821
0
VERTEX
8
0
10
7.1318
20
5.2734
42
-0.0044
0
VERTEX
8
0
10
7.0984
20
5.3037
42
-0.1504
0
VERTEX
8
0
10
7.0219
20
5.4232
42
-0.1263
0
VERTEX
8
0
10
7.0246
20
5.5654
42
-0.1298
0
VERTEX
8
0
10
7.1820
20
5.8022
42
0.0624
0
VERTEX
8
0
10
7.0049
20
5.8161
42
0.0904
0
VERTEX
8
0
10
6.8314
20
5.7797
42
0.2234
0
VERTEX
8
0
10
6.5403
20
5.4613
42
0.2257
0
VERTEX
8
0
10
6.2219
20
5.1686
42
0.0797
0
VERTEX
8
0
10
6.1846
20
4.9952
42
0.0576
0
VERTEX
8
0
10
6.1978
20
4.8180
42
-0.0614
0
VERTEX
8
0
10
6.3051
20
4.9133
42
-0.0890
0
VERTEX
8
0
10
6.4341
20
4.9760
42
-0.2883
0
VERTEX
8
0
10
6.6963
20
4.9033
42
-0.0545
0
VERTEX
8
0
10
6.7265
20
4.8690
42
-0.2237
0
VERTEX
8
0
10
6.7381
20
4.8261
42
-0.0376
0
VERTEX
8
0
10
6.7205
20
4.7601
42
-0.1511
0
VERTEX
8
0
10
6.5934
20
4.5736
42
-0.1417
0
VERTEX
8
0
10
6.3781
20
4.4951
42
-0.0746
0
VERTEX
8
0
10
6.1480
20
4.5221
42
0.1257
0
VERTEX
8
0
10
6.1785
20
4.2262
0
SEQEND
8
0
0
POLYLINE
8
Layer 1
66
1
0
VERTEX
8
0
10
6.9761
20
3.8435
42
0.2303
0
VERTEX
8
0
10
6.5725
20
3.4270
42
0.0757
0
VERTEX
8
0
10
6.5259
20
3.1166
42
0.0458
0
VERTEX
8
0
10
6.5326
20
2.9835
42
0.1099
0
VERTEX
8
0
10
6.5741
20
2.8577
42
0.3842
0
VERTEX
8
0
10
6.9729
20
2.7371
42
0.1828
0
VERTEX
8
0
10
7.1241
20
2.8963
42
0.0832
0
VERTEX
8
0
10
7.1459
20
3.0236
42
-0.0338
0
VERTEX
8
0
10
7.1450
20
3.1536
42
-0.0420
0
VERTEX
8
0
10
7.1504
20
3.2060
42
-0.1256
0
VERTEX
8
0
10
7.1691
20
3.2549
42
-0.1210
0
VERTEX
8
0
10
7.2217
20
3.2682
42
-0.0127
0
VERTEX
8
0
10
7.2769
20
3.2645
42
-0.0445
0
VERTEX
8
0
10
7.4248
20
3.2324
42
-0.1210
0
VERTEX
8
0
10
7.4530
20
3.2072
42
0.0125
0
VERTEX
8
0
10
7.4731
20
3.1745
42
-0.0139
0
VERTEX
8
0
10
7.5181
20
3.1005
42
-0.0745
0
VERTEX
8
0
10
7.6264
20
2.8396
42
-0.1130
0
VERTEX
8
0
10
7.6387
20
2.5586
42
-0.1049
0
VERTEX
8
0
10
7.5165
20
2.2787
42
-0.0439
0
VERTEX
8
0
10
7.4318
20
2.1763
42
-0.0837
0
VERTEX
8
0
10
7.3267
20
2.0954
42
-0.0332
0
VERTEX
8
0
10
7.2089
20
2.0403
42
-0.0663
0
VERTEX
8
0
10
7.0835
20
2.0060
42
-0.2726
0
VERTEX
8
0
10
6.8491
20
2.0890
42
-0.0625
0
VERTEX
8
0
10
6.7829
20
2.1958
42
-0.0297
0
VERTEX
8
0
10
6.7398
20
2.3141
42
0.1958
0
VERTEX
8
0
10
6.5966
20
2.4942
42
0.3992
0
VERTEX
8
0
10
6.1801
20
2.3865
42
0.1661
0
VERTEX
8
0
10
6.1440
20
2.1585
42
0.0495
0
VERTEX
8
0
10
6.2219
20
1.9362
42
0.0739
0
VERTEX
8
0
10
6.3912
20
1.6752
42
0.0921
0
VERTEX
8
0
10
6.6336
20
1.4811
42
-0.0682
0
VERTEX
8
0
10
6.3870
20
1.2905
42
-0.0467
0
VERTEX
8
0
10
6.1013
20
1.1643
0
VERTEX
8
0
10
6.1013
20
0.5194
42
0.0065
0
VERTEX
8
0
10
6.2380
20
0.5596
42
0.0295
0
VERTEX
8
0
10
6.4985
20
0.6561
42
0.0774
0
VERTEX
8
0
10
6.9728
20
0.9510
42
0.1108
0
VERTEX
8
0
10
7.3155
20
1.3894
42
-0.0292
0
VERTEX
8
0
10
7.3261
20
1.4156
42
-0.2262
0
VERTEX
8
0
10
7.3460
20
1.4345
42
0.0139
0
VERTEX
8
0
10
7.4120
20
1.4570
42
0.0251
0
VERTEX
8
0
10
7.5583
20
1.5197
42
0.0674
0
VERTEX
8
0
10
7.7416
20
1.6275
42
0.0474
0
VERTEX
8
0
10
7.9443
20
1.8253
42
0.0269
0
VERTEX
8
0
10
8.0311
20
1.9378
42
0.0110
0
VERTEX
8
0
10
8.0729
20
2.0038
42
-0.1374
0
VERTEX
8
0
10
8.1093
20
2.0199
42
0.0351
0
VERTEX
8
0
10
8.1501
20
2.0247
42
-0.1633
0
VERTEX
8
0
10
8.4267
20
1.9909
42
-0.0659
0
VERTEX
8
0
10
8.5393
20
1.9169
42
-0.1100
0
VERTEX
8
0
10
8.5630
20
1.8601
42
-0.0417
0
VERTEX
8
0
10
8.5682
20
1.7979
42
-0.1948
0
VERTEX
8
0
10
8.5534
20
1.7550
42
-0.1086
0
VERTEX
8
0
10
8.5144
20
1.7307
42
0.0058
0
VERTEX
8
0
10
8.4235
20
1.7111
42
0.1884
0
VERTEX
8
0
10
8.2385
20
1.5840
42
0.3860
0
VERTEX
8
0
10
8.2997
20
1.1691
42
0.1703
0
VERTEX
8
0
10
8.5222
20
1.1036
42
0.0713
0
VERTEX
8
0
10
8.7515
20
1.1611
42
0.1038
0
VERTEX
8
0
10
8.9965
20
1.3242
42
0.1167
0
VERTEX
8
0
10
9.1504
20
1.5744
42
0.1016
0
VERTEX
8
0
10
9.1812
20
1.8867
42
0.0636
0
VERTEX
8
0
10
9.1021
20
2.1919
42
0.0880
0
VERTEX
8
0
10
9.0030
20
2.3336
42
0.0312
0
VERTEX
8
0
10
8.8689
20
2.4444
42
0.1425
0
VERTEX
8
0
10
8.3045
20
2.6486
42
0.0117
0
VERTEX
8
0
10
8.2659
20
2.6502
0
VERTEX
8
0
10
8.2659
20
2.6808
42
0.0223
0
VERTEX
8
0
10
8.2643
20
2.7499
42
0.0291
0
VERTEX
8
0
10
8.2450
20
2.9059
42
0.0501
0
VERTEX
8
0
10
8.1533
20
3.2083
42
0.0594
0
VERTEX
8
0
10
7.8606
20
3.6923
42
0.0046
0
VERTEX
8
0
10
7.8455
20
3.7156
42
0.1969
0
VERTEX
8
0
10
7.8269
20
3.7357
42
-0.0140
0
VERTEX
8
0
10
7.7641
20
3.7631
42
0.0337
0
VERTEX
8
0
10
7.5872
20
3.8290
42
0.0884
0
VERTEX
8
0
10
7.2045
20
3.8837
42
0.0786
0
VERTEX
8
0
10
6.9761
20
3.8435
0
SEQEND
8
0
0
POLYLINE
8
Layer 1
66
1
0
VERTEX
8
0
10
8.2369
20
4.2359
42
-0.0040
0
VERTEX
8
0
10
8.2659
20
4.1731
42
0.0158
0
VERTEX
8
0
10
8.3077
20
4.1394
42
0.0749
0
VERTEX
8
0
10
8.7917
20
3.8467
42
0.0518
0
VERTEX
8
0
10
9.0941
20
3.7566
42
0.0293
0
VERTEX
8
0
10
9.2501
20
3.7373
42
0.0237
0
VERTEX
8
0
10
9.3192
20
3.7341
0
VERTEX
8
0
10
9.3498
20
3.7341
42
0.0049
0
VERTEX
8
0
10
9.3514
20
3.6955
42
0.1413
0
VERTEX
8
0
10
9.5556
20
3.1311
42
0.0464
0
VERTEX
8
0
10
9.6664
20
2.9969
42
0.1188
0
VERTEX
8
0
10
9.8081
20
2.8979
42
0.1001
0
VERTEX
8
0
10
10.1924
20
2.8143
42
0.0881
0
VERTEX
8
0
10
10.4256
20
2.8480
42
0.1140
0
VERTEX
8
0
10
10.6760
20
3.0026
42
0.0988
0
VERTEX
8
0
10
10.8389
20
3.2485
42
0.0979
0
VERTEX
8
0
10
10.8965
20
3.4770
42
0.1967
0
VERTEX
8
0
10
10.8309
20
3.6988
42
0.3861
0
VERTEX
8
0
10
10.4160
20
3.7615
42
0.1852
0
VERTEX
8
0
10
10.2889
20
3.5749
42
-0.0642
0
VERTEX
8
0
10
10.2693
20
3.4842
42
-0.3515
0
VERTEX
8
0
10
10.2021
20
3.4302
42
-0.0459
0
VERTEX
8
0
10
10.1398
20
3.4354
42
-0.2320
0
VERTEX
8
0
10
10.0831
20
3.4591
42
-0.0696
0
VERTEX
8
0
10
10.0091
20
3.5717
42
-0.1529
0
VERTEX
8
0
10
9.9753
20
3.8499
42
-0.0145
0
VERTEX
8
0
10
9.9801
20
3.8899
42
-0.3094
0
VERTEX
8
0
10
9.9962
20
3.9255
42
0.0122
0
VERTEX
8
0
10
10.0606
20
3.9673
42
0.0232
0
VERTEX
8
0
10
10.1731
20
4.0541
42
0.0539
0
VERTEX
8
0
10
10.3725
20
4.2568
42
0.0398
0
VERTEX
8
0
10
10.4803
20
4.4401
42
0.0246
0
VERTEX
8
0
10
10.5430
20
4.5864
42
0.0130
0
VERTEX
8
0
10
10.5655
20
4.6524
42
-0.1742
0
VERTEX
8
0
10
10.5843
20
4.6730
42
0.0172
0
VERTEX
8
0
10
10.6106
20
4.6845
42
0.0984
0
VERTEX
8
0
10
11.0490
20
5.0263
42
0.0710
0
VERTEX
8
0
10
11.3439
20
5.4999
42
0.0290
0
VERTEX
8
0
10
11.4404
20
5.7604
42
0.0138
0
VERTEX
8
0
10
11.4806
20
5.8987
0
VERTEX
8
0
10
10.8373
20
5.8987
42
-0.0533
0
VERTEX
8
0
10
10.7103
20
5.6130
42
-0.0757
0
VERTEX
8
0
10
10.5189
20
5.3664
42
0.0861
0
VERTEX
8
0
10
10.3249
20
5.6096
42
0.0697
0
VERTEX
8
0
10
10.0638
20
5.7797
42
0.0839
0
VERTEX
8
0
10
9.8422
20
5.8569
42
0.1943
0
VERTEX
8
0
10
9.6151
20
5.8199
42
0.1911
0
VERTEX
8
0
10
9.4774
20
5.6342
42
0.1983
0
VERTEX
8
0
10
9.5058
20
5.4050
42
0.1949
0
VERTEX
8
0
10
9.6859
20
5.2602
42
-0.0386
0
VERTEX
8
0
10
9.8042
20
5.2180
42
-0.0754
0
VERTEX
8
0
10
9.9110
20
5.1525
42
-0.1427
0
VERTEX
8
0
10
9.9848
20
5.0469
42
-0.1035
0
VERTEX
8
0
10
9.9949
20
4.9177
42
-0.0713
0
VERTEX
8
0
10
9.9062
20
4.6733
42
-0.0699
0
VERTEX
8
0
10
9.8246
20
4.5681
42
-0.0328
0
VERTEX
8
0
10
9.7213
20
4.4835
42
-0.1152
0
VERTEX
8
0
10
9.4430
20
4.3629
42
-0.1002
0
VERTEX
8
0
10
9.1614
20
4.3743
42
-0.0645
0
VERTEX
8
0
10
8.8995
20
4.4819
42
-0.0078
0
VERTEX
8
0
10
8.8271
20
4.5269
42
-0.0215
0
VERTEX
8
0
10
8.7936
20
4.5470
42
-0.2258
0
VERTEX
8
0
10
8.7676
20
4.5752
42
-0.0567
0
VERTEX
8
0
10
8.7355
20
4.7231
42
-0.0371
0
VERTEX
8
0
10
8.7318
20
4.7791
42
-0.2468
0
VERTEX
8
0
10
8.7451
20
4.8325
42
-0.0919
0
VERTEX
8
0
10
8.7941
20
4.8502
42
-0.0153
0
VERTEX
8
0
10
8.8464
20
4.8550
42
0.0049
0
VERTEX
8
0
10
8.9764
20
4.8541
42
0.1146
0
VERTEX
8
0
10
9.1037
20
4.8759
42
0.1844
0
VERTEX
8
0
10
9.2629
20
5.0271
42
0.3835
0
VERTEX
8
0
10
9.1423
20
5.4259
42
0.0885
0
VERTEX
8
0
10
9.0165
20
5.4674
42
0.0254
0
VERTEX
8
0
10
8.8834
20
5.4741
42
0.0880
0
VERTEX
8
0
10
8.5730
20
5.4291
42
0.2388
0
VERTEX
8
0
10
8.1565
20
5.0239
42
0.0887
0
VERTEX
8
0
10
8.1165
20
4.7185
42
0.0559
0
VERTEX
8
0
10
8.1710
20
4.4144
42
0.0363
0
VERTEX
8
0
10
8.2369
20
4.2359
0
SEQEND
8
0
0
POLYLINE
8
Layer 1
66
1
0
VERTEX
8
0
10
8.3843
20
5.6736
42
0.0475
0
VERTEX
8
0
10
8.5103
20
5.6639
42
0.0169
0
VERTEX
8
0
10
8.5923
20
5.6687
42
0.3817
0
VERTEX
8
0
10
8.8738
20
5.9759
42
0.0091
0
VERTEX
8
0
10
8.8722
20
6.0000
42
0.0320
0
VERTEX
8
0
10
8.8738
20
6.0241
42
0.3817
0
VERTEX
8
0
10
8.5923
20
6.3313
42
0.0215
0
VERTEX
8
0
10
8.5103
20
6.3361
42
0.0591
0
VERTEX
8
0
10
8.3843
20
6.3264
42
0.1092
0
VERTEX
8
0
10
8.2675
20
6.2798
42
0.2638
0
VERTEX
8
0
10
8.1340
20
6.0000
42
0.2711
0
VERTEX
8
0
10
8.2675
20
5.7202
42
0.0922
0
VERTEX
8
0
10
8.3843
20
5.6736
0
SEQEND
8
0
0
POLYLINE
8
Layer 1
66
1
0
VERTEX
8
0
10
8.5730
20
6.5709
42
0.0731
0
VERTEX
8
0
10
8.8834
20
6.5259
42
0.0456
0
VERTEX
8
0
10
9.0165
20
6.5326
42
0.1076
0
VERTEX
8
0
10
9.1423
20
6.5741
42
0.3835
0
VERTEX
8
0
10
9.2629
20
6.9729
42
0.1830
0
VERTEX
8
0
10
9.1037
20
7.1241
42
0.0832
0
VERTEX
8
0
10
8.9764
20
7.1459
42
-0.0338
0
VERTEX
8
0
10
8.8464
20
7.1450
42
-0.0368
0
VERTEX
8
0
10
8.7941
20
7.1498
42
-0.1317
0
VERTEX
8
0
10
8.7451
20
7.1675
42
-0.1190
0
VERTEX
8
0
10
8.7318
20
7.2209
42
-0.0138
0
VERTEX
8
0
10
8.7355
20
7.2769
42
-0.0467
0
VERTEX
8
0
10
8.7676
20
7.4248
42
-0.1216
0
VERTEX
8
0
10
8.7936
20
7.4530
42
0.0202
0
VERTEX
8
0
10
8.8271
20
7.4731
42
-0.0180
0
VERTEX
8
0
10
8.8995
20
7.5181
42
-0.0750
0
VERTEX
8
0
10
9.1614
20
7.6256
42
-0.1118
0
VERTEX
8
0
10
9.4430
20
7.6371
42
-0.1074
0
VERTEX
8
0
10
9.7213
20
7.5165
42
-0.0435
0
VERTEX
8
0
10
9.8246
20
7.4319
42
-0.0868
0
VERTEX
8
0
10
9.9062
20
7.3267
42
-0.0343
0
VERTEX
8
0
10
9.9612
20
7.2085
42
-0.0665
0
VERTEX
8
0
10
9.9949
20
7.0825
42
-0.2717
0
VERTEX
8
0
10
9.9110
20
6.8475
42
-0.0640
0
VERTEX
8
0
10
9.8042
20
6.7820
42
-0.0257
0
VERTEX
8
0
10
9.6859
20
6.7398
42
0.1915
0
VERTEX
8
0
10
9.5058
20
6.5950
42
0.1940
0
VERTEX
8
0
10
9.4774
20
6.3658
42
0.1961
0
VERTEX
8
0
10
9.6151
20
6.1801
42
0.1652
0
VERTEX
8
0
10
9.8422
20
6.1431
42
0.0518
0
VERTEX
8
0
10
10.0638
20
6.2203
42
0.0744
0
VERTEX
8
0
10
10.3249
20
6.3904
42
0.0919
0
VERTEX
8
0
10
10.5189
20
6.6336
42
-0.0677
0
VERTEX
8
0
10
10.7103
20
6.3870
42
-0.0474
0
VERTEX
8
0
10
10.8373
20
6.1013
0
VERTEX
8
0
10
11.4806
20
6.1013
42
0.0081
0
VERTEX
8
0
10
11.4404
20
6.2396
42
0.0309
0
VERTEX
8
0
10
11.3439
20
6.5001
42
0.0778
0
VERTEX
8
0
10
11.0490
20
6.9737
42
0.1102
0
VERTEX
8
0
10
10.6106
20
7.3155
42
-0.0368
0
VERTEX
8
0
10
10.5843
20
7.3270
42
-0.2189
0
VERTEX
8
0
10
10.5655
20
7.3476
42
0.0146
0
VERTEX
8
0
10
10.5430
20
7.4136
42
0.0246
0
VERTEX
8
0
10
10.4803
20
7.5599
42
0.0674
0
VERTEX
8
0
10
10.3725
20
7.7432
42
0.0461
0
VERTEX
8
0
10
10.1731
20
7.9459
42
0.0259
0
VERTEX
8
0
10
10.0606
20
8.0327
42
0.0164
0
VERTEX
8
0
10
9.9962
20
8.0745
42
-0.1405
0
VERTEX
8
0
10
9.9801
20
8.1101
42
0.0338
0
VERTEX
8
0
10
9.9753
20
8.1501
42
-0.1616
0
VERTEX
8
0
10
10.0091
20
8.4283
42
-0.0666
0
VERTEX
8
0
10
10.0831
20
8.5409
42
-0.1104
0
VERTEX
8
0
10
10.1399
20
8.5646
42
-0.0409
0
VERTEX
8
0
10
10.2021
20
8.5698
42
-0.1932
0
VERTEX
8
0
10
10.2450
20
8.5550
42
-0.1080
0
VERTEX
8
0
10
10.2693
20
8.5160
42
0.0059
0
VERTEX
8
0
10
10.2889
20
8.4251
42
0.1903
0
VERTEX
8
0
10
10.4160
20
8.2385
42
0.3860
0
VERTEX
8
0
10
10.8309
20
8.3012
42
0.1714
0
VERTEX
8
0
10
10.8965
20
8.5230
42
0.0691
0
VERTEX
8
0
10
10.8389
20
8.7515
42
0.1030
0
VERTEX
8
0
10
10.6760
20
8.9974
42
0.1184
0
VERTEX
8
0
10
10.4256
20
9.1520
42
0.0780
0
VERTEX
8
0
10
10.1924
20
9.1857
42
0.0838
0
VERTEX
8
0
10
9.8081
20
9.1021
42
0.0886
0
VERTEX
8
0
10
9.6664
20
9.0031
42
0.0310
0
VERTEX
8
0
10
9.5556
20
8.8689
42
0.1449
0
VERTEX
8
0
10
9.3514
20
8.3045
42
0.0126
0
VERTEX
8
0
10
9.3498
20
8.2659
42
0.0126
0
VERTEX
8
0
10
9.3192
20
8.2659
42
0.0054
0
VERTEX
8
0
10
9.2501
20
8.2627
42
0.0293
0
VERTEX
8
0
10
9.0941
20
8.2434
42
0.0518
0
VERTEX
8
0
10
8.7917
20
8.1533
42
0.0602
0
VERTEX
8
0
10
8.3077
20
7.8606
42
0.0083
0
VERTEX
8
0
10
8.2852
20
7.8455
42
0.1882
0
VERTEX
8
0
10
8.2659
20
7.8269
42
0.0042
0
VERTEX
8
0
10
8.2369
20
7.7641
42
0.0330
0
VERTEX
8
0
10
8.1710
20
7.5856
42
0.0655
0
VERTEX
8
0
10
8.1165
20
7.2815
42
0.1006
0
VERTEX
8
0
10
8.1565
20
6.9761
42
0.2304
0
VERTEX
8
0
10
8.5730
20
6.5709
0
SEQEND
8
0
0
ENDSEC
0
EOF
