0
SECTION
2
HEADER
9
$ACADVER
1
AC1009
9
$ANGDIR
70
0
9
$EXTMIN
10
0
20
0
9
$EXTMAX
10
24.0000
20
18.0000
0
ENDSEC
0
SECTION
2
ENTITIES
0
POLYLINE
8
Layer 1
66
1
0
VERTEX
8
0
10
0.0000
20
12.0000
0
VERTEX
8
0
10
12.0000
20
12.0000
0
VERTEX
8
0
10
12.0000
20
0.0000
0
VERTEX
8
0
10
0.0000
20
0.0000
0
VERTEX
8
0
10
0.0000
20
12.0000
0
SEQEND
8
0
0
POLYLINE
8
Layer 1
66
1
0
VERTEX
8
0
10
0.8343
20
10.4988
0
VERTEX
8
0
10
0.8343
20
6.6653
0
VERTEX
8
0
10
1.9773
20
7.5942
42
-0.0197
0
VERTEX
8
0
10
1.9412
20
7.6278
42
-0.0113
0
VERTEX
8
0
10
1.9074
20
7.6637
42
-0.0154
0
VERTEX
8
0
10
1.8440
20
7.7394
42
-0.0204
0
VERTEX
8
0
10
1.7294
20
7.9000
42
-0.0148
0
VERTEX
8
0
10
1.6269
20
8.0688
42
-0.0119
0
VERTEX
8
0
10
1.5339
20
8.2427
42
-0.0179
0
VERTEX
8
0
10
1.3704
20
8.6021
42
-0.0137
0
VERTEX
8
0
10
1.2308
20
8.9713
42
-0.0111
0
VERTEX
8
0
10
1.1102
20
9.3472
42
-0.0093
0
VERTEX
8
0
10
1.0054
20
9.7280
42
-0.0078
0
VERTEX
8
0
10
0.9141
20
10.1120
42
-0.0068
0
VERTEX
8
0
10
0.8343
20
10.4988
0
SEQEND
8
0
0
POLYLINE
8
Layer 1
66
1
0
VERTEX
8
0
10
1.3585
20
10.4663
0
VERTEX
8
0
10
1.3582
20
10.4442
0
VERTEX
8
0
10
1.3581
20
10.4214
42
0.0030
0
VERTEX
8
0
10
1.3582
20
10.3760
42
0.0055
0
VERTEX
8
0
10
1.3601
20
10.2849
42
0.0108
0
VERTEX
8
0
10
1.3697
20
10.1033
42
0.0208
0
VERTEX
8
0
10
1.4119
20
9.7421
42
0.0422
0
VERTEX
8
0
10
1.5858
20
9.0364
42
0.0434
0
VERTEX
8
0
10
1.8768
20
8.3705
42
0.0428
0
VERTEX
8
0
10
2.2781
20
7.7646
42
0.0399
0
VERTEX
8
0
10
2.7750
20
7.2341
42
0.0184
0
VERTEX
8
0
10
3.0530
20
6.9996
42
0.0173
0
VERTEX
8
0
10
3.3472
20
6.7858
42
0.0159
0
VERTEX
8
0
10
3.6553
20
6.5922
42
0.0147
0
VERTEX
8
0
10
3.9747
20
6.4180
42
0.0135
0
VERTEX
8
0
10
4.3034
20
6.2624
42
0.0122
0
VERTEX
8
0
10
4.6400
20
6.1241
0
VERTEX
8
0
10
4.6617
20
6.1241
42
-0.1516
0
VERTEX
8
0
10
4.9656
20
6.8591
0
VERTEX
8
0
10
4.6849
20
7.1414
0
VERTEX
8
0
10
4.6849
20
7.1414
0
VERTEX
8
0
10
4.6778
20
7.1415
0
VERTEX
8
0
10
4.6715
20
7.1416
0
VERTEX
8
0
10
4.6570
20
7.1420
42
-0.0034
0
VERTEX
8
0
10
4.6271
20
7.1431
42
-0.0055
0
VERTEX
8
0
10
4.5677
20
7.1465
42
-0.0097
0
VERTEX
8
0
10
4.4492
20
7.1568
42
-0.0181
0
VERTEX
8
0
10
4.2137
20
7.1907
42
-0.0187
0
VERTEX
8
0
10
3.9815
20
7.2417
42
-0.0203
0
VERTEX
8
0
10
3.7538
20
7.3103
42
-0.0226
0
VERTEX
8
0
10
3.5327
20
7.3978
42
-0.0250
0
VERTEX
8
0
10
3.3208
20
7.5056
42
-0.0278
0
VERTEX
8
0
10
3.1211
20
7.6347
42
-0.0301
0
VERTEX
8
0
10
2.9376
20
7.7858
42
-0.0641
0
VERTEX
8
0
10
2.6336
20
8.1500
42
-0.0311
0
VERTEX
8
0
10
2.5188
20
8.3580
42
-0.0292
0
VERTEX
8
0
10
2.4301
20
8.5787
42
-0.0263
0
VERTEX
8
0
10
2.3668
20
8.8078
42
-0.0232
0
VERTEX
8
0
10
2.3270
20
9.0421
42
-0.0203
0
VERTEX
8
0
10
2.3081
20
9.2792
42
-0.0176
0
VERTEX
8
0
10
2.3076
20
9.5172
0
VERTEX
8
0
10
1.3585
20
10.4663
0
SEQEND
8
0
0
POLYLINE
8
Layer 1
66
1
0
VERTEX
8
0
10
1.7616
20
10.8006
42
-0.0190
0
VERTEX
8
0
10
2.1398
20
10.7641
42
-0.0208
0
VERTEX
8
0
10
2.5139
20
10.6972
42
-0.0222
0
VERTEX
8
0
10
2.8806
20
10.5980
42
-0.0474
0
VERTEX
8
0
10
3.5782
20
10.2994
42
-0.0483
0
VERTEX
8
0
10
4.2056
20
9.8728
42
-0.0230
0
VERTEX
8
0
10
4.4865
20
9.6171
42
-0.0218
0
VERTEX
8
0
10
4.7436
20
9.3374
42
-0.0204
0
VERTEX
8
0
10
4.9765
20
9.0372
42
-0.0192
0
VERTEX
8
0
10
5.1851
20
8.7196
42
-0.0355
0
VERTEX
8
0
10
5.5306
20
8.0434
42
-0.0171
0
VERTEX
8
0
10
5.6677
20
7.6889
42
-0.0091
0
VERTEX
8
0
10
5.7268
20
7.5083
42
-0.0049
0
VERTEX
8
0
10
5.7537
20
7.4174
42
-0.0027
0
VERTEX
8
0
10
5.7665
20
7.3716
0
VERTEX
8
0
10
5.7727
20
7.3483
0
VERTEX
8
0
10
5.7756
20
7.3374
0
VERTEX
8
0
10
5.7782
20
7.3275
42
0.1334
0
VERTEX
8
0
10
5.1409
20
7.0344
0
VERTEX
8
0
10
4.7485
20
7.4267
42
0.0085
0
VERTEX
8
0
10
4.7561
20
7.5488
42
0.0092
0
VERTEX
8
0
10
4.7594
20
7.6709
42
0.0203
0
VERTEX
8
0
10
4.7513
20
7.9150
42
0.0237
0
VERTEX
8
0
10
4.7214
20
8.1573
42
0.0273
0
VERTEX
8
0
10
4.6664
20
8.3951
42
0.0307
0
VERTEX
8
0
10
4.5838
20
8.6249
42
0.0333
0
VERTEX
8
0
10
4.4722
20
8.8419
42
0.0692
0
VERTEX
8
0
10
4.1656
20
9.2203
42
0.0324
0
VERTEX
8
0
10
3.9771
20
9.3755
42
0.0295
0
VERTEX
8
0
10
3.7712
20
9.5066
42
0.0262
0
VERTEX
8
0
10
3.5521
20
9.6146
42
0.0232
0
VERTEX
8
0
10
3.3237
20
9.7008
42
0.0207
0
VERTEX
8
0
10
3.0886
20
9.7671
42
0.0189
0
VERTEX
8
0
10
2.8492
20
9.8150
42
0.0181
0
VERTEX
8
0
10
2.6068
20
9.8453
42
0.0096
0
VERTEX
8
0
10
2.4849
20
9.8537
42
0.0055
0
VERTEX
8
0
10
2.4238
20
9.8560
42
0.0032
0
VERTEX
8
0
10
2.3930
20
9.8566
0
VERTEX
8
0
10
2.3851
20
9.8567
0
VERTEX
8
0
10
2.3779
20
9.8568
0
VERTEX
8
0
10
2.3717
20
9.8568
0
VERTEX
8
0
10
2.3665
20
9.8568
42
0.0230
0
VERTEX
8
0
10
2.3339
20
9.8553
42
-0.0027
0
VERTEX
8
0
10
2.3324
20
9.8429
0
VERTEX
8
0
10
1.3802
20
10.7950
42
0.0125
0
VERTEX
8
0
10
1.3818
20
10.8090
42
-0.0043
0
VERTEX
8
0
10
1.4771
20
10.8094
42
-0.0044
0
VERTEX
8
0
10
1.5718
20
10.8082
42
-0.0090
0
VERTEX
8
0
10
1.7616
20
10.8006
0
SEQEND
8
0
0
POLYLINE
8
Layer 1
66
1
0
VERTEX
8
0
10
1.7152
20
11.4029
0
VERTEX
8
0
10
5.5487
20
11.4029
0
VERTEX
8
0
10
4.6198
20
10.2616
42
0.0102
0
VERTEX
8
0
10
4.5354
20
10.3106
42
0.0048
0
VERTEX
8
0
10
4.4497
20
10.3577
42
0.0071
0
VERTEX
8
0
10
4.2763
20
10.4480
42
0.0106
0
VERTEX
8
0
10
3.9236
20
10.6169
42
0.0084
0
VERTEX
8
0
10
3.5650
20
10.7730
42
0.0074
0
VERTEX
8
0
10
3.2019
20
10.9180
42
0.0131
0
VERTEX
8
0
10
2.4644
20
11.1785
42
0.0117
0
VERTEX
8
0
10
1.7152
20
11.4029
0
SEQEND
8
0
0
POLYLINE
8
Layer 1
66
1
0
VERTEX
8
0
10
4.8586
20
9.9033
42
-0.0220
0
VERTEX
8
0
10
5.0958
20
9.5639
42
-0.0172
0
VERTEX
8
0
10
5.3047
20
9.2064
42
-0.0140
0
VERTEX
8
0
10
5.4901
20
8.8361
42
-0.0117
0
VERTEX
8
0
10
5.6557
20
8.4565
0
VERTEX
8
0
10
5.8759
20
8.4565
0
VERTEX
8
0
10
5.8759
20
8.6658
42
0.0402
0
VERTEX
8
0
10
5.4774
20
9.9033
42
-0.0308
0
VERTEX
8
0
10
5.4340
20
10.0277
42
-0.0446
0
VERTEX
8
0
10
5.4084
20
10.1569
42
-0.0644
0
VERTEX
8
0
10
5.4095
20
10.2885
42
-0.0825
0
VERTEX
8
0
10
5.4474
20
10.4142
42
-0.0806
0
VERTEX
8
0
10
5.5241
20
10.5207
42
-0.0618
0
VERTEX
8
0
10
5.6290
20
10.6002
42
-0.0438
0
VERTEX
8
0
10
5.7489
20
10.6547
42
-0.0327
0
VERTEX
8
0
10
5.8759
20
10.6896
0
VERTEX
8
0
10
5.8759
20
11.2990
0
VERTEX
8
0
10
4.8586
20
9.9033
0
SEQEND
8
0
0
POLYLINE
8
Layer 1
66
1
0
VERTEX
8
0
10
6.1241
20
10.6896
42
-0.0357
0
VERTEX
8
0
10
6.2510
20
10.6548
42
-0.0492
0
VERTEX
8
0
10
6.3709
20
10.6002
42
-0.0685
0
VERTEX
8
0
10
6.4757
20
10.5208
42
-0.0840
0
VERTEX
8
0
10
6.5525
20
10.4144
42
-0.0778
0
VERTEX
8
0
10
6.5904
20
10.2886
42
-0.0573
0
VERTEX
8
0
10
6.5916
20
10.1571
42
-0.0393
0
VERTEX
8
0
10
6.5660
20
10.0279
42
-0.0276
0
VERTEX
8
0
10
6.5226
20
9.9033
42
0.0402
0
VERTEX
8
0
10
6.1241
20
8.6658
0
VERTEX
8
0
10
6.1241
20
8.4565
0
VERTEX
8
0
10
6.3443
20
8.4565
42
-0.0124
0
VERTEX
8
0
10
6.5099
20
8.8361
42
-0.0150
0
VERTEX
8
0
10
6.6953
20
9.2064
42
-0.0186
0
VERTEX
8
0
10
6.9042
20
9.5639
42
-0.0240
0
VERTEX
8
0
10
7.1414
20
9.9033
0
VERTEX
8
0
10
6.1241
20
11.2990
0
VERTEX
8
0
10
6.1241
20
10.6896
0
SEQEND
8
0
0
POLYLINE
8
Layer 1
66
1
0
VERTEX
8
0
10
6.4513
20
11.4029
0
VERTEX
8
0
10
10.2848
20
11.4029
42
0.0114
0
VERTEX
8
0
10
9.5356
20
11.1785
42
0.0126
0
VERTEX
8
0
10
8.7981
20
10.9180
42
0.0147
0
VERTEX
8
0
10
8.0764
20
10.6169
42
0.0096
0
VERTEX
8
0
10
7.7237
20
10.4480
42
0.0064
0
VERTEX
8
0
10
7.5503
20
10.3577
42
0.0101
0
VERTEX
8
0
10
7.3802
20
10.2616
0
VERTEX
8
0
10
6.4513
20
11.4029
0
SEQEND
8
0
0
POLYLINE
8
Layer 1
66
1
0
VERTEX
8
0
10
7.7299
20
9.8184
42
0.0218
0
VERTEX
8
0
10
7.4617
20
9.5648
42
0.0206
0
VERTEX
8
0
10
7.2162
20
9.2892
42
0.0193
0
VERTEX
8
0
10
6.9935
20
8.9947
42
0.0181
0
VERTEX
8
0
10
6.7937
20
8.6841
42
0.0335
0
VERTEX
8
0
10
6.4617
20
8.0252
42
0.0168
0
VERTEX
8
0
10
6.3293
20
7.6803
42
0.0205
0
VERTEX
8
0
10
6.2218
20
7.3275
42
-0.1334
0
VERTEX
8
0
10
6.8591
20
7.0344
0
VERTEX
8
0
10
7.2515
20
7.4267
0
VERTEX
8
0
10
7.2511
20
7.4321
0
VERTEX
8
0
10
7.2506
20
7.4384
0
VERTEX
8
0
10
7.2500
20
7.4457
0
VERTEX
8
0
10
7.2495
20
7.4535
42
-0.0022
0
VERTEX
8
0
10
7.2474
20
7.4843
42
-0.0044
0
VERTEX
8
0
10
7.2440
20
7.5451
42
-0.0095
0
VERTEX
8
0
10
7.2406
20
7.6673
42
-0.0214
0
VERTEX
8
0
10
7.2484
20
7.9114
42
-0.0248
0
VERTEX
8
0
10
7.2780
20
8.1537
42
-0.0284
0
VERTEX
8
0
10
7.3326
20
8.3916
42
-0.0316
0
VERTEX
8
0
10
7.4148
20
8.6216
42
-0.0340
0
VERTEX
8
0
10
7.5259
20
8.8388
42
-0.0683
0
VERTEX
8
0
10
7.8318
20
9.2179
42
-0.0315
0
VERTEX
8
0
10
8.0200
20
9.3734
42
-0.0284
0
VERTEX
8
0
10
8.2257
20
9.5049
42
-0.0253
0
VERTEX
8
0
10
8.4446
20
9.6131
42
-0.0224
0
VERTEX
8
0
10
8.6729
20
9.6997
42
-0.0200
0
VERTEX
8
0
10
8.9079
20
9.7663
42
-0.0185
0
VERTEX
8
0
10
9.1473
20
9.8144
42
-0.0181
0
VERTEX
8
0
10
9.3897
20
9.8450
42
-0.0098
0
VERTEX
8
0
10
9.5116
20
9.8535
42
-0.0135
0
VERTEX
8
0
10
9.6335
20
9.8568
42
-0.0338
0
VERTEX
8
0
10
9.6661
20
9.8553
42
-0.0027
0
VERTEX
8
0
10
9.6676
20
9.8429
0
VERTEX
8
0
10
10.6198
20
10.7950
42
-0.0044
0
VERTEX
8
0
10
10.6182
20
10.8090
42
0.0088
0
VERTEX
8
0
10
10.4461
20
10.8090
0
VERTEX
8
0
10
10.4357
20
10.8088
0
VERTEX
8
0
10
10.4246
20
10.8086
0
VERTEX
8
0
10
10.4012
20
10.8080
0
VERTEX
8
0
10
10.3551
20
10.8065
42
0.0043
0
VERTEX
8
0
10
10.2631
20
10.8025
42
0.0093
0
VERTEX
8
0
10
10.0790
20
10.7893
42
0.0198
0
VERTEX
8
0
10
9.7128
20
10.7421
42
0.0212
0
VERTEX
8
0
10
9.3516
20
10.6653
42
0.0224
0
VERTEX
8
0
10
8.9986
20
10.5576
42
0.0470
0
VERTEX
8
0
10
8.3295
20
10.2476
42
0.0461
0
VERTEX
8
0
10
7.7299
20
9.8184
0
SEQEND
8
0
0
POLYLINE
8
Layer 1
66
1
0
VERTEX
8
0
10
9.6924
20
9.5172
0
VERTEX
8
0
10
9.6928
20
9.5050
0
VERTEX
8
0
10
9.6932
20
9.4904
42
-0.0022
0
VERTEX
8
0
10
9.6939
20
9.4604
42
-0.0044
0
VERTEX
8
0
10
9.6943
20
9.4011
42
-0.0094
0
VERTEX
8
0
10
9.6921
20
9.2822
42
-0.0212
0
VERTEX
8
0
10
9.6734
20
9.0451
42
-0.0242
0
VERTEX
8
0
10
9.6338
20
8.8107
42
-0.0272
0
VERTEX
8
0
10
9.5708
20
8.5815
42
-0.0298
0
VERTEX
8
0
10
9.4825
20
8.3607
42
-0.0316
0
VERTEX
8
0
10
9.3680
20
8.1525
42
-0.0634
0
VERTEX
8
0
10
9.0646
20
7.7878
42
-0.0295
0
VERTEX
8
0
10
8.8812
20
7.6365
42
-0.0270
0
VERTEX
8
0
10
8.6818
20
7.5070
42
-0.0242
0
VERTEX
8
0
10
8.4700
20
7.3990
42
-0.0218
0
VERTEX
8
0
10
8.2490
20
7.3113
42
-0.0376
0
VERTEX
8
0
10
7.7892
20
7.1912
42
-0.0182
0
VERTEX
8
0
10
7.5537
20
7.1571
42
-0.0100
0
VERTEX
8
0
10
7.4352
20
7.1467
42
-0.0134
0
VERTEX
8
0
10
7.3166
20
7.1414
0
VERTEX
8
0
10
7.3166
20
7.1414
0
VERTEX
8
0
10
7.0344
20
6.8591
42
-0.1516
0
VERTEX
8
0
10
7.3383
20
6.1241
0
VERTEX
8
0
10
7.3600
20
6.1241
42
0.0127
0
VERTEX
8
0
10
7.6962
20
6.2622
42
0.0139
0
VERTEX
8
0
10
8.0249
20
6.4178
42
0.0152
0
VERTEX
8
0
10
8.3443
20
6.5919
42
0.0164
0
VERTEX
8
0
10
8.6524
20
6.7856
42
0.0177
0
VERTEX
8
0
10
8.9467
20
6.9994
42
0.0188
0
VERTEX
8
0
10
9.2247
20
7.2338
42
0.0411
0
VERTEX
8
0
10
9.7216
20
7.7643
42
0.0432
0
VERTEX
8
0
10
10.1230
20
8.3701
42
0.0430
0
VERTEX
8
0
10
10.4141
20
9.0360
42
0.0419
0
VERTEX
8
0
10
10.5880
20
9.7416
42
0.0210
0
VERTEX
8
0
10
10.6303
20
10.1028
42
0.0227
0
VERTEX
8
0
10
10.6415
20
10.4663
0
VERTEX
8
0
10
9.6924
20
9.5172
0
SEQEND
8
0
0
POLYLINE
8
Layer 1
66
1
0
VERTEX
8
0
10
10.7692
20
8.9713
42
-0.0150
0
VERTEX
8
0
10
10.6296
20
8.6021
42
-0.0199
0
VERTEX
8
0
10
10.4661
20
8.2427
42
-0.0127
0
VERTEX
8
0
10
10.3731
20
8.0687
42
-0.0164
0
VERTEX
8
0
10
10.2706
20
7.9000
42
-0.0235
0
VERTEX
8
0
10
10.1559
20
7.7394
42
-0.0176
0
VERTEX
8
0
10
10.0926
20
7.6637
42
-0.0129
0
VERTEX
8
0
10
10.0588
20
7.6278
42
-0.0251
0
VERTEX
8
0
10
10.0227
20
7.5942
0
VERTEX
8
0
10
11.1657
20
6.6653
0
VERTEX
8
0
10
11.1657
20
10.4988
42
-0.0072
0
VERTEX
8
0
10
11.0859
20
10.1120
42
-0.0082
0
VERTEX
8
0
10
10.9946
20
9.7280
42
-0.0097
0
VERTEX
8
0
10
10.8898
20
9.3472
42
-0.0119
0
VERTEX
8
0
10
10.7692
20
8.9713
0
SEQEND
8
0
0
POLYLINE
8
Layer 1
66
1
0
VERTEX
8
0
10
9.9514
20
7.1414
0
VERTEX
8
0
10
11.3471
20
6.1241
0
VERTEX
8
0
10
10.7376
20
6.1241
42
0.0328
0
VERTEX
8
0
10
10.7028
20
6.2512
42
0.0438
0
VERTEX
8
0
10
10.6482
20
6.3711
42
0.0617
0
VERTEX
8
0
10
10.5688
20
6.4759
42
0.0805
0
VERTEX
8
0
10
10.4623
20
6.5527
42
0.0825
0
VERTEX
8
0
10
10.3365
20
6.5905
42
0.0644
0
VERTEX
8
0
10
10.2050
20
6.5916
42
0.0446
0
VERTEX
8
0
10
10.0758
20
6.5660
42
0.0308
0
VERTEX
8
0
10
9.9514
20
6.5226
42
-0.0403
0
VERTEX
8
0
10
8.7108
20
6.1241
0
VERTEX
8
0
10
8.4565
20
6.1241
0
VERTEX
8
0
10
8.4565
20
6.3226
42
0.0124
0
VERTEX
8
0
10
8.8490
20
6.4916
42
0.0145
0
VERTEX
8
0
10
9.2316
20
6.6819
42
0.0174
0
VERTEX
8
0
10
9.6010
20
6.8969
42
0.0222
0
VERTEX
8
0
10
9.9514
20
7.1414
0
SEQEND
8
0
0
POLYLINE
8
Layer 1
66
1
0
VERTEX
8
0
10
10.7376
20
5.8759
42
-0.0356
0
VERTEX
8
0
10
10.7028
20
5.7490
42
-0.0491
0
VERTEX
8
0
10
10.6483
20
5.6291
42
-0.0687
0
VERTEX
8
0
10
10.5689
20
5.5242
42
-0.0839
0
VERTEX
8
0
10
10.4624
20
5.4474
42
-0.0778
0
VERTEX
8
0
10
10.3367
20
5.4095
42
-0.0573
0
VERTEX
8
0
10
10.2052
20
5.4084
42
-0.0394
0
VERTEX
8
0
10
10.0759
20
5.4339
42
-0.0276
0
VERTEX
8
0
10
9.9514
20
5.4774
42
0.0403
0
VERTEX
8
0
10
8.7108
20
5.8759
0
VERTEX
8
0
10
8.4565
20
5.8759
0
VERTEX
8
0
10
8.4565
20
5.6774
42
-0.0129
0
VERTEX
8
0
10
8.8490
20
5.5084
42
-0.0153
0
VERTEX
8
0
10
9.2316
20
5.3181
42
-0.0189
0
VERTEX
8
0
10
9.6010
20
5.1031
42
-0.0243
0
VERTEX
8
0
10
9.9514
20
4.8586
0
VERTEX
8
0
10
11.3471
20
5.8759
0
VERTEX
8
0
10
10.7376
20
5.8759
0
SEQEND
8
0
0
POLYLINE
8
Layer 1
66
1
0
VERTEX
8
0
10
11.1657
20
5.3347
0
VERTEX
8
0
10
11.1657
20
1.5012
42
0.0068
0
VERTEX
8
0
10
11.0859
20
1.8880
42
0.0078
0
VERTEX
8
0
10
10.9946
20
2.2720
42
0.0093
0
VERTEX
8
0
10
10.8898
20
2.6528
42
0.0111
0
VERTEX
8
0
10
10.7692
20
3.0287
42
0.0137
0
VERTEX
8
0
10
10.6296
20
3.3979
42
0.0179
0
VERTEX
8
0
10
10.4661
20
3.7573
42
0.0119
0
VERTEX
8
0
10
10.3731
20
3.9312
42
0.0148
0
VERTEX
8
0
10
10.2706
20
4.1000
42
0.0204
0
VERTEX
8
0
10
10.1560
20
4.2606
42
0.0154
0
VERTEX
8
0
10
10.0926
20
4.3363
42
0.0113
0
VERTEX
8
0
10
10.0588
20
4.3722
42
0.0197
0
VERTEX
8
0
10
10.0227
20
4.4058
0
VERTEX
8
0
10
11.1657
20
5.3347
0
SEQEND
8
0
0
POLYLINE
8
Layer 1
66
1
0
VERTEX
8
0
10
9.7219
20
4.2354
42
0.0399
0
VERTEX
8
0
10
9.2250
20
4.7659
42
0.0184
0
VERTEX
8
0
10
8.9470
20
5.0004
42
0.0173
0
VERTEX
8
0
10
8.6528
20
5.2142
42
0.0159
0
VERTEX
8
0
10
8.3447
20
5.4078
42
0.0147
0
VERTEX
8
0
10
8.0253
20
5.5820
42
0.0135
0
VERTEX
8
0
10
7.6966
20
5.7376
42
0.0122
0
VERTEX
8
0
10
7.3600
20
5.8759
0
VERTEX
8
0
10
7.3383
20
5.8759
42
-0.1516
0
VERTEX
8
0
10
7.0344
20
5.1409
0
VERTEX
8
0
10
7.3151
20
4.8586
0
VERTEX
8
0
10
7.3151
20
4.8586
0
VERTEX
8
0
10
7.3222
20
4.8585
0
VERTEX
8
0
10
7.3285
20
4.8584
0
VERTEX
8
0
10
7.3430
20
4.8580
42
-0.0034
0
VERTEX
8
0
10
7.3729
20
4.8569
42
-0.0055
0
VERTEX
8
0
10
7.4323
20
4.8535
42
-0.0097
0
VERTEX
8
0
10
7.5508
20
4.8432
42
-0.0181
0
VERTEX
8
0
10
7.7863
20
4.8093
42
-0.0187
0
VERTEX
8
0
10
8.0185
20
4.7583
42
-0.0203
0
VERTEX
8
0
10
8.2462
20
4.6897
42
-0.0226
0
VERTEX
8
0
10
8.4673
20
4.6022
42
-0.0250
0
VERTEX
8
0
10
8.6792
20
4.4944
42
-0.0278
0
VERTEX
8
0
10
8.8789
20
4.3653
42
-0.0301
0
VERTEX
8
0
10
9.0624
20
4.2142
42
-0.0641
0
VERTEX
8
0
10
9.3664
20
3.8500
42
-0.0311
0
VERTEX
8
0
10
9.4812
20
3.6420
42
-0.0292
0
VERTEX
8
0
10
9.5699
20
3.4213
42
-0.0263
0
VERTEX
8
0
10
9.6332
20
3.1922
42
-0.0232
0
VERTEX
8
0
10
9.6730
20
2.9579
42
-0.0203
0
VERTEX
8
0
10
9.6919
20
2.7208
42
-0.0176
0
VERTEX
8
0
10
9.6924
20
2.4828
0
VERTEX
8
0
10
10.6415
20
1.5337
0
VERTEX
8
0
10
10.6418
20
1.5558
0
VERTEX
8
0
10
10.6419
20
1.5786
42
0.0030
0
VERTEX
8
0
10
10.6418
20
1.6240
42
0.0055
0
VERTEX
8
0
10
10.6399
20
1.7151
42
0.0108
0
VERTEX
8
0
10
10.6303
20
1.8967
42
0.0208
0
VERTEX
8
0
10
10.5881
20
2.2579
42
0.0422
0
VERTEX
8
0
10
10.4142
20
2.9636
42
0.0434
0
VERTEX
8
0
10
10.1232
20
3.6295
42
0.0428
0
VERTEX
8
0
10
9.7219
20
4.2354
0
SEQEND
8
0
0
POLYLINE
8
Layer 1
66
1
0
VERTEX
8
0
10
9.6676
20
2.1571
42
0.0027
0
VERTEX
8
0
10
9.6661
20
2.1447
42
-0.0230
0
VERTEX
8
0
10
9.6335
20
2.1432
0
VERTEX
8
0
10
9.6283
20
2.1432
0
VERTEX
8
0
10
9.6221
20
2.1432
0
VERTEX
8
0
10
9.6149
20
2.1433
0
VERTEX
8
0
10
9.6070
20
2.1434
42
-0.0032
0
VERTEX
8
0
10
9.5762
20
2.1440
42
-0.0055
0
VERTEX
8
0
10
9.5151
20
2.1463
42
-0.0096
0
VERTEX
8
0
10
9.3932
20
2.1547
42
-0.0181
0
VERTEX
8
0
10
9.1508
20
2.1850
42
-0.0189
0
VERTEX
8
0
10
8.9114
20
2.2329
42
-0.0207
0
VERTEX
8
0
10
8.6763
20
2.2992
42
-0.0232
0
VERTEX
8
0
10
8.4479
20
2.3854
42
-0.0262
0
VERTEX
8
0
10
8.2288
20
2.4934
42
-0.0295
0
VERTEX
8
0
10
8.0229
20
2.6245
42
-0.0324
0
VERTEX
8
0
10
7.8344
20
2.7797
42
-0.0692
0
VERTEX
8
0
10
7.5278
20
3.1581
42
-0.0333
0
VERTEX
8
0
10
7.4162
20
3.3751
42
-0.0307
0
VERTEX
8
0
10
7.3336
20
3.6049
42
-0.0273
0
VERTEX
8
0
10
7.2786
20
3.8427
42
-0.0237
0
VERTEX
8
0
10
7.2487
20
4.0850
42
-0.0203
0
VERTEX
8
0
10
7.2406
20
4.3291
42
-0.0092
0
VERTEX
8
0
10
7.2439
20
4.4512
42
-0.0085
0
VERTEX
8
0
10
7.2515
20
4.5733
0
VERTEX
8
0
10
6.8591
20
4.9656
42
-0.1334
0
VERTEX
8
0
10
6.2218
20
4.6725
0
VERTEX
8
0
10
6.2243
20
4.6627
0
VERTEX
8
0
10
6.2272
20
4.6521
0
VERTEX
8
0
10
6.2332
20
4.6295
42
0.0026
0
VERTEX
8
0
10
6.2456
20
4.5851
42
0.0049
0
VERTEX
8
0
10
6.2717
20
4.4966
42
0.0088
0
VERTEX
8
0
10
6.3288
20
4.3211
42
0.0166
0
VERTEX
8
0
10
6.4611
20
3.9762
42
0.0344
0
VERTEX
8
0
10
6.7930
20
3.3172
42
0.0185
0
VERTEX
8
0
10
6.9927
20
3.0066
42
0.0197
0
VERTEX
8
0
10
7.2152
20
2.7120
42
0.0210
0
VERTEX
8
0
10
7.4607
20
2.4363
42
0.0221
0
VERTEX
8
0
10
7.7288
20
2.1826
42
0.0467
0
VERTEX
8
0
10
8.3282
20
1.7532
42
0.0464
0
VERTEX
8
0
10
8.9971
20
1.4429
42
0.0221
0
VERTEX
8
0
10
9.3501
20
1.3351
42
0.0207
0
VERTEX
8
0
10
9.7112
20
1.2582
42
0.0193
0
VERTEX
8
0
10
10.0774
20
1.2108
42
0.0091
0
VERTEX
8
0
10
10.2616
20
1.1976
42
0.0043
0
VERTEX
8
0
10
10.3535
20
1.1935
42
0.0042
0
VERTEX
8
0
10
10.4461
20
1.1910
42
0.0054
0
VERTEX
8
0
10
10.6182
20
1.1910
42
-0.0125
0
VERTEX
8
0
10
10.6198
20
1.2050
0
VERTEX
8
0
10
9.6676
20
2.1571
0
SEQEND
8
0
0
POLYLINE
8
Layer 1
66
1
0
VERTEX
8
0
10
9.5356
20
0.8215
42
-0.0131
0
VERTEX
8
0
10
8.7981
20
1.0820
42
-0.0074
0
VERTEX
8
0
10
8.4350
20
1.2270
42
-0.0084
0
VERTEX
8
0
10
8.0764
20
1.3831
42
-0.0106
0
VERTEX
8
0
10
7.7237
20
1.5520
42
-0.0071
0
VERTEX
8
0
10
7.5503
20
1.6423
42
-0.0048
0
VERTEX
8
0
10
7.4646
20
1.6894
42
-0.0102
0
VERTEX
8
0
10
7.3802
20
1.7384
0
VERTEX
8
0
10
6.4513
20
0.5971
0
VERTEX
8
0
10
10.2848
20
0.5971
42
-0.0117
0
VERTEX
8
0
10
9.5356
20
0.8215
0
SEQEND
8
0
0
POLYLINE
8
Layer 1
66
1
0
VERTEX
8
0
10
7.1414
20
2.0967
42
-0.0220
0
VERTEX
8
0
10
6.9042
20
2.4361
42
-0.0172
0
VERTEX
8
0
10
6.6953
20
2.7936
42
-0.0140
0
VERTEX
8
0
10
6.5099
20
3.1639
42
-0.0117
0
VERTEX
8
0
10
6.3443
20
3.5435
0
VERTEX
8
0
10
6.1241
20
3.5435
0
VERTEX
8
0
10
6.1241
20
3.3342
42
0.0402
0
VERTEX
8
0
10
6.5226
20
2.0967
42
-0.0308
0
VERTEX
8
0
10
6.5660
20
1.9723
42
-0.0446
0
VERTEX
8
0
10
6.5916
20
1.8431
42
-0.0644
0
VERTEX
8
0
10
6.5905
20
1.7115
42
-0.0825
0
VERTEX
8
0
10
6.5526
20
1.5858
42
-0.0806
0
VERTEX
8
0
10
6.4759
20
1.4793
42
-0.0618
0
VERTEX
8
0
10
6.3710
20
1.3998
42
-0.0438
0
VERTEX
8
0
10
6.2511
20
1.3453
42
-0.0327
0
VERTEX
8
0
10
6.1241
20
1.3104
0
VERTEX
8
0
10
6.1241
20
0.7010
0
VERTEX
8
0
10
7.1414
20
2.0967
0
SEQEND
8
0
0
POLYLINE
8
Layer 1
66
1
0
VERTEX
8
0
10
5.8759
20
1.3104
42
-0.0357
0
VERTEX
8
0
10
5.7490
20
1.3452
42
-0.0492
0
VERTEX
8
0
10
5.6291
20
1.3998
42
-0.0685
0
VERTEX
8
0
10
5.5243
20
1.4792
42
-0.0840
0
VERTEX
8
0
10
5.4475
20
1.5856
42
-0.0778
0
VERTEX
8
0
10
5.4096
20
1.7114
42
-0.0573
0
VERTEX
8
0
10
5.4084
20
1.8429
42
-0.0393
0
VERTEX
8
0
10
5.4340
20
1.9721
42
-0.0276
0
VERTEX
8
0
10
5.4774
20
2.0967
42
0.0402
0
VERTEX
8
0
10
5.8759
20
3.3342
0
VERTEX
8
0
10
5.8759
20
3.5435
0
VERTEX
8
0
10
5.6557
20
3.5435
42
-0.0124
0
VERTEX
8
0
10
5.4901
20
3.1639
42
-0.0150
0
VERTEX
8
0
10
5.3047
20
2.7936
42
-0.0186
0
VERTEX
8
0
10
5.0958
20
2.4361
42
-0.0240
0
VERTEX
8
0
10
4.8586
20
2.0967
0
VERTEX
8
0
10
5.8759
20
0.7010
0
VERTEX
8
0
10
5.8759
20
1.3104
0
SEQEND
8
0
0
POLYLINE
8
Layer 1
66
1
0
VERTEX
8
0
10
5.5487
20
0.5971
0
VERTEX
8
0
10
4.6198
20
1.7384
42
-0.0101
0
VERTEX
8
0
10
4.4497
20
1.6423
42
-0.0064
0
VERTEX
8
0
10
4.2763
20
1.5520
42
-0.0096
0
VERTEX
8
0
10
3.9236
20
1.3831
42
-0.0147
0
VERTEX
8
0
10
3.2019
20
1.0820
42
-0.0126
0
VERTEX
8
0
10
2.4644
20
0.8215
42
-0.0114
0
VERTEX
8
0
10
1.7152
20
0.5971
0
VERTEX
8
0
10
5.5487
20
0.5971
0
SEQEND
8
0
0
POLYLINE
8
Layer 1
66
1
0
VERTEX
8
0
10
4.2043
20
2.1261
42
0.0226
0
VERTEX
8
0
10
4.4853
20
2.3817
42
0.0214
0
VERTEX
8
0
10
4.7425
20
2.6613
42
0.0200
0
VERTEX
8
0
10
4.9754
20
2.9614
42
0.0188
0
VERTEX
8
0
10
5.1842
20
3.2790
42
0.0345
0
VERTEX
8
0
10
5.5299
20
3.9551
42
0.0173
0
VERTEX
8
0
10
5.6672
20
4.3095
42
0.0093
0
VERTEX
8
0
10
5.7263
20
4.4900
42
0.0051
0
VERTEX
8
0
10
5.7532
20
4.5810
42
0.0027
0
VERTEX
8
0
10
5.7660
20
4.6268
42
0.0030
0
VERTEX
8
0
10
5.7782
20
4.6725
42
-0.1334
0
VERTEX
8
0
10
5.1409
20
4.9656
0
VERTEX
8
0
10
4.7485
20
4.5733
0
VERTEX
8
0
10
4.7489
20
4.5679
0
VERTEX
8
0
10
4.7494
20
4.5616
0
VERTEX
8
0
10
4.7500
20
4.5543
0
VERTEX
8
0
10
4.7505
20
4.5465
42
-0.0022
0
VERTEX
8
0
10
4.7526
20
4.5157
42
-0.0044
0
VERTEX
8
0
10
4.7560
20
4.4549
42
-0.0095
0
VERTEX
8
0
10
4.7594
20
4.3327
42
-0.0214
0
VERTEX
8
0
10
4.7516
20
4.0886
42
-0.0248
0
VERTEX
8
0
10
4.7220
20
3.8463
42
-0.0284
0
VERTEX
8
0
10
4.6674
20
3.6084
42
-0.0316
0
VERTEX
8
0
10
4.5852
20
3.3784
42
-0.0340
0
VERTEX
8
0
10
4.4741
20
3.1612
42
-0.0683
0
VERTEX
8
0
10
4.1682
20
2.7821
42
-0.0315
0
VERTEX
8
0
10
3.9800
20
2.6266
42
-0.0284
0
VERTEX
8
0
10
3.7743
20
2.4951
42
-0.0253
0
VERTEX
8
0
10
3.5554
20
2.3869
42
-0.0224
0
VERTEX
8
0
10
3.3271
20
2.3003
42
-0.0200
0
VERTEX
8
0
10
3.0921
20
2.2337
42
-0.0185
0
VERTEX
8
0
10
2.8527
20
2.1856
42
-0.0181
0
VERTEX
8
0
10
2.6103
20
2.1550
42
-0.0098
0
VERTEX
8
0
10
2.4884
20
2.1465
42
-0.0135
0
VERTEX
8
0
10
2.3665
20
2.1432
42
-0.0338
0
VERTEX
8
0
10
2.3339
20
2.1447
42
-0.0027
0
VERTEX
8
0
10
2.3324
20
2.1571
0
VERTEX
8
0
10
1.3802
20
1.2050
42
-0.0044
0
VERTEX
8
0
10
1.3818
20
1.1910
0
VERTEX
8
0
10
1.3923
20
1.1909
0
VERTEX
8
0
10
1.4037
20
1.1908
0
VERTEX
8
0
10
1.4278
20
1.1906
0
VERTEX
8
0
10
1.4753
20
1.1906
42
0.0044
0
VERTEX
8
0
10
1.5700
20
1.1918
42
0.0092
0
VERTEX
8
0
10
1.7599
20
1.1993
42
0.0196
0
VERTEX
8
0
10
2.1381
20
1.2356
42
0.0213
0
VERTEX
8
0
10
2.5122
20
1.3024
42
0.0227
0
VERTEX
8
0
10
2.8789
20
1.4015
42
0.0482
0
VERTEX
8
0
10
3.5767
20
1.6997
42
0.0477
0
VERTEX
8
0
10
4.2043
20
2.1261
0
SEQEND
8
0
0
POLYLINE
8
Layer 1
66
1
0
VERTEX
8
0
10
2.3076
20
2.4828
0
VERTEX
8
0
10
2.3072
20
2.4950
0
VERTEX
8
0
10
2.3068
20
2.5096
42
-0.0022
0
VERTEX
8
0
10
2.3062
20
2.5396
42
-0.0045
0
VERTEX
8
0
10
2.3057
20
2.5989
42
-0.0095
0
VERTEX
8
0
10
2.3080
20
2.7178
42
-0.0212
0
VERTEX
8
0
10
2.3267
20
2.9549
42
-0.0242
0
VERTEX
8
0
10
2.3664
20
3.1892
42
-0.0273
0
VERTEX
8
0
10
2.4294
20
3.4183
42
-0.0298
0
VERTEX
8
0
10
2.5178
20
3.6391
42
-0.0316
0
VERTEX
8
0
10
2.6323
20
3.8472
42
-0.0634
0
VERTEX
8
0
10
2.9357
20
4.2119
42
-0.0295
0
VERTEX
8
0
10
3.1191
20
4.3632
42
-0.0269
0
VERTEX
8
0
10
3.3184
20
4.4926
42
-0.0243
0
VERTEX
8
0
10
3.5302
20
4.6007
42
-0.0218
0
VERTEX
8
0
10
3.7512
20
4.6885
42
-0.0377
0
VERTEX
8
0
10
4.2109
20
4.8086
42
-0.0182
0
VERTEX
8
0
10
4.4463
20
4.8428
42
-0.0100
0
VERTEX
8
0
10
4.5648
20
4.8533
42
-0.0135
0
VERTEX
8
0
10
4.6834
20
4.8586
0
VERTEX
8
0
10
4.6834
20
4.8586
0
VERTEX
8
0
10
4.9656
20
5.1409
42
-0.1516
0
VERTEX
8
0
10
4.6617
20
5.8759
0
VERTEX
8
0
10
4.6400
20
5.8759
42
0.0127
0
VERTEX
8
0
10
4.3038
20
5.7378
42
0.0139
0
VERTEX
8
0
10
3.9751
20
5.5822
42
0.0152
0
VERTEX
8
0
10
3.6557
20
5.4081
42
0.0164
0
VERTEX
8
0
10
3.3476
20
5.2144
42
0.0177
0
VERTEX
8
0
10
3.0533
20
5.0006
42
0.0188
0
VERTEX
8
0
10
2.7753
20
4.7662
42
0.0411
0
VERTEX
8
0
10
2.2784
20
4.2357
42
0.0432
0
VERTEX
8
0
10
1.8770
20
3.6299
42
0.0430
0
VERTEX
8
0
10
1.5859
20
2.9640
42
0.0419
0
VERTEX
8
0
10
1.4120
20
2.2584
42
0.0210
0
VERTEX
8
0
10
1.3697
20
1.8972
42
0.0227
0
VERTEX
8
0
10
1.3585
20
1.5337
0
VERTEX
8
0
10
2.3076
20
2.4828
0
SEQEND
8
0
0
POLYLINE
8
Layer 1
66
1
0
VERTEX
8
0
10
1.2308
20
3.0287
42
-0.0150
0
VERTEX
8
0
10
1.3704
20
3.3979
42
-0.0199
0
VERTEX
8
0
10
1.5339
20
3.7573
42
-0.0127
0
VERTEX
8
0
10
1.6269
20
3.9313
42
-0.0164
0
VERTEX
8
0
10
1.7294
20
4.1000
42
-0.0235
0
VERTEX
8
0
10
1.8441
20
4.2606
42
-0.0176
0
VERTEX
8
0
10
1.9074
20
4.3363
42
-0.0129
0
VERTEX
8
0
10
1.9412
20
4.3722
42
-0.0251
0
VERTEX
8
0
10
1.9773
20
4.4058
0
VERTEX
8
0
10
0.8343
20
5.3347
0
VERTEX
8
0
10
0.8343
20
1.5012
42
-0.0072
0
VERTEX
8
0
10
0.9141
20
1.8880
42
-0.0082
0
VERTEX
8
0
10
1.0054
20
2.2720
42
-0.0097
0
VERTEX
8
0
10
1.1102
20
2.6528
42
-0.0119
0
VERTEX
8
0
10
1.2308
20
3.0287
0
SEQEND
8
0
0
POLYLINE
8
Layer 1
66
1
0
VERTEX
8
0
10
2.0486
20
4.8586
42
-0.0222
0
VERTEX
8
0
10
2.3990
20
5.1031
42
-0.0174
0
VERTEX
8
0
10
2.7684
20
5.3181
42
-0.0145
0
VERTEX
8
0
10
3.1510
20
5.5084
42
-0.0124
0
VERTEX
8
0
10
3.5435
20
5.6774
0
VERTEX
8
0
10
3.5435
20
5.8759
0
VERTEX
8
0
10
3.2892
20
5.8759
42
0.0403
0
VERTEX
8
0
10
2.0486
20
5.4774
42
-0.0308
0
VERTEX
8
0
10
1.9242
20
5.4340
42
-0.0446
0
VERTEX
8
0
10
1.7950
20
5.4084
42
-0.0644
0
VERTEX
8
0
10
1.6635
20
5.4095
42
-0.0825
0
VERTEX
8
0
10
1.5377
20
5.4473
42
-0.0805
0
VERTEX
8
0
10
1.4312
20
5.5241
42
-0.0617
0
VERTEX
8
0
10
1.3518
20
5.6289
42
-0.0438
0
VERTEX
8
0
10
1.2972
20
5.7488
42
-0.0328
0
VERTEX
8
0
10
1.2624
20
5.8759
0
VERTEX
8
0
10
0.6529
20
5.8759
0
VERTEX
8
0
10
2.0486
20
4.8586
0
SEQEND
8
0
0
POLYLINE
8
Layer 1
66
1
0
VERTEX
8
0
10
1.2624
20
6.1241
42
-0.0356
0
VERTEX
8
0
10
1.2972
20
6.2510
42
-0.0491
0
VERTEX
8
0
10
1.3517
20
6.3709
42
-0.0687
0
VERTEX
8
0
10
1.4311
20
6.4758
42
-0.0839
0
VERTEX
8
0
10
1.5376
20
6.5526
42
-0.0778
0
VERTEX
8
0
10
1.6633
20
6.5905
42
-0.0573
0
VERTEX
8
0
10
1.7948
20
6.5916
42
-0.0394
0
VERTEX
8
0
10
1.9241
20
6.5661
42
-0.0276
0
VERTEX
8
0
10
2.0486
20
6.5226
42
0.0403
0
VERTEX
8
0
10
3.2892
20
6.1241
0
VERTEX
8
0
10
3.5435
20
6.1241
0
VERTEX
8
0
10
3.5435
20
6.3226
42
-0.0129
0
VERTEX
8
0
10
3.1510
20
6.4916
42
-0.0153
0
VERTEX
8
0
10
2.7684
20
6.6819
42
-0.0189
0
VERTEX
8
0
10
2.3990
20
6.8969
42
-0.0243
0
VERTEX
8
0
10
2.0486
20
7.1414
0
VERTEX
8
0
10
0.6529
20
6.1241
0
VERTEX
8
0
10
1.2624
20
6.1241
0
SEQEND
8
0
0
ENDSEC
0
EOF
