0
SECTION
2
HEADER
9
$ACADVER
1
AC1009
9
$ANGDIR
70
0
9
$EXTMIN
10
0
20
0
9
$EXTMAX
10
24.0000
20
18.0000
0
ENDSEC
0
SECTION
2
ENTITIES
0
POLYLINE
8
Layer 1
66
1
0
VERTEX
8
0
10
5.1585
20
6.0000
42
0.4145
0
VERTEX
8
0
10
6.0000
20
5.1585
42
0.4145
0
VERTEX
8
0
10
6.8415
20
6.0000
42
0.4145
0
VERTEX
8
0
10
6.0000
20
6.8415
42
0.4145
0
VERTEX
8
0
10
5.1585
20
6.0000
0
SEQEND
8
0
0
POLYLINE
8
Layer 1
66
1
0
VERTEX
8
0
10
4.0949
20
6.9542
42
0.0581
0
VERTEX
8
0
10
4.2319
20
6.7893
42
0.0296
0
VERTEX
8
0
10
4.3138
20
6.7200
42
0.0365
0
VERTEX
8
0
10
4.4041
20
6.6622
42
0.0275
0
VERTEX
8
0
10
4.4858
20
6.6509
42
0.0192
0
VERTEX
8
0
10
4.5683
20
6.6463
42
0.0406
0
VERTEX
8
0
10
4.7330
20
6.6568
42
0.0523
0
VERTEX
8
0
10
4.8924
20
6.6985
42
0.0688
0
VERTEX
8
0
10
5.0363
20
6.7786
42
0.0792
0
VERTEX
8
0
10
5.1492
20
6.8982
42
0.0715
0
VERTEX
8
0
10
5.2219
20
7.0458
42
0.0536
0
VERTEX
8
0
10
5.2577
20
7.2068
42
0.0200
0
VERTEX
8
0
10
5.2645
20
7.2890
42
0.0086
0
VERTEX
8
0
10
5.2657
20
7.3303
42
0.0039
0
VERTEX
8
0
10
5.2658
20
7.3511
0
VERTEX
8
0
10
5.2657
20
7.3606
42
0.0022
0
VERTEX
8
0
10
5.2656
20
7.3693
42
0.0304
0
VERTEX
8
0
10
5.2481
20
7.4200
42
0.0173
0
VERTEX
8
0
10
5.2266
20
7.4693
42
0.0304
0
VERTEX
8
0
10
5.1746
20
7.5633
42
0.0579
0
VERTEX
8
0
10
5.0397
20
7.7301
42
0.0579
0
VERTEX
8
0
10
4.8700
20
7.8614
42
0.0544
0
VERTEX
8
0
10
4.6755
20
7.9519
42
0.0063
0
VERTEX
8
0
10
4.5551
20
7.9916
42
0.0023
0
VERTEX
8
0
10
4.4342
20
8.0294
42
-0.0038
0
VERTEX
8
0
10
4.3135
20
8.0681
42
-0.0102
0
VERTEX
8
0
10
4.1941
20
8.1106
42
-0.0286
0
VERTEX
8
0
10
3.9631
20
8.2148
42
-0.0243
0
VERTEX
8
0
10
3.7444
20
8.3427
42
-0.0208
0
VERTEX
8
0
10
3.8276
20
8.1035
42
-0.0284
0
VERTEX
8
0
10
3.8854
20
7.8570
42
-0.0119
0
VERTEX
8
0
10
3.9043
20
7.7318
42
-0.0062
0
VERTEX
8
0
10
3.9191
20
7.6060
0
VERTEX
8
0
10
3.9329
20
7.4801
42
0.0050
0
VERTEX
8
0
10
3.9485
20
7.3544
42
0.0517
0
VERTEX
8
0
10
3.9994
20
7.1460
42
0.0572
0
VERTEX
8
0
10
4.0949
20
6.9542
0
SEQEND
8
0
0
POLYLINE
8
Layer 1
66
1
0
VERTEX
8
0
10
2.9950
20
6.3361
42
-0.0282
0
VERTEX
8
0
10
3.0732
20
6.4242
42
-0.0242
0
VERTEX
8
0
10
3.1600
20
6.5039
42
-0.0400
0
VERTEX
8
0
10
3.3522
20
6.6399
42
-0.0315
0
VERTEX
8
0
10
3.5612
20
6.7487
42
-0.0143
0
VERTEX
8
0
10
3.6702
20
6.7937
42
-0.0176
0
VERTEX
8
0
10
3.7818
20
6.8315
42
-0.0147
0
VERTEX
8
0
10
3.7515
20
6.8822
42
-0.0085
0
VERTEX
8
0
10
3.7232
20
6.9340
42
-0.0146
0
VERTEX
8
0
10
3.6714
20
7.0400
42
-0.0299
0
VERTEX
8
0
10
3.5868
20
7.2603
42
-0.0365
0
VERTEX
8
0
10
3.5329
20
7.4899
42
-0.0230
0
VERTEX
8
0
10
3.5206
20
7.6073
42
-0.0269
0
VERTEX
8
0
10
3.5203
20
7.7253
42
0.0266
0
VERTEX
8
0
10
3.4779
20
7.7628
42
0.0145
0
VERTEX
8
0
10
3.4330
20
7.7973
42
0.0249
0
VERTEX
8
0
10
3.3382
20
7.8592
42
0.0458
0
VERTEX
8
0
10
3.1333
20
7.9552
42
0.0916
0
VERTEX
8
0
10
2.6888
20
8.0291
42
0.0451
0
VERTEX
8
0
10
2.4523
20
8.0041
42
0.0060
0
VERTEX
8
0
10
2.2870
20
7.9703
0
VERTEX
8
0
10
2.1222
20
7.9340
42
-0.0040
0
VERTEX
8
0
10
1.9571
20
7.8989
42
-0.0103
0
VERTEX
8
0
10
1.7910
20
7.8692
42
-0.0284
0
VERTEX
8
0
10
1.4553
20
7.8369
42
-0.0239
0
VERTEX
8
0
10
1.1179
20
7.8398
42
-0.0209
0
VERTEX
8
0
10
1.3726
20
7.6188
42
-0.0283
0
VERTEX
8
0
10
1.6028
20
7.3725
42
-0.0120
0
VERTEX
8
0
10
1.7078
20
7.2405
42
-0.0063
0
VERTEX
8
0
10
1.8083
20
7.1050
0
VERTEX
8
0
10
1.9077
20
6.9688
42
0.0050
0
VERTEX
8
0
10
2.0091
20
6.8340
42
0.0519
0
VERTEX
8
0
10
2.2062
20
6.6270
42
0.0572
0
VERTEX
8
0
10
2.4439
20
6.4685
42
0.0580
0
VERTEX
8
0
10
2.7116
20
6.3688
42
0.0296
0
VERTEX
8
0
10
2.8523
20
6.3429
42
0.0165
0
VERTEX
8
0
10
2.9236
20
6.3367
42
0.0225
0
VERTEX
8
0
10
2.9950
20
6.3361
0
SEQEND
8
0
0
POLYLINE
8
Layer 1
66
1
0
VERTEX
8
0
10
3.7665
20
5.3409
42
0.0574
0
VERTEX
8
0
10
3.9792
20
5.3132
42
0.0582
0
VERTEX
8
0
10
4.1926
20
5.3351
42
0.0296
0
VERTEX
8
0
10
4.2959
20
5.3646
42
0.0363
0
VERTEX
8
0
10
4.3942
20
5.4075
42
0.0276
0
VERTEX
8
0
10
4.4492
20
5.4688
42
0.0192
0
VERTEX
8
0
10
4.4989
20
5.5346
42
0.0408
0
VERTEX
8
0
10
4.5819
20
5.6770
42
0.0524
0
VERTEX
8
0
10
4.6361
20
5.8325
42
0.0689
0
VERTEX
8
0
10
4.6496
20
5.9964
42
0.0793
0
VERTEX
8
0
10
4.6132
20
6.1566
42
0.0713
0
VERTEX
8
0
10
4.5310
20
6.2990
42
0.0534
0
VERTEX
8
0
10
4.4174
20
6.4183
42
0.0200
0
VERTEX
8
0
10
4.3531
20
6.4698
42
0.0085
0
VERTEX
8
0
10
4.3195
20
6.4937
42
0.0041
0
VERTEX
8
0
10
4.3023
20
6.5054
0
VERTEX
8
0
10
4.2944
20
6.5106
0
VERTEX
8
0
10
4.2871
20
6.5154
42
0.0254
0
VERTEX
8
0
10
4.2562
20
6.5241
42
0.0117
0
VERTEX
8
0
10
4.2249
20
6.5311
42
0.0197
0
VERTEX
8
0
10
4.1615
20
6.5413
42
0.0353
0
VERTEX
8
0
10
4.0332
20
6.5477
42
0.0799
0
VERTEX
8
0
10
3.7386
20
6.4943
42
0.0402
0
VERTEX
8
0
10
3.6016
20
6.4328
42
0.0375
0
VERTEX
8
0
10
3.4755
20
6.3510
42
0.0062
0
VERTEX
8
0
10
3.3754
20
6.2733
42
0.0023
0
VERTEX
8
0
10
3.2765
20
6.1939
42
-0.0038
0
VERTEX
8
0
10
3.1770
20
6.1153
42
-0.0102
0
VERTEX
8
0
10
3.0751
20
6.0398
42
-0.0287
0
VERTEX
8
0
10
2.8598
20
5.9061
42
-0.0243
0
VERTEX
8
0
10
2.6315
20
5.7959
42
-0.0207
0
VERTEX
8
0
10
2.8763
20
5.7316
42
-0.0282
0
VERTEX
8
0
10
3.1130
20
5.6424
42
-0.0119
0
VERTEX
8
0
10
3.2274
20
5.5884
42
-0.0062
0
VERTEX
8
0
10
3.3400
20
5.5307
0
VERTEX
8
0
10
3.4522
20
5.4720
42
0.0049
0
VERTEX
8
0
10
3.5652
20
5.4149
42
0.0521
0
VERTEX
8
0
10
3.7665
20
5.3409
0
SEQEND
8
0
0
POLYLINE
8
Layer 1
66
1
0
VERTEX
8
0
10
3.6000
20
4.1278
42
-0.0280
0
VERTEX
8
0
10
3.5923
20
4.2454
42
-0.0242
0
VERTEX
8
0
10
3.5966
20
4.3632
42
-0.0397
0
VERTEX
8
0
10
3.6346
20
4.5957
42
-0.0313
0
VERTEX
8
0
10
3.7037
20
4.8211
42
-0.0143
0
VERTEX
8
0
10
3.7480
20
4.9303
42
-0.0175
0
VERTEX
8
0
10
3.7992
20
5.0365
42
-0.0149
0
VERTEX
8
0
10
3.7421
20
5.0507
42
-0.0084
0
VERTEX
8
0
10
3.6855
20
5.0672
42
-0.0146
0
VERTEX
8
0
10
3.5740
20
5.1050
42
-0.0297
0
VERTEX
8
0
10
3.3587
20
5.2001
42
-0.0364
0
VERTEX
8
0
10
3.1582
20
5.3233
42
-0.0230
0
VERTEX
8
0
10
3.0664
20
5.3970
42
-0.0266
0
VERTEX
8
0
10
2.9826
20
5.4797
42
0.0533
0
VERTEX
8
0
10
2.9577
20
5.4797
42
0.0382
0
VERTEX
8
0
10
2.8190
20
5.4598
42
0.0293
0
VERTEX
8
0
10
2.6839
20
5.4230
42
0.0565
0
VERTEX
8
0
10
2.4304
20
5.3047
42
0.0565
0
VERTEX
8
0
10
2.2099
20
5.1326
42
0.0529
0
VERTEX
8
0
10
2.0315
20
4.9170
42
0.0062
0
VERTEX
8
0
10
1.9393
20
4.7755
42
0.0023
0
VERTEX
8
0
10
1.8492
20
4.6327
42
-0.0039
0
VERTEX
8
0
10
1.7582
20
4.4905
42
-0.0103
0
VERTEX
8
0
10
1.6625
20
4.3513
42
-0.0285
0
VERTEX
8
0
10
1.4495
20
4.0895
42
-0.0128
0
VERTEX
8
0
10
1.3324
20
3.9678
42
-0.0106
0
VERTEX
8
0
10
1.2100
20
3.8515
42
-0.0210
0
VERTEX
8
0
10
1.5469
20
3.8770
42
-0.0284
0
VERTEX
8
0
10
1.8846
20
3.8672
42
-0.0118
0
VERTEX
8
0
10
2.0525
20
3.8488
42
-0.0062
0
VERTEX
8
0
10
2.2198
20
3.8248
0
VERTEX
8
0
10
2.3869
20
3.7996
42
0.0049
0
VERTEX
8
0
10
2.5544
20
3.7768
42
0.0520
0
VERTEX
8
0
10
2.8398
20
3.7712
42
0.0573
0
VERTEX
8
0
10
3.1193
20
3.8287
42
0.0584
0
VERTEX
8
0
10
3.3781
20
3.9491
42
0.0297
0
VERTEX
8
0
10
3.4951
20
4.0310
42
0.0165
0
VERTEX
8
0
10
3.5496
20
4.0774
42
0.0226
0
VERTEX
8
0
10
3.6000
20
4.1278
0
SEQEND
8
0
0
POLYLINE
8
Layer 1
66
1
0
VERTEX
8
0
10
4.9181
20
4.1072
42
0.0577
0
VERTEX
8
0
10
5.0539
20
4.2731
42
0.0294
0
VERTEX
8
0
10
5.1064
20
4.3667
42
0.0362
0
VERTEX
8
0
10
5.1461
20
4.4664
42
0.0283
0
VERTEX
8
0
10
5.1407
20
4.6058
42
0.0377
0
VERTEX
8
0
10
5.1163
20
4.7431
42
0.0502
0
VERTEX
8
0
10
5.0673
20
4.8736
42
0.0623
0
VERTEX
8
0
10
4.9896
20
4.9891
42
0.0666
0
VERTEX
8
0
10
4.8845
20
5.0804
42
0.0599
0
VERTEX
8
0
10
4.7599
20
5.1428
42
0.0482
0
VERTEX
8
0
10
4.6251
20
5.1782
42
0.0381
0
VERTEX
8
0
10
4.4863
20
5.1909
42
0.0539
0
VERTEX
8
0
10
4.2847
20
5.1734
42
0.0304
0
VERTEX
8
0
10
4.2383
20
5.1464
42
0.0174
0
VERTEX
8
0
10
4.1943
20
5.1157
42
0.0304
0
VERTEX
8
0
10
4.1123
20
5.0463
42
0.0581
0
VERTEX
8
0
10
3.9753
20
4.8815
42
0.0578
0
VERTEX
8
0
10
3.8798
20
4.6896
42
0.0542
0
VERTEX
8
0
10
3.8291
20
4.4813
42
0.0060
0
VERTEX
8
0
10
3.8134
20
4.3556
0
VERTEX
8
0
10
3.7996
20
4.2297
42
-0.0039
0
VERTEX
8
0
10
3.7848
20
4.1039
42
-0.0102
0
VERTEX
8
0
10
3.7659
20
3.9787
42
-0.0283
0
VERTEX
8
0
10
3.7081
20
3.7322
42
-0.0239
0
VERTEX
8
0
10
3.6249
20
3.4929
42
-0.0206
0
VERTEX
8
0
10
3.8432
20
3.6211
42
-0.0281
0
VERTEX
8
0
10
4.0734
20
3.7260
42
-0.0119
0
VERTEX
8
0
10
4.1923
20
3.7692
42
-0.0063
0
VERTEX
8
0
10
4.3127
20
3.8083
0
VERTEX
8
0
10
4.4334
20
3.8465
42
0.0048
0
VERTEX
8
0
10
4.5535
20
3.8863
42
0.0517
0
VERTEX
8
0
10
4.7481
20
3.9765
42
0.0567
0
VERTEX
8
0
10
4.9181
20
4.1072
0
SEQEND
8
0
0
POLYLINE
8
Layer 1
66
1
0
VERTEX
8
0
10
5.6938
20
3.0100
42
-0.0279
0
VERTEX
8
0
10
5.6054
20
3.0875
42
-0.0243
0
VERTEX
8
0
10
5.5253
20
3.1736
42
-0.0400
0
VERTEX
8
0
10
5.3880
20
3.3645
42
-0.0616
0
VERTEX
8
0
10
5.1934
20
3.7917
42
-0.0148
0
VERTEX
8
0
10
5.1429
20
3.7614
42
-0.0084
0
VERTEX
8
0
10
5.0912
20
3.7331
42
-0.0145
0
VERTEX
8
0
10
4.9855
20
3.6810
42
-0.0298
0
VERTEX
8
0
10
4.7659
20
3.5960
42
-0.0362
0
VERTEX
8
0
10
4.5369
20
3.5414
42
-0.0228
0
VERTEX
8
0
10
4.4199
20
3.5286
42
-0.0268
0
VERTEX
8
0
10
4.3021
20
3.5278
42
0.0287
0
VERTEX
8
0
10
4.2555
20
3.4736
42
0.0174
0
VERTEX
8
0
10
4.2133
20
3.4157
42
0.0304
0
VERTEX
8
0
10
4.1401
20
3.2927
42
0.0579
0
VERTEX
8
0
10
4.0390
20
3.0253
42
0.0578
0
VERTEX
8
0
10
4.0019
20
2.7419
42
0.0541
0
VERTEX
8
0
10
4.0282
20
2.4573
42
0.0060
0
VERTEX
8
0
10
4.0631
20
2.2920
0
VERTEX
8
0
10
4.1003
20
2.1273
42
-0.0040
0
VERTEX
8
0
10
4.1363
20
1.9623
42
-0.0103
0
VERTEX
8
0
10
4.1669
20
1.7963
42
-0.0284
0
VERTEX
8
0
10
4.2011
20
1.4605
42
-0.0127
0
VERTEX
8
0
10
4.2043
20
1.2917
42
-0.0105
0
VERTEX
8
0
10
4.2000
20
1.1228
42
-0.0206
0
VERTEX
8
0
10
4.4198
20
1.3791
42
-0.0281
0
VERTEX
8
0
10
4.6646
20
1.6112
42
-0.0118
0
VERTEX
8
0
10
4.7960
20
1.7172
42
-0.0063
0
VERTEX
8
0
10
4.9309
20
1.8188
0
VERTEX
8
0
10
5.0665
20
1.9193
42
0.0048
0
VERTEX
8
0
10
5.2008
20
2.0216
42
0.0517
0
VERTEX
8
0
10
5.4069
20
2.2197
42
0.0572
0
VERTEX
8
0
10
5.5641
20
2.4582
42
0.0580
0
VERTEX
8
0
10
5.6625
20
2.7264
42
0.0296
0
VERTEX
8
0
10
5.6876
20
2.8672
42
0.0165
0
VERTEX
8
0
10
5.6936
20
2.9386
42
0.0226
0
VERTEX
8
0
10
5.6938
20
3.0100
0
SEQEND
8
0
0
POLYLINE
8
Layer 1
66
1
0
VERTEX
8
0
10
6.6799
20
3.9043
42
0.0578
0
VERTEX
8
0
10
6.6588
20
4.1176
42
0.0293
0
VERTEX
8
0
10
6.6299
20
4.2210
42
0.0364
0
VERTEX
8
0
10
6.5875
20
4.3195
42
0.0281
0
VERTEX
8
0
10
6.5303
20
4.3709
42
0.0180
0
VERTEX
8
0
10
6.4692
20
4.4178
42
0.0373
0
VERTEX
8
0
10
6.3375
20
4.4974
42
0.0467
0
VERTEX
8
0
10
6.1942
20
4.5532
42
0.0607
0
VERTEX
8
0
10
6.0423
20
4.5759
42
0.0831
0
VERTEX
8
0
10
5.8692
20
4.5502
42
0.0408
0
VERTEX
8
0
10
5.7881
20
4.5163
42
0.0364
0
VERTEX
8
0
10
5.7131
20
4.4705
42
0.0313
0
VERTEX
8
0
10
5.6448
20
4.4152
42
0.0262
0
VERTEX
8
0
10
5.5831
20
4.3526
42
0.0412
0
VERTEX
8
0
10
5.4772
20
4.2124
42
0.0305
0
VERTEX
8
0
10
5.4636
20
4.1606
42
0.0173
0
VERTEX
8
0
10
5.4542
20
4.1077
42
0.0303
0
VERTEX
8
0
10
5.4453
20
4.0008
42
0.0577
0
VERTEX
8
0
10
5.4650
20
3.7874
42
0.0576
0
VERTEX
8
0
10
5.5330
20
3.5842
42
0.0539
0
VERTEX
8
0
10
5.6440
20
3.4008
42
0.0058
0
VERTEX
8
0
10
5.7216
20
3.3008
0
VERTEX
8
0
10
5.8006
20
3.2019
42
-0.0040
0
VERTEX
8
0
10
5.8789
20
3.1024
42
-0.0103
0
VERTEX
8
0
10
5.9539
20
3.0003
42
-0.0284
0
VERTEX
8
0
10
6.0869
20
2.7850
42
-0.0239
0
VERTEX
8
0
10
6.1967
20
2.5568
42
-0.0207
0
VERTEX
8
0
10
6.2609
20
2.8016
42
-0.0281
0
VERTEX
8
0
10
6.3501
20
3.0383
42
-0.0120
0
VERTEX
8
0
10
6.4041
20
3.1528
42
-0.0063
0
VERTEX
8
0
10
6.4618
20
3.2654
0
VERTEX
8
0
10
6.5205
20
3.3775
42
0.0049
0
VERTEX
8
0
10
6.5776
20
3.4905
42
0.0516
0
VERTEX
8
0
10
6.6518
20
3.6917
42
0.0569
0
VERTEX
8
0
10
6.6799
20
3.9043
0
SEQEND
8
0
0
POLYLINE
8
Layer 1
66
1
0
VERTEX
8
0
10
7.9170
20
3.6846
42
-0.0278
0
VERTEX
8
0
10
7.7995
20
3.6788
42
-0.0242
0
VERTEX
8
0
10
7.6819
20
3.6850
42
-0.0401
0
VERTEX
8
0
10
7.4505
20
3.7268
42
-0.0615
0
VERTEX
8
0
10
7.0133
20
3.8988
42
-0.0149
0
VERTEX
8
0
10
6.9979
20
3.8419
42
-0.0083
0
VERTEX
8
0
10
6.9804
20
3.7857
42
-0.0144
0
VERTEX
8
0
10
6.9404
20
3.6748
42
-0.0296
0
VERTEX
8
0
10
6.8414
20
3.4611
42
-0.0361
0
VERTEX
8
0
10
6.7146
20
3.2627
42
-0.0228
0
VERTEX
8
0
10
6.6393
20
3.1722
42
-0.0267
0
VERTEX
8
0
10
6.5552
20
3.0896
42
0.0288
0
VERTEX
8
0
10
6.5594
20
3.0183
42
0.0174
0
VERTEX
8
0
10
6.5693
20
2.9475
42
0.0304
0
VERTEX
8
0
10
6.6024
20
2.8083
42
0.0580
0
VERTEX
8
0
10
6.7157
20
2.5462
42
0.0578
0
VERTEX
8
0
10
6.8861
20
2.3171
42
0.0541
0
VERTEX
8
0
10
7.1029
20
2.1311
42
0.0058
0
VERTEX
8
0
10
7.2431
20
2.0364
0
VERTEX
8
0
10
7.3846
20
1.9437
42
-0.0040
0
VERTEX
8
0
10
7.5254
20
1.8499
42
-0.0102
0
VERTEX
8
0
10
7.6630
20
1.7515
42
-0.0283
0
VERTEX
8
0
10
7.9215
20
1.5335
42
-0.0239
0
VERTEX
8
0
10
8.1560
20
1.2896
42
-0.0208
0
VERTEX
8
0
10
8.1357
20
1.6266
42
-0.0282
0
VERTEX
8
0
10
8.1504
20
1.9638
42
-0.0119
0
VERTEX
8
0
10
8.1712
20
2.1313
42
-0.0063
0
VERTEX
8
0
10
8.1976
20
2.2981
0
VERTEX
8
0
10
8.2252
20
2.4646
42
0.0049
0
VERTEX
8
0
10
8.2506
20
2.6315
42
0.0519
0
VERTEX
8
0
10
8.2608
20
2.9172
42
0.0570
0
VERTEX
8
0
10
8.2078
20
3.1980
42
0.0579
0
VERTEX
8
0
10
8.0919
20
3.4591
42
0.0296
0
VERTEX
8
0
10
8.0119
20
3.5778
42
0.0165
0
VERTEX
8
0
10
7.9665
20
3.6332
42
0.0226
0
VERTEX
8
0
10
7.9170
20
3.6846
0
SEQEND
8
0
0
POLYLINE
8
Layer 1
66
1
0
VERTEX
8
0
10
7.8926
20
5.0234
42
0.0581
0
VERTEX
8
0
10
7.7486
20
5.1816
42
0.0298
0
VERTEX
8
0
10
7.6637
20
5.2470
42
0.0367
0
VERTEX
8
0
10
7.5709
20
5.3004
42
0.0209
0
VERTEX
8
0
10
7.5369
20
5.3051
42
0.0104
0
VERTEX
8
0
10
7.5027
20
5.3081
42
0.0184
0
VERTEX
8
0
10
7.4340
20
5.3104
42
0.0351
0
VERTEX
8
0
10
7.2868
20
5.2996
42
0.0427
0
VERTEX
8
0
10
7.1432
20
5.2656
42
0.0552
0
VERTEX
8
0
10
7.0095
20
5.2034
42
0.0676
0
VERTEX
8
0
10
6.8959
20
5.1097
42
0.0703
0
VERTEX
8
0
10
6.8126
20
4.9882
42
0.0600
0
VERTEX
8
0
10
6.7627
20
4.8494
42
0.0453
0
VERTEX
8
0
10
6.7414
20
4.7034
42
0.0174
0
VERTEX
8
0
10
6.7393
20
4.6295
42
0.0149
0
VERTEX
8
0
10
6.7419
20
4.5560
42
0.0303
0
VERTEX
8
0
10
6.7618
20
4.5061
42
0.0174
0
VERTEX
8
0
10
6.7857
20
4.4579
42
0.0302
0
VERTEX
8
0
10
6.8422
20
4.3663
42
0.0578
0
VERTEX
8
0
10
6.9849
20
4.2059
42
0.0577
0
VERTEX
8
0
10
7.1606
20
4.0824
42
0.0544
0
VERTEX
8
0
10
7.3593
20
4.0008
42
0.0060
0
VERTEX
8
0
10
7.4812
20
3.9666
42
0.0023
0
VERTEX
8
0
10
7.6035
20
3.9343
42
-0.0038
0
VERTEX
8
0
10
7.7256
20
3.9010
42
-0.0102
0
VERTEX
8
0
10
7.8466
20
3.8639
42
-0.0286
0
VERTEX
8
0
10
8.0815
20
3.7702
42
-0.0242
0
VERTEX
8
0
10
8.3054
20
3.6523
42
-0.0208
0
VERTEX
8
0
10
8.2115
20
3.8876
42
-0.0282
0
VERTEX
8
0
10
8.1425
20
4.1313
42
-0.0118
0
VERTEX
8
0
10
8.1179
20
4.2556
42
-0.0062
0
VERTEX
8
0
10
8.0973
20
4.3806
0
VERTEX
8
0
10
8.0778
20
4.5058
42
0.0049
0
VERTEX
8
0
10
8.0564
20
4.6307
42
0.0516
0
VERTEX
8
0
10
7.9964
20
4.8362
42
0.0572
0
VERTEX
8
0
10
7.8926
20
5.0234
0
SEQEND
8
0
0
POLYLINE
8
Layer 1
66
1
0
VERTEX
8
0
10
8.9129
20
5.5942
42
-0.0225
0
VERTEX
8
0
10
8.9842
20
5.5898
42
-0.0165
0
VERTEX
8
0
10
9.0551
20
5.5797
42
-0.0296
0
VERTEX
8
0
10
9.1943
20
5.5463
42
-0.0579
0
VERTEX
8
0
10
9.4565
20
5.4323
42
-0.0571
0
VERTEX
8
0
10
9.6855
20
5.2613
42
-0.0519
0
VERTEX
8
0
10
9.8714
20
5.0440
42
-0.0051
0
VERTEX
8
0
10
9.9655
20
4.9039
0
VERTEX
8
0
10
10.0576
20
4.7624
42
0.0061
0
VERTEX
8
0
10
10.1507
20
4.6216
42
0.0120
0
VERTEX
8
0
10
10.2484
20
4.4839
42
0.0284
0
VERTEX
8
0
10
10.4651
20
4.2254
42
0.0211
0
VERTEX
8
0
10
10.7079
20
3.9909
42
0.0237
0
VERTEX
8
0
10
10.3710
20
4.0118
42
0.0282
0
VERTEX
8
0
10
10.0338
20
3.9977
42
0.0103
0
VERTEX
8
0
10
9.8663
20
3.9772
42
0.0041
0
VERTEX
8
0
10
9.6995
20
3.9512
0
VERTEX
8
0
10
9.5329
20
3.9238
42
-0.0057
0
VERTEX
8
0
10
9.3660
20
3.8988
42
-0.0541
0
VERTEX
8
0
10
9.0807
20
3.8891
42
-0.0579
0
VERTEX
8
0
10
8.8004
20
3.9427
42
-0.0581
0
VERTEX
8
0
10
8.5399
20
4.0592
42
-0.0305
0
VERTEX
8
0
10
8.4217
20
4.1395
42
-0.0175
0
VERTEX
8
0
10
8.3666
20
4.1851
42
-0.0288
0
VERTEX
8
0
10
8.3154
20
4.2349
42
0.0269
0
VERTEX
8
0
10
8.3213
20
4.3527
42
0.0232
0
VERTEX
8
0
10
8.3152
20
4.4706
42
0.0366
0
VERTEX
8
0
10
8.2734
20
4.7027
42
0.0298
0
VERTEX
8
0
10
8.2005
20
4.9271
42
0.0145
0
VERTEX
8
0
10
8.1543
20
5.0357
42
0.0082
0
VERTEX
8
0
10
8.1288
20
5.0889
42
0.0147
0
VERTEX
8
0
10
8.1012
20
5.1411
42
0.0616
0
VERTEX
8
0
10
8.5402
20
5.3097
42
0.0400
0
VERTEX
8
0
10
8.7392
20
5.4354
42
0.0242
0
VERTEX
8
0
10
8.8301
20
5.5104
42
0.0282
0
VERTEX
8
0
10
8.9129
20
5.5942
0
SEQEND
8
0
0
POLYLINE
8
Layer 1
66
1
0
VERTEX
8
0
10
8.1984
20
6.6691
42
0.0816
0
VERTEX
8
0
10
7.9021
20
6.7095
42
0.0355
0
VERTEX
8
0
10
7.7745
20
6.6971
42
0.0188
0
VERTEX
8
0
10
7.7118
20
6.6838
42
0.0258
0
VERTEX
8
0
10
7.6506
20
6.6647
42
0.0275
0
VERTEX
8
0
10
7.5872
20
6.6120
42
0.0192
0
VERTEX
8
0
10
7.5283
20
6.5541
42
0.0406
0
VERTEX
8
0
10
7.4252
20
6.4253
42
0.0523
0
VERTEX
8
0
10
7.3485
20
6.2793
42
0.0688
0
VERTEX
8
0
10
7.3108
20
6.1190
42
0.0793
0
VERTEX
8
0
10
7.3231
20
5.9550
42
0.0718
0
VERTEX
8
0
10
7.3834
20
5.8018
42
0.0536
0
VERTEX
8
0
10
7.4784
20
5.6670
42
0.0200
0
VERTEX
8
0
10
7.5347
20
5.6066
42
0.0085
0
VERTEX
8
0
10
7.5644
20
5.5780
42
0.0040
0
VERTEX
8
0
10
7.5798
20
5.5639
0
VERTEX
8
0
10
7.5869
20
5.5576
0
VERTEX
8
0
10
7.5934
20
5.5519
42
0.0307
0
VERTEX
8
0
10
7.6427
20
5.5309
42
0.0175
0
VERTEX
8
0
10
7.6936
20
5.5139
42
0.0304
0
VERTEX
8
0
10
7.7980
20
5.4896
42
0.0580
0
VERTEX
8
0
10
8.0118
20
5.4782
42
0.0576
0
VERTEX
8
0
10
8.2226
20
5.5160
42
0.0538
0
VERTEX
8
0
10
8.4199
20
5.5992
42
0.0057
0
VERTEX
8
0
10
8.5302
20
5.6614
0
VERTEX
8
0
10
8.6397
20
5.7251
42
-0.0041
0
VERTEX
8
0
10
8.7497
20
5.7879
42
-0.0103
0
VERTEX
8
0
10
8.8617
20
5.8470
42
-0.0282
0
VERTEX
8
0
10
9.0943
20
5.9470
42
-0.0237
0
VERTEX
8
0
10
9.3361
20
6.0224
42
-0.0212
0
VERTEX
8
0
10
9.1030
20
6.1220
42
-0.0286
0
VERTEX
8
0
10
8.8817
20
6.2456
42
-0.0119
0
VERTEX
8
0
10
8.7763
20
6.3161
42
-0.0060
0
VERTEX
8
0
10
8.6733
20
6.3900
0
VERTEX
8
0
10
8.5708
20
6.4647
42
0.0052
0
VERTEX
8
0
10
8.4672
20
6.5378
42
0.0359
0
VERTEX
8
0
10
8.3378
20
6.6137
42
0.0392
0
VERTEX
8
0
10
8.1984
20
6.6691
0
SEQEND
8
0
0
POLYLINE
8
Layer 1
66
1
0
VERTEX
8
0
10
8.4797
20
7.8498
42
-0.0284
0
VERTEX
8
0
10
8.4785
20
7.7318
42
-0.0244
0
VERTEX
8
0
10
8.4653
20
7.6146
42
-0.0402
0
VERTEX
8
0
10
8.4094
20
7.3855
42
-0.0315
0
VERTEX
8
0
10
8.3230
20
7.1660
42
-0.0145
0
VERTEX
8
0
10
8.2702
20
7.0604
42
-0.0175
0
VERTEX
8
0
10
8.2108
20
6.9585
42
-0.0147
0
VERTEX
8
0
10
8.2668
20
6.9401
42
-0.0082
0
VERTEX
8
0
10
8.3222
20
6.9195
42
-0.0147
0
VERTEX
8
0
10
8.4309
20
6.8735
42
-0.0295
0
VERTEX
8
0
10
8.6394
20
6.7628
42
-0.0365
0
VERTEX
8
0
10
8.8309
20
6.6249
42
-0.0232
0
VERTEX
8
0
10
8.9173
20
6.5445
42
-0.0269
0
VERTEX
8
0
10
8.9950
20
6.4556
42
0.0288
0
VERTEX
8
0
10
9.0664
20
6.4556
42
0.0174
0
VERTEX
8
0
10
9.1377
20
6.4614
42
0.0305
0
VERTEX
8
0
10
9.2785
20
6.4862
42
0.0580
0
VERTEX
8
0
10
9.5467
20
6.5839
42
0.0578
0
VERTEX
8
0
10
9.7852
20
6.7406
42
0.0540
0
VERTEX
8
0
10
9.9834
20
6.9461
42
0.0061
0
VERTEX
8
0
10
10.0858
20
7.0803
0
VERTEX
8
0
10
10.1863
20
7.2159
42
-0.0039
0
VERTEX
8
0
10
10.2878
20
7.3509
42
-0.0103
0
VERTEX
8
0
10
10.3936
20
7.4824
42
-0.0285
0
VERTEX
8
0
10
10.6256
20
7.7274
42
-0.0128
0
VERTEX
8
0
10
10.7514
20
7.8400
42
-0.0104
0
VERTEX
8
0
10
10.8821
20
7.9469
42
-0.0210
0
VERTEX
8
0
10
10.5444
20
7.9465
42
-0.0283
0
VERTEX
8
0
10
10.2086
20
7.9813
42
-0.0119
0
VERTEX
8
0
10
10.0426
20
8.0122
42
-0.0062
0
VERTEX
8
0
10
9.8776
20
8.0485
0
VERTEX
8
0
10
9.7129
20
8.0860
42
0.0051
0
VERTEX
8
0
10
9.5477
20
8.1212
42
0.0418
0
VERTEX
8
0
10
9.3112
20
8.1485
42
0.0446
0
VERTEX
8
0
10
9.0858
20
8.1335
42
0.0460
0
VERTEX
8
0
10
8.8669
20
8.0778
42
0.0461
0
VERTEX
8
0
10
8.6619
20
7.9829
42
0.0242
0
VERTEX
8
0
10
8.5670
20
7.9214
42
0.0310
0
VERTEX
8
0
10
8.4797
20
7.8498
0
SEQEND
8
0
0
POLYLINE
8
Layer 1
66
1
0
VERTEX
8
0
10
7.1114
20
8.0181
42
0.0580
0
VERTEX
8
0
10
6.9465
20
7.8819
42
0.0296
0
VERTEX
8
0
10
6.8770
20
7.8004
42
0.0366
0
VERTEX
8
0
10
6.8191
20
7.7104
42
0.0275
0
VERTEX
8
0
10
6.8077
20
7.6287
42
0.0191
0
VERTEX
8
0
10
6.8032
20
7.5462
42
0.0407
0
VERTEX
8
0
10
6.8137
20
7.3816
42
0.0523
0
VERTEX
8
0
10
6.8553
20
7.2221
42
0.0689
0
VERTEX
8
0
10
6.9354
20
7.0782
42
0.0793
0
VERTEX
8
0
10
7.0550
20
6.9653
42
0.0716
0
VERTEX
8
0
10
7.2027
20
6.8926
42
0.0536
0
VERTEX
8
0
10
7.3637
20
6.8569
42
0.0199
0
VERTEX
8
0
10
7.4459
20
6.8500
42
0.0087
0
VERTEX
8
0
10
7.4871
20
6.8488
42
0.0039
0
VERTEX
8
0
10
7.5080
20
6.8488
0
VERTEX
8
0
10
7.5175
20
6.8488
0
VERTEX
8
0
10
7.5261
20
6.8490
42
0.0308
0
VERTEX
8
0
10
7.5768
20
6.8665
42
0.0176
0
VERTEX
8
0
10
7.6259
20
6.8880
42
0.0303
0
VERTEX
8
0
10
7.7195
20
6.9401
42
0.0583
0
VERTEX
8
0
10
7.8856
20
7.0752
42
0.0576
0
VERTEX
8
0
10
8.0162
20
7.2448
42
0.0541
0
VERTEX
8
0
10
8.1062
20
7.4390
42
0.0056
0
VERTEX
8
0
10
8.1460
20
7.5592
0
VERTEX
8
0
10
8.1842
20
7.6798
42
-0.0041
0
VERTEX
8
0
10
8.2234
20
7.8002
42
-0.0103
0
VERTEX
8
0
10
8.2665
20
7.9192
42
-0.0282
0
VERTEX
8
0
10
8.3715
20
8.1494
42
-0.0235
0
VERTEX
8
0
10
8.4996
20
8.3676
42
-0.0209
0
VERTEX
8
0
10
8.2604
20
8.2844
42
-0.0284
0
VERTEX
8
0
10
8.0139
20
8.2266
42
-0.0119
0
VERTEX
8
0
10
7.8886
20
8.2077
42
-0.0062
0
VERTEX
8
0
10
7.7628
20
8.1929
0
VERTEX
8
0
10
7.6369
20
8.1791
42
0.0050
0
VERTEX
8
0
10
7.5112
20
8.1635
42
0.0516
0
VERTEX
8
0
10
7.3032
20
8.1130
42
0.0569
0
VERTEX
8
0
10
7.1114
20
8.0181
0
SEQEND
8
0
0
POLYLINE
8
Layer 1
66
1
0
VERTEX
8
0
10
6.5643
20
9.2907
42
0.0296
0
VERTEX
8
0
10
6.5292
20
9.1520
42
0.0165
0
VERTEX
8
0
10
6.5182
20
9.0812
42
0.0225
0
VERTEX
8
0
10
6.5129
20
9.0100
42
-0.0280
0
VERTEX
8
0
10
6.5955
20
8.9262
42
-0.0242
0
VERTEX
8
0
10
6.6692
20
8.8344
42
-0.0398
0
VERTEX
8
0
10
6.7925
20
8.6339
42
-0.0314
0
VERTEX
8
0
10
6.8875
20
8.4185
42
-0.0143
0
VERTEX
8
0
10
6.9254
20
8.3070
42
-0.0176
0
VERTEX
8
0
10
6.9560
20
8.1934
42
-0.0149
0
VERTEX
8
0
10
7.0086
20
8.2199
42
-0.0082
0
VERTEX
8
0
10
7.0622
20
8.2445
42
-0.0146
0
VERTEX
8
0
10
7.1714
20
8.2888
42
-0.0295
0
VERTEX
8
0
10
7.3968
20
8.3578
42
-0.0364
0
VERTEX
8
0
10
7.6293
20
8.3959
42
-0.0230
0
VERTEX
8
0
10
7.7471
20
8.4002
42
-0.0267
0
VERTEX
8
0
10
7.8647
20
8.3925
42
0.0287
0
VERTEX
8
0
10
7.9152
20
8.4433
42
0.0174
0
VERTEX
8
0
10
7.9615
20
8.4979
42
0.0303
0
VERTEX
8
0
10
8.0434
20
8.6154
42
0.0580
0
VERTEX
8
0
10
8.1637
20
8.8747
42
0.0578
0
VERTEX
8
0
10
8.2214
20
9.1548
42
0.0541
0
VERTEX
8
0
10
8.2158
20
9.4407
42
0.0061
0
VERTEX
8
0
10
8.1930
20
9.6078
0
VERTEX
8
0
10
8.1679
20
9.7746
42
-0.0040
0
VERTEX
8
0
10
8.1439
20
9.9416
42
-0.0103
0
VERTEX
8
0
10
8.1254
20
10.1092
42
-0.0284
0
VERTEX
8
0
10
8.1156
20
10.4462
42
-0.0239
0
VERTEX
8
0
10
8.1411
20
10.7826
42
-0.0211
0
VERTEX
8
0
10
7.9030
20
10.5431
42
-0.0285
0
VERTEX
8
0
10
7.6412
20
10.3300
42
-0.0119
0
VERTEX
8
0
10
7.5021
20
10.2344
42
-0.0062
0
VERTEX
8
0
10
7.3599
20
10.1433
0
VERTEX
8
0
10
7.2170
20
10.0532
42
0.0050
0
VERTEX
8
0
10
7.0755
20
9.9610
42
0.0519
0
VERTEX
8
0
10
6.8556
20
9.7782
42
0.0571
0
VERTEX
8
0
10
6.6816
20
9.5514
42
0.0580
0
VERTEX
8
0
10
6.5643
20
9.2907
0
SEQEND
8
0
0
POLYLINE
8
Layer 1
66
1
0
VERTEX
8
0
10
6.1967
20
9.3610
42
0.0237
0
VERTEX
8
0
10
6.2610
20
9.1163
42
0.0283
0
VERTEX
8
0
10
6.3502
20
8.8795
42
0.0103
0
VERTEX
8
0
10
6.4041
20
8.7651
42
0.0040
0
VERTEX
8
0
10
6.4619
20
8.6525
0
VERTEX
8
0
10
6.5205
20
8.5403
42
-0.0056
0
VERTEX
8
0
10
6.5776
20
8.4274
42
-0.0538
0
VERTEX
8
0
10
6.6518
20
8.2262
42
-0.0576
0
VERTEX
8
0
10
6.6799
20
8.0137
42
-0.0576
0
VERTEX
8
0
10
6.6588
20
7.8003
42
-0.0302
0
VERTEX
8
0
10
6.6299
20
7.6969
42
-0.0174
0
VERTEX
8
0
10
6.6107
20
7.6467
42
-0.0304
0
VERTEX
8
0
10
6.5875
20
7.5983
42
-0.0047
0
VERTEX
8
0
10
6.5815
20
7.5923
42
-0.0039
0
VERTEX
8
0
10
6.5746
20
7.5858
42
-0.0061
0
VERTEX
8
0
10
6.5592
20
7.5717
42
-0.0102
0
VERTEX
8
0
10
6.5278
20
7.5449
42
-0.0190
0
VERTEX
8
0
10
6.4620
20
7.4950
42
-0.0436
0
VERTEX
8
0
10
6.3194
20
7.4117
42
-0.0573
0
VERTEX
8
0
10
6.1638
20
7.3570
42
-0.0736
0
VERTEX
8
0
10
5.9998
20
7.3427
42
-0.0787
0
VERTEX
8
0
10
5.8391
20
7.3782
42
-0.0660
0
VERTEX
8
0
10
5.6959
20
7.4598
42
-0.0480
0
VERTEX
8
0
10
5.5761
20
7.5730
42
-0.0339
0
VERTEX
8
0
10
5.4772
20
7.7054
42
-0.0364
0
VERTEX
8
0
10
5.4542
20
7.8101
42
-0.0295
0
VERTEX
8
0
10
5.4453
20
7.9170
42
-0.0578
0
VERTEX
8
0
10
5.4650
20
8.1304
42
-0.0572
0
VERTEX
8
0
10
5.5329
20
8.3336
42
-0.0518
0
VERTEX
8
0
10
5.6440
20
8.5170
42
-0.0049
0
VERTEX
8
0
10
5.7216
20
8.6171
0
VERTEX
8
0
10
5.8006
20
8.7160
42
0.0062
0
VERTEX
8
0
10
5.8789
20
8.8155
42
0.0119
0
VERTEX
8
0
10
5.9539
20
8.9175
42
0.0283
0
VERTEX
8
0
10
6.0869
20
9.1329
42
0.0210
0
VERTEX
8
0
10
6.1967
20
9.3610
0
SEQEND
8
0
0
POLYLINE
8
Layer 1
66
1
0
VERTEX
8
0
10
4.8893
20
10.1849
42
-0.0041
0
VERTEX
8
0
10
4.7536
20
10.2857
42
-0.0103
0
VERTEX
8
0
10
4.6213
20
10.3910
42
-0.0282
0
VERTEX
8
0
10
4.3744
20
10.6219
42
-0.0238
0
VERTEX
8
0
10
4.1527
20
10.8772
42
-0.0211
0
VERTEX
8
0
10
4.1557
20
10.5392
42
-0.0283
0
VERTEX
8
0
10
4.1234
20
10.2028
42
-0.0119
0
VERTEX
8
0
10
4.0937
20
10.0364
42
-0.0062
0
VERTEX
8
0
10
4.0586
20
9.8710
0
VERTEX
8
0
10
4.0223
20
9.7059
42
0.0050
0
VERTEX
8
0
10
3.9884
20
9.5402
42
0.0518
0
VERTEX
8
0
10
3.9636
20
9.2557
42
0.0570
0
VERTEX
8
0
10
4.0020
20
8.9728
42
0.0580
0
VERTEX
8
0
10
4.1043
20
8.7062
42
0.0296
0
VERTEX
8
0
10
4.1780
20
8.5836
42
0.0165
0
VERTEX
8
0
10
4.2204
20
8.5261
42
0.0226
0
VERTEX
8
0
10
4.2672
20
8.4722
42
-0.0280
0
VERTEX
8
0
10
4.3851
20
8.4720
42
-0.0240
0
VERTEX
8
0
10
4.5024
20
8.4599
42
-0.0397
0
VERTEX
8
0
10
4.7319
20
8.4065
42
-0.0611
0
VERTEX
8
0
10
5.1610
20
8.2133
42
-0.0151
0
VERTEX
8
0
10
5.1788
20
8.2694
42
-0.0083
0
VERTEX
8
0
10
5.1988
20
8.3248
42
-0.0148
0
VERTEX
8
0
10
5.2438
20
8.4338
42
-0.0298
0
VERTEX
8
0
10
5.3526
20
8.6428
42
-0.0366
0
VERTEX
8
0
10
5.4886
20
8.8350
42
-0.0231
0
VERTEX
8
0
10
5.5683
20
8.9218
42
-0.0268
0
VERTEX
8
0
10
5.6564
20
9.0000
42
0.0290
0
VERTEX
8
0
10
5.6562
20
9.0713
42
0.0175
0
VERTEX
8
0
10
5.6501
20
9.1424
42
0.0306
0
VERTEX
8
0
10
5.6247
20
9.2828
42
0.0584
0
VERTEX
8
0
10
5.5256
20
9.5500
42
0.0581
0
VERTEX
8
0
10
5.3675
20
9.7870
42
0.0540
0
VERTEX
8
0
10
5.1610
20
9.9834
42
0.0058
0
VERTEX
8
0
10
5.0259
20
10.0851
0
VERTEX
8
0
10
4.8893
20
10.1849
0
SEQEND
8
0
0
POLYLINE
8
Layer 1
66
1
0
VERTEX
8
0
10
6.0000
20
11.7212
42
-0.4141
0
VERTEX
8
0
10
11.7212
20
6.0000
42
-0.4141
0
VERTEX
8
0
10
6.0000
20
0.2788
42
-0.4141
0
VERTEX
8
0
10
0.2788
20
6.0000
42
-0.4141
0
VERTEX
8
0
10
6.0000
20
11.7212
0
SEQEND
8
0
0
POLYLINE
8
Layer 1
66
1
0
VERTEX
8
0
10
6.0000
20
12.0000
42
0.4139
0
VERTEX
8
0
10
-0.0000
20
6.0000
42
0.4139
0
VERTEX
8
0
10
6.0000
20
-0.0000
42
0.4139
0
VERTEX
8
0
10
12.0000
20
6.0000
42
0.4139
0
VERTEX
8
0
10
6.0000
20
12.0000
0
SEQEND
8
0
0
ENDSEC
0
EOF
