  0
SECTION
  2
HEADER
  9
$ACADVER
  1
AC1009
  9
$INSBASE
 10
0.0
 20
0.0
 30
0.0
  9
$EXTMIN
 10
861.14308314955179
 20
450.91055413396037
 30
0.0
  9
$EXTMAX
 10
1051.143083149552
 20
596.7611597030882
 30
0.0
  9
$LIMMIN
 10
0.0
 20
0.0
  9
$LIMMAX
 10
420.0
 20
297.0
  9
$ORTHOMODE
 70
     0
  9
$REGENMODE
 70
     1
  9
$FILLMODE
 70
     1
  9
$QTEXTMODE
 70
     0
  9
$MIRRTEXT
 70
     0
  9
$DRAGMODE
 70
     2
  9
$LTSCALE
 40
1.0
  9
$OSMODE
 70
    39
  9
$ATTMODE
 70
     1
  9
$TEXTSIZE
 40
2.5
  9
$TRACEWID
 40
1.0
  9
$TEXTSTYLE
  7
STANDARD
  9
$CLAYER
  8
0
  9
$CELTYPE
  6
BYLAYER
  9
$CECOLOR
 62
   256
  9
$DIMSCALE
 40
1.0
  9
$DIMASZ
 40
2.5
  9
$DIMEXO
 40
0.625
  9
$DIMDLI
 40
3.75
  9
$DIMRND
 40
0.0
  9
$DIMDLE
 40
0.0
  9
$DIMEXE
 40
1.25
  9
$DIMTP
 40
0.0
  9
$DIMTM
 40
0.0
  9
$DIMTXT
 40
2.5
  9
$DIMCEN
 40
2.5
  9
$DIMTSZ
 40
0.0
  9
$DIMTOL
 70
     0
  9
$DIMLIM
 70
     0
  9
$DIMTIH
 70
     0
  9
$DIMTOH
 70
     0
  9
$DIMSE1
 70
     0
  9
$DIMSE2
 70
     0
  9
$DIMTAD
 70
     1
  9
$DIMZIN
 70
     8
  9
$DIMBLK
  1

  9
$DIMASO
 70
     1
  9
$DIMSHO
 70
     1
  9
$DIMPOST
  1

  9
$DIMAPOST
  1

  9
$DIMALT
 70
     0
  9
$DIMALTD
 70
     3
  9
$DIMALTF
 40
0.03937007874016
  9
$DIMLFAC
 40
1.0
  9
$DIMTOFL
 70
     1
  9
$DIMTVP
 40
0.0
  9
$DIMTIX
 70
     0
  9
$DIMSOXD
 70
     0
  9
$DIMSAH
 70
     0
  9
$DIMBLK1
  1

  9
$DIMBLK2
  1

  9
$DIMSTYLE
  2
ISO-25
  9
$DIMCLRD
 70
     0
  9
$DIMCLRE
 70
     0
  9
$DIMCLRT
 70
     0
  9
$DIMTFAC
 40
1.0
  9
$DIMGAP
 40
0.625
  9
$LUNITS
 70
     2
  9
$LUPREC
 70
     4
  9
$SKETCHINC
 40
1.0
  9
$FILLETRAD
 40
15.0
  9
$AUNITS
 70
     0
  9
$AUPREC
 70
     0
  9
$MENU
  1
.
  9
$ELEVATION
 40
0.0
  9
$PELEVATION
 40
0.0
  9
$THICKNESS
 40
0.0
  9
$LIMCHECK
 70
     0
  9
$BLIPMODE
 70
     0
  9
$CHAMFERA
 40
0.0
  9
$CHAMFERB
 40
0.0
  9
$SKPOLY
 70
     0
  9
$TDCREATE
 40
2456386.7918914468
  9
$TDUPDATE
 40
2456389.4830759838
  9
$TDINDWG
 40
0.0256987847
  9
$TDUSRTIMER
 40
0.0256980671
  9
$USRTIMER
 70
     1
  9
$ANGBASE
 50
0.0
  9
$ANGDIR
 70
     0
  9
$PDMODE
 70
     0
  9
$PDSIZE
 40
0.0
  9
$PLINEWID
 40
0.0
  9
$COORDS
 70
     1
  9
$SPLFRAME
 70
     0
  9
$SPLINETYPE
 70
     6
  9
$SPLINESEGS
 70
     8
  9
$ATTDIA
 70
     0
  9
$ATTREQ
 70
     1
  9
$HANDLING
 70
     1
  9
$HANDSEED
  5
38E
  9
$SURFTAB1
 70
     6
  9
$SURFTAB2
 70
     6
  9
$SURFTYPE
 70
     6
  9
$SURFU
 70
     6
  9
$SURFV
 70
     6
  9
$UCSNAME
  2

  9
$UCSORG
 10
0.0
 20
0.0
 30
0.0
  9
$UCSXDIR
 10
1.0
 20
0.0
 30
0.0
  9
$UCSYDIR
 10
0.0
 20
1.0
 30
0.0
  9
$PUCSNAME
  2

  9
$PUCSORG
 10
0.0
 20
0.0
 30
0.0
  9
$PUCSXDIR
 10
1.0
 20
0.0
 30
0.0
  9
$PUCSYDIR
 10
0.0
 20
1.0
 30
0.0
  9
$USERI1
 70
     0
  9
$USERI2
 70
     0
  9
$USERI3
 70
     0
  9
$USERI4
 70
     0
  9
$USERI5
 70
     0
  9
$USERR1
 40
0.0
  9
$USERR2
 40
0.0
  9
$USERR3
 40
0.0
  9
$USERR4
 40
0.0
  9
$USERR5
 40
0.0
  9
$WORLDVIEW
 70
     1
  9
$SHADEDGE
 70
     3
  9
$SHADEDIF
 70
    70
  9
$TILEMODE
 70
     1
  9
$MAXACTVP
 70
    48
  9
$PLIMCHECK
 70
     0
  9
$PEXTMIN
 10
0.0
 20
0.0
 30
0.0
  9
$PEXTMAX
 10
0.0
 20
0.0
 30
0.0
  9
$PLIMMIN
 10
0.0
 20
0.0
  9
$PLIMMAX
 10
12.0
 20
9.0
  9
$UNITMODE
 70
     0
  9
$VISRETAIN
 70
     1
  9
$PLINEGEN
 70
     0
  9
$PSLTSCALE
 70
     1
  0
ENDSEC
  0
SECTION
  2
TABLES
  0
TABLE
  2
VPORT
 70
     1
  0
VPORT
  2
*ACTIVE
 70
     0
 10
0.0
 20
0.0
 11
1.0
 21
1.0
 12
971.63523557775545
 22
532.51776907663816
 13
0.0
 23
0.0
 14
10.0
 24
10.0
 15
10.0
 25
10.0
 16
0.0
 26
0.0
 36
1.0
 17
0.0
 27
0.0
 37
0.0
 40
239.04524569640941
 41
1.072202166064981
 42
50.0
 43
0.0
 44
0.0
 50
0.0
 51
0.0
 71
     0
 72
  1000
 73
     1
 74
     3
 75
     0
 76
     0
 77
     0
 78
     0
  0
ENDTAB
  0
TABLE
  2
LTYPE
 70
     2
  0
LTYPE
  2
CONTINUOUS
 70
     0
  3
Solid line
 72
    65
 73
     0
 40
0.0
  0
ENDTAB
  0
TABLE
  2
LAYER
 70
     1
  0
LAYER
  2
0
 70
     0
 62
     7
  6
CONTINUOUS
  0
ENDTAB
  0
TABLE
  2
STYLE
 70
     2
  0
STYLE
  2
STANDARD
 70
     0
 40
0.0
 41
1.0
 50
0.0
 71
     0
 42
2.5
  3
txt
  4

  0
STYLE
  2
ANNOTATIVE
 70
     0
 40
0.0
 41
1.0
 50
0.0
 71
     0
 42
2.5
  3
txt
  4

  0
ENDTAB
  0
TABLE
  2
VIEW
 70
     0
  0
ENDTAB
  0
TABLE
  2
UCS
 70
     0
  0
ENDTAB
  0
TABLE
  2
APPID
 70
     8
  0
APPID
  2
ACAD
 70
     0
  0
APPID
  2
ACAD_PSEXT
 70
     0
  0
APPID
  2
ACADANNOPO
 70
     0
  0
APPID
  2
ACADANNOTATIVE
 70
     0
  0
APPID
  2
ACAD_DSTYLE_DIMJAG
 70
     0
  0
APPID
  2
ACAD_DSTYLE_DIMTALN
 70
     0
  0
APPID
  2
ACAD_MLEADERVER
 70
     0
  0
APPID
  2
ACAD_EXEMPT_FROM_CAD_STANDARDS
 70
     0
  0
ENDTAB
  0
TABLE
  2
DIMSTYLE
 70
     4
  0
DIMSTYLE
  2
STANDARD
 70
     0
  3

  4

  5

  6

  7

 40
1.0
 41
0.18
 42
0.0625
 43
0.38
 44
0.18
 45
0.0
 46
0.0
 47
0.0
 48
0.0
140
0.18
141
0.09
142
0.0
143
25.399999999999999
144
1.0
145
0.0
146
1.0
147
0.09
 71
     0
 72
     0
 73
     1
 74
     1
 75
     0
 76
     0
 77
     0
 78
     0
170
     0
171
     2
172
     0
173
     0
174
     0
175
     0
176
     0
177
     0
178
     0
  0
DIMSTYLE
  2
ANNOTATIVE
 70
     0
  3

  4

  5

  6

  7

 40
0.0
 41
2.5
 42
0.625
 43
3.75
 44
1.25
 45
0.0
 46
0.0
 47
0.0
 48
0.0
140
2.5
141
2.5
142
0.0
143
0.03937007874016
144
1.0
145
0.0
146
1.0
147
0.625
 71
     0
 72
     0
 73
     0
 74
     0
 75
     0
 76
     0
 77
     1
 78
     8
170
     0
171
     3
172
     1
173
     0
174
     0
175
     0
176
     0
177
     0
178
     0
  0
DIMSTYLE
  2
ISO-25
 70
     0
  3

  4

  5

  6

  7

 40
1.0
 41
2.5
 42
0.625
 43
3.75
 44
1.25
 45
0.0
 46
0.0
 47
0.0
 48
0.0
140
2.5
141
2.5
142
0.0
143
0.03937007874016
144
1.0
145
0.0
146
1.0
147
0.625
 71
     0
 72
     0
 73
     0
 74
     0
 75
     0
 76
     0
 77
     1
 78
     8
170
     0
171
     3
172
     1
173
     0
174
     0
175
     0
176
     0
177
     0
178
     0
  0
ENDTAB
  0
ENDSEC
  0
SECTION
  2
BLOCKS
  0
BLOCK
  8
0
  2
$MODEL_SPACE
 70
     0
 10
0.0
 20
0.0
 30
0.0
  3
$MODEL_SPACE
  1

  0
ENDBLK
  5
21
  8
0
  0
BLOCK
 67
     1
  8
0
  2
$PAPER_SPACE
 70
     0
 10
0.0
 20
0.0
 30
0.0
  3
$PAPER_SPACE
  1

  0
ENDBLK
  5
D5
 67
     1
  8
0
  0
ENDSEC
  0
SECTION
  2
ENTITIES
  0
LINE
  5
1E9
  8
0
 10
861.14308314955179
 20
450.91055413396037
 30
0.0
 11
894.77005051955246
 21
450.91055413396049
 31
0.0
  0
LINE
  5
1EA
  8
0
 10
956.14308314955167
 20
451.91055413396037
 30
0.0
 11
956.1430831495519
 21
595.7611597030882
 31
0.0
  0
LINE
  5
1EE
  8
0
 10
941.73257848482911
 20
578.82692358513361
 30
0.0
 11
951.95573632855189
 21
594.49358097849438
 31
0.0
  0
LINE
  5
1F1
  8
0
 10
939.29461913407874
 20
472.32358169895338
 30
0.0
 11
939.29461913407874
 21
481.8683535374135
 31
0.0
  0
ARC
  5
1F8
  8
0
 10
884.23032477281117
 20
487.70108076941142
 30
0.0
 40
17.008950717865542
 50
153.22687188146881
 51
242.912904583874
  0
ARC
  5
1FE
  8
0
 10
874.74831192137253
 20
491.94369945561618
 30
0.0
 40
6.6499085389403394
 50
17.160017631419251
 51
149.05770095120741
  0
ARC
  5
202
  8
0
 10
866.66035825397341
 20
473.39456911595562
 30
0.0
 40
9.8606085455156425
 50
285.45894594540471
 51
355.13174814337037
  0
ARC
  5
203
  8
0
 10
876.36728276595875
 20
450.40264531845969
 30
0.0
 40
15.23266967163233
 50
117.6907191617522
 51
178.0892104165433
  0
ARC
  5
208
  8
0
 10
956.14308321813564
 20
591.7611597030882
 30
0.0
 40
5.0
 50
33.126150897625998
 51
146.8738491023739
  0
ARC
  5
209
  8
0
 10
879.54585090314561
 20
450.40264531845969
 30
0.0
 40
15.23266967163233
 50
1.9107895834568549
 51
42.643560359207221
  0
ARC
  5
20A
  8
0
 10
929.49234455924056
 20
473.39456911595562
 30
0.0
 40
9.8606085455156425
 50
285.45894594540488
 51
353.76464943726438
  0
ARC
  5
20B
  8
0
 10
939.19926907122601
 20
450.40264531845969
 30
0.0
 40
15.23266967163233
 50
117.6907191617521
 51
178.0892104165433
  0
ARC
  5
20C
  8
0
 10
894.52766885089216
 20
528.92410324693594
 30
0.0
 40
64.948621373994726
 50
269.71050937011802
 51
313.5721243467778
  0
LINE
  5
20D
  8
0
 10
939.2946191340792
 20
524.07069919042272
 30
0.0
 11
939.29461913407954
 21
570.62965972903044
 31
0.0
  0
ARC
  5
20E
  8
0
 10
897.90492644837525
 20
456.59513982880662
 30
0.0
 40
8.2590419546290565
 50
116.65705677612701
 51
150.02295315498461
  0
LINE
  5
211
  8
0
 10
1051.143083149552
 20
450.91055413396037
 30
0.0
 11
1017.516115779551
 21
450.91055413396049
 31
0.0
  0
ARC
  5
219
  8
0
 10
1028.0558415262919
 20
487.70108076941142
 30
0.0
 40
17.008950717865542
 50
297.0870954161303
 51
26.773128118530419
  0
ARC
  5
21A
  8
0
 10
1037.537854377731
 20
491.94369945561618
 30
0.0
 40
6.6499085389403394
 50
30.942299048790861
 51
162.83998236858241
  0
ARC
  5
21C
  8
0
 10
1045.62580804513
 20
473.39456911595562
 30
0.0
 40
9.8606085455156425
 50
184.86825185662971
 51
254.5410540545947
  0
ARC
  5
21D
  8
0
 10
1035.918883533144
 20
450.40264531845969
 30
0.0
 40
15.23266967163233
 50
1.9107895834568549
 51
62.309280838252533
  0
ARC
  5
21E
  8
0
 10
1032.7403153959581
 20
450.40264531845969
 30
0.0
 40
15.23266967163233
 50
137.35643964078909
 51
178.0892104165429
  0
ARC
  5
221
  8
0
 10
1014.381239850728
 20
456.59513982880662
 30
0.0
 40
8.2590419546290565
 50
29.97704684501208
 51
63.342943223870577
  0
ARC
  5
22F
  8
0
 10
894.49713612770904
 20
529.05712053935031
 30
0.0
 40
45.074148706049492
 50
259.8545705258295
 51
353.64853490076803
  0
ARC
  5
231
  8
0
 10
954.29461913407965
 20
570.62965972903032
 30
0.0
 40
15.0
 50
146.8738489660706
 51
179.9999999999996
  0
LINE
  5
232
  8
0
 10
970.55358781427447
 20
578.82692358513361
 30
0.0
 11
960.33042997055156
 21
594.49358097849438
 31
0.0
  0
LINE
  5
233
  8
0
 10
972.99154716502437
 20
524.07069919042272
 30
0.0
 11
972.9915471650238
 21
570.62965972903044
 31
0.0
  0
ARC
  5
234
  8
0
 10
957.9915471650238
 20
570.62965972903032
 30
0.0
 40
15.0
 50
0.0000000000003887
 51
33.126151033925979
  0
ARC
  5
235
  8
0
 10
1017.789030171394
 20
529.05712053935031
 30
0.0
 40
45.074148706049492
 50
186.35146509923149
 51
280.1454294741759
  0
ARC
  5
2A5
  8
0
 10
871.20463436578154
 20
490.2810932336065
 30
0.0
 40
10.540374244917359
 50
312.61199152502462
 51
20.113328326467261
  0
LINE
  5
2A7
  8
0
 10
878.34078408616608
 20
482.52384782101512
 30
0.0
 11
881.08073955170448
 21
482.52384782101501
 31
0.0
  0
LINE
  5
2A8
  8
0
 10
886.55744754962723
 20
484.6877591865188
 30
0.0
 11
881.08073955170448
 21
482.52384782101501
 31
0.0
  0
ARC
  5
2A9
  8
0
 10
1041.0815319333219
 20
490.2810932336065
 30
0.0
 40
10.540374244917359
 50
159.88667167353441
 51
227.38800847497831
  0
LINE
  5
2AA
  8
0
 10
1033.9453822129369
 20
482.52384782101512
 30
0.0
 11
1031.2054267473991
 21
482.52384782101501
 31
0.0
  0
LINE
  5
2AB
  8
0
 10
1025.728718749476
 20
484.6877591865188
 30
0.0
 11
1031.2054267473991
 21
482.52384782101501
 31
0.0
  0
ARC
  5
30E
  8
0
 10
1017.758497448211
 20
528.92410324693583
 30
0.0
 40
64.948621373994726
 50
226.42787565322601
 51
270.28949062987601
  0
LINE
  5
30F
  8
0
 10
972.99154716502471
 20
472.32358169895338
 30
0.0
 11
972.99154716502471
 21
481.8683535374135
 31
0.0
  0
ARC
  5
310
  8
0
 10
982.79382173986301
 20
473.39456911595562
 30
0.0
 40
9.8606085455156425
 50
186.23535056273511
 51
254.5410540545947
  0
ARC
  5
311
  8
0
 10
973.08689722787744
 20
450.40264531845969
 30
0.0
 40
15.23266967163233
 50
1.910789583456765
 51
62.309280838252519
  0
LINE
  5
318
  8
0
 10
923.97506945481916
 20
450.91055413396037
 30
0.0
 11
988.31109684428418
 21
450.91055413396049
 31
0.0
  0
ENDSEC
  0
EOF
