999
"DXF R12 Output" (www.mydxf.blogspot.com)
 0 
SECTION
 2 
HEADER
 9 
$ACADVER
 1 
AC1009
 9 
$EXTMIN
 10 
 0 
 20 
 0 
 9 
$EXTMAX
 10 
 8.5 
 20 
 11 
 0 
ENDSEC
 0 
SECTION
 2 
ENTITIES
0
LINE
8
Layer 1
10
71.068057
20
110.362184
11
64.426153
21
105.521476
0
LINE
8
Layer 1
10
64.426153
20
105.521476
11
58.433298
21
101.415337
0
LINE
8
Layer 1
10
58.433298
20
101.415337
11
59.406726
21
100.236205
0
LINE
8
Layer 1
10
59.406726
20
100.236205
11
59.547371
21
99.841837
0
LINE
8
Layer 1
10
59.547371
20
99.841837
11
59.496731
21
99.560991
0
LINE
8
Layer 1
10
59.496731
20
99.560991
11
58.939881
21
99.290033
0
LINE
8
Layer 1
10
58.939881
20
99.290033
11
57.972745
21
99.323668
0
LINE
8
Layer 1
10
57.972745
20
99.323668
11
55.753893
21
99.906061
0
LINE
8
Layer 1
10
55.753893
20
99.906061
11
54.975315
21
100.255493
0
LINE
8
Layer 1
10
54.975315
20
100.255493
11
54.732727
21
100.510865
0
LINE
8
Layer 1
10
54.732727
20
100.510865
11
53.807092
21
100.884555
0
LINE
8
Layer 1
10
53.807092
20
100.884555
11
52.797320
21
100.959337
0
LINE
8
Layer 1
10
52.797320
20
100.959337
11
51.765055
21
100.770130
0
LINE
8
Layer 1
10
51.765055
20
100.770130
11
50.771943
21
100.351853
0
LINE
8
Layer 1
10
50.771943
20
100.351853
11
49.879627
21
99.739425
0
LINE
8
Layer 1
10
49.879627
20
99.739425
11
49.149752
21
98.967766
0
LINE
8
Layer 1
10
49.149752
20
98.967766
11
48.643962
21
98.071794
0
LINE
8
Layer 1
10
48.643962
20
98.071794
11
48.423901
21
97.086429
0
LINE
8
Layer 1
10
48.423901
20
97.086429
11
47.929964
21
97.681922
0
LINE
8
Layer 1
10
47.929964
20
97.681922
11
47.673862
21
98.318798
0
LINE
8
Layer 1
10
47.673862
20
98.318798
11
47.615531
21
98.976408
0
LINE
8
Layer 1
10
47.615531
20
98.976408
11
47.714907
21
99.634104
0
LINE
8
Layer 1
10
47.714907
20
99.634104
11
48.226515
21
100.867159
0
LINE
8
Layer 1
10
48.226515
20
100.867159
11
48.888169
21
101.852770
0
LINE
8
Layer 1
10
48.888169
20
101.852770
11
49.379351
21
102.425749
0
LINE
8
Layer 1
10
49.379351
20
102.425749
11
49.460853
21
102.505878
0
LINE
8
Layer 1
10
49.460853
20
102.505878
11
49.379542
21
102.420903
0
LINE
8
Layer 1
10
49.379542
20
102.420903
11
46.624878
21
100.016976
0
LINE
8
Layer 1
10
46.624878
20
100.016976
11
44.887249
21
100.044637
0
LINE
8
Layer 1
10
44.887249
20
100.044637
11
42.758853
21
99.709289
0
LINE
8
Layer 1
10
42.758853
20
99.709289
11
40.485723
21
99.068714
0
LINE
8
Layer 1
10
40.485723
20
99.068714
11
38.313892
21
98.180692
0
LINE
8
Layer 1
10
38.313892
20
98.180692
11
36.489395
21
97.103004
0
LINE
8
Layer 1
10
36.489395
20
97.103004
11
35.258266
21
95.893431
0
LINE
8
Layer 1
10
35.258266
20
95.893431
11
34.942099
21
95.257244
0
LINE
8
Layer 1
10
34.942099
20
95.257244
11
34.866537
21
94.609754
0
LINE
8
Layer 1
10
34.866537
20
94.609754
11
35.062333
21
93.958183
0
LINE
8
Layer 1
10
35.062333
20
93.958183
11
35.560243
21
93.309753
0
LINE
8
Layer 1
10
35.560243
20
93.309753
11
33.015005
21
92.477361
0
LINE
8
Layer 1
10
33.015005
20
92.477361
11
30.129398
21
91.831492
0
LINE
8
Layer 1
10
30.129398
20
91.831492
11
27.103650
21
91.396617
0
LINE
8
Layer 1
10
27.103650
20
91.396617
11
24.137988
21
91.197208
0
LINE
8
Layer 1
10
24.137988
20
91.197208
11
21.432639
21
91.257736
0
LINE
8
Layer 1
10
21.432639
20
91.257736
11
19.187833
21
91.602670
0
LINE
8
Layer 1
10
19.187833
20
91.602670
11
18.300704
21
91.889437
0
LINE
8
Layer 1
10
18.300704
20
91.889437
11
17.603795
21
92.256482
0
LINE
8
Layer 1
10
17.603795
20
92.256482
11
17.122136
21
92.706865
0
LINE
8
Layer 1
10
17.122136
20
92.706865
11
16.880754
21
93.243643
0
LINE
8
Layer 1
10
16.880754
20
93.243643
11
17.911795
21
92.960066
0
LINE
8
Layer 1
10
17.911795
20
92.960066
11
18.414865
21
92.942819
0
LINE
8
Layer 1
10
18.414865
20
92.942819
11
18.464194
21
93.142899
0
LINE
8
Layer 1
10
18.464194
20
93.142899
11
18.134011
21
93.511305
0
LINE
8
Layer 1
10
18.134011
20
93.511305
11
16.632028
21
94.557087
0
LINE
8
Layer 1
10
16.632028
20
94.557087
11
14.502747
21
95.688149
0
LINE
8
Layer 1
10
14.502747
20
95.688149
11
12.340003
21
96.512473
0
LINE
8
Layer 1
10
12.340003
20
96.512473
11
11.431655
21
96.687104
0
LINE
8
Layer 1
10
11.431655
20
96.687104
11
10.737628
21
96.638044
0
LINE
8
Layer 1
10
10.737628
20
96.638044
11
10.332153
21
96.316292
0
LINE
8
Layer 1
10
10.332153
20
96.316292
11
10.289458
21
95.672846
0
LINE
8
Layer 1
10
10.289458
20
95.672846
11
10.683772
21
94.658703
0
LINE
8
Layer 1
10
10.683772
20
94.658703
11
11.589324
21
93.224863
0
LINE
8
Layer 1
10
11.589324
20
93.224863
11
12.408700
21
91.113008
0
LINE
8
Layer 1
10
12.408700
20
91.113008
11
13.522906
21
89.438817
0
LINE
8
Layer 1
10
13.522906
20
89.438817
11
14.891747
21
88.144653
0
LINE
8
Layer 1
10
14.891747
20
88.144653
11
16.475031
21
87.172880
0
LINE
8
Layer 1
10
16.475031
20
87.172880
11
18.232566
21
86.465861
0
LINE
8
Layer 1
10
18.232566
20
86.465861
11
20.124157
21
85.965961
0
LINE
8
Layer 1
10
20.124157
20
85.965961
11
24.148740
21
85.356973
0
LINE
8
Layer 1
10
24.148740
20
85.356973
11
28.227234
21
84.884825
0
LINE
8
Layer 1
10
28.227234
20
84.884825
11
30.186216
21
84.555976
0
LINE
8
Layer 1
10
30.186216
20
84.555976
11
32.038097
21
84.088428
0
LINE
8
Layer 1
10
32.038097
20
84.088428
11
33.742685
21
83.424546
0
LINE
8
Layer 1
10
33.742685
20
83.424546
11
35.259785
21
82.506693
0
LINE
8
Layer 1
10
35.259785
20
82.506693
11
36.549206
21
81.277233
0
LINE
8
Layer 1
10
36.549206
20
81.277233
11
37.570754
21
79.678530
0
LINE
8
Layer 1
10
37.570754
20
79.678530
11
39.529016
21
74.941223
0
LINE
8
Layer 1
10
39.529016
20
74.941223
11
41.766433
21
70.355577
0
LINE
8
Layer 1
10
41.766433
20
70.355577
11
44.266881
21
65.919903
0
LINE
8
Layer 1
10
44.266881
20
65.919903
11
47.014236
21
61.632512
0
LINE
8
Layer 1
10
47.014236
20
61.632512
11
49.992374
21
57.491716
0
LINE
8
Layer 1
10
49.992374
20
57.491716
11
53.185171
21
53.495825
0
LINE
8
Layer 1
10
53.185171
20
53.495825
11
56.576502
21
49.643151
0
LINE
8
Layer 1
10
56.576502
20
49.643151
11
60.150243
21
45.932005
0
LINE
8
Layer 1
10
60.150243
20
45.932005
11
63.890270
21
42.360698
0
LINE
8
Layer 1
10
63.890270
20
42.360698
11
67.780458
21
38.927541
0
LINE
8
Layer 1
10
67.780458
20
38.927541
11
71.804684
21
35.630847
0
LINE
8
Layer 1
10
71.804684
20
35.630847
11
75.946823
21
32.468925
0
LINE
8
Layer 1
10
75.946823
20
32.468925
11
80.190752
21
29.440087
0
LINE
8
Layer 1
10
80.190752
20
29.440087
11
84.520345
21
26.542645
0
LINE
8
Layer 1
10
84.520345
20
26.542645
11
93.372028
21
21.135190
0
LINE
8
Layer 1
10
93.372028
20
21.135190
11
100.275472
21
18.453514
0
LINE
8
Layer 1
10
100.275472
20
18.453514
11
107.252099
21
15.950348
0
LINE
8
Layer 1
10
107.252099
20
15.950348
11
114.300717
21
13.648034
0
LINE
8
Layer 1
10
114.300717
20
13.648034
11
121.420138
21
11.568911
0
LINE
8
Layer 1
10
121.420138
20
11.568911
11
128.609170
21
9.735321
0
LINE
8
Layer 1
10
128.609170
20
9.735321
11
135.866625
21
8.169603
0
LINE
8
Layer 1
10
135.866625
20
8.169603
11
143.191310
21
6.894099
0
LINE
8
Layer 1
10
143.191310
20
6.894099
11
150.582037
21
5.931148
0
LINE
8
Layer 1
10
150.582037
20
5.931148
11
157.955123
21
4.834797
0
LINE
8
Layer 1
10
157.955123
20
4.834797
11
165.358337
21
4.017850
0
LINE
8
Layer 1
10
165.358337
20
4.017850
11
172.784079
21
3.436435
0
LINE
8
Layer 1
10
172.784079
20
3.436435
11
180.224750
21
3.046675
0
LINE
8
Layer 1
10
180.224750
20
3.046675
11
195.120477
21
2.666625
0
LINE
8
Layer 1
10
195.120477
20
2.666625
11
209.984721
21
2.526705
0
LINE
8
Layer 1
10
209.984721
20
2.526705
11
214.266441
21
3.056383
0
LINE
8
Layer 1
10
214.266441
20
3.056383
11
218.503995
21
3.835011
0
LINE
8
Layer 1
10
218.503995
20
3.835011
11
222.692646
21
4.837712
0
LINE
8
Layer 1
10
222.692646
20
4.837712
11
226.827657
21
6.039612
0
LINE
8
Layer 1
10
226.827657
20
6.039612
11
230.904294
21
7.415835
0
LINE
8
Layer 1
10
230.904294
20
7.415835
11
234.917819
21
8.941505
0
LINE
8
Layer 1
10
234.917819
20
8.941505
11
242.736587
21
12.341685
0
LINE
8
Layer 1
10
242.736587
20
12.341685
11
242.175182
21
11.607870
0
LINE
8
Layer 1
10
242.175182
20
11.607870
11
241.360133
21
10.908754
0
LINE
8
Layer 1
10
241.360133
20
10.908754
11
239.141718
21
9.612984
0
LINE
8
Layer 1
10
239.141718
20
9.612984
11
236.426568
21
8.451101
0
LINE
8
Layer 1
10
236.426568
20
8.451101
11
233.559911
21
7.419832
0
LINE
8
Layer 1
10
233.559911
20
7.419832
11
228.752991
21
5.736042
0
LINE
8
Layer 1
10
228.752991
20
5.736042
11
227.503182
21
5.076974
0
LINE
8
Layer 1
10
227.503182
20
5.076974
11
227.317728
21
4.791715
0
LINE
8
Layer 1
10
227.317728
20
4.791715
11
227.482778
21
4.535427
0
LINE
8
Layer 1
10
227.482778
20
4.535427
11
234.486597
21
5.859719
0
LINE
8
Layer 1
10
234.486597
20
5.859719
11
241.485875
21
7.437822
0
LINE
8
Layer 1
10
241.485875
20
7.437822
11
248.409205
21
9.337962
0
LINE
8
Layer 1
10
248.409205
20
9.337962
11
255.185179
21
11.628364
0
LINE
8
Layer 1
10
255.185179
20
11.628364
11
261.742388
21
14.377256
0
LINE
8
Layer 1
10
261.742388
20
14.377256
11
264.916642
21
15.944956
0
LINE
8
Layer 1
10
264.916642
20
15.944956
11
268.009426
21
17.652862
0
LINE
8
Layer 1
10
268.009426
20
17.652862
11
271.011815
21
19.509503
0
LINE
8
Layer 1
10
271.011815
20
19.509503
11
273.914884
21
21.523408
0
LINE
8
Layer 1
10
273.914884
20
21.523408
11
276.709705
21
23.703105
0
LINE
8
Layer 1
10
276.709705
20
23.703105
11
279.387354
21
26.057121
0
LINE
8
Layer 1
10
279.387354
20
26.057121
11
282.098597
21
28.935674
0
LINE
8
Layer 1
10
282.098597
20
28.935674
11
285.155427
21
31.712752
0
LINE
8
Layer 1
10
285.155427
20
31.712752
11
291.551025
21
37.222419
0
LINE
8
Layer 1
10
291.551025
20
37.222419
11
294.512382
21
40.084976
0
LINE
8
Layer 1
10
294.512382
20
40.084976
11
297.064506
21
43.105995
0
LINE
8
Layer 1
10
297.064506
20
43.105995
11
298.128135
21
44.696236
0
LINE
8
Layer 1
10
298.128135
20
44.696236
11
299.018691
21
46.350461
0
LINE
8
Layer 1
10
299.018691
20
46.350461
11
299.712586
21
48.076793
0
LINE
8
Layer 1
10
299.712586
20
48.076793
11
300.186231
21
49.883356
0
LINE
8
Layer 1
10
300.186231
20
49.883356
11
299.672065
21
49.352662
0
LINE
8
Layer 1
10
299.672065
20
49.352662
11
298.891642
21
48.807017
0
LINE
8
Layer 1
10
298.891642
20
48.807017
11
296.736177
21
47.691389
0
LINE
8
Layer 1
10
296.736177
20
47.691389
11
291.475862
21
45.506374
0
LINE
8
Layer 1
10
291.475862
20
45.506374
11
289.187632
21
44.519044
0
LINE
8
Layer 1
10
289.187632
20
44.519044
11
287.671766
21
43.656537
0
LINE
8
Layer 1
10
287.671766
20
43.656537
11
287.331067
21
43.284913
0
LINE
8
Layer 1
10
287.331067
20
43.284913
11
287.336575
21
42.959880
0
LINE
8
Layer 1
10
287.336575
20
42.959880
11
287.739330
21
42.686566
0
LINE
8
Layer 1
10
287.739330
20
42.686566
11
288.590369
21
42.470101
0
LINE
8
Layer 1
10
288.590369
20
42.470101
11
288.719775
21
43.367907
0
LINE
8
Layer 1
10
288.719775
20
43.367907
11
289.022449
21
43.997018
0
LINE
8
Layer 1
10
289.022449
20
43.997018
11
289.422688
21
44.364155
0
LINE
8
Layer 1
10
289.422688
20
44.364155
11
289.844787
21
44.476035
0
LINE
8
Layer 1
10
289.844787
20
44.476035
11
290.213042
21
44.339378
0
LINE
8
Layer 1
10
290.213042
20
44.339378
11
290.451749
21
43.960904
0
LINE
8
Layer 1
10
290.451749
20
43.960904
11
290.485203
21
43.347331
0
LINE
8
Layer 1
10
290.485203
20
43.347331
11
290.237700
21
42.505379
0
LINE
8
Layer 1
10
290.237700
20
42.505379
11
290.837993
21
42.680630
0
LINE
8
Layer 1
10
290.837993
20
42.680630
11
291.192853
21
42.665641
0
LINE
8
Layer 1
10
291.192853
20
42.665641
11
291.332984
21
42.494242
0
LINE
8
Layer 1
10
291.332984
20
42.494242
11
291.289092
21
42.200259
0
LINE
8
Layer 1
10
291.289092
20
42.200259
11
290.772060
21
41.379858
0
LINE
8
Layer 1
10
290.772060
20
41.379858
11
289.887399
21
40.475065
0
LINE
8
Layer 1
10
289.887399
20
40.475065
11
288.880752
21
39.756507
0
LINE
8
Layer 1
10
288.880752
20
39.756507
11
287.997762
21
39.494810
0
LINE
8
Layer 1
10
287.997762
20
39.494810
11
287.679401
21
39.619855
0
LINE
8
Layer 1
10
287.679401
20
39.619855
11
287.484070
21
39.960600
0
LINE
8
Layer 1
10
287.484070
20
39.960600
11
287.442474
21
40.550874
0
LINE
8
Layer 1
10
287.442474
20
40.550874
11
287.585319
21
41.424504
0
LINE
8
Layer 1
10
287.585319
20
41.424504
11
283.445158
21
37.500693
0
LINE
8
Layer 1
10
283.445158
20
37.500693
11
279.435458
21
33.345680
0
LINE
8
Layer 1
10
279.435458
20
33.345680
11
275.454988
21
29.114073
0
LINE
8
Layer 1
10
275.454988
20
29.114073
11
271.402515
21
24.960482
0
LINE
8
Layer 1
10
271.402515
20
24.960482
11
267.176808
21
21.039515
0
LINE
8
Layer 1
10
267.176808
20
21.039515
11
262.676635
21
17.505780
0
LINE
8
Layer 1
10
262.676635
20
17.505780
11
260.291988
21
15.932440
0
LINE
8
Layer 1
10
260.291988
20
15.932440
11
257.800763
21
14.513887
0
LINE
8
Layer 1
10
257.800763
20
14.513887
11
255.190305
21
13.269446
0
LINE
8
Layer 1
10
255.190305
20
13.269446
11
252.447961
21
12.218444
0
LINE
8
Layer 1
10
252.447961
20
12.218444
11
256.481759
21
14.739293
0
LINE
8
Layer 1
10
256.481759
20
14.739293
11
260.421110
21
17.414384
0
LINE
8
Layer 1
10
260.421110
20
17.414384
11
264.256825
21
20.239591
0
LINE
8
Layer 1
10
264.256825
20
20.239591
11
267.979717
21
23.210784
0
LINE
8
Layer 1
10
267.979717
20
23.210784
11
271.580597
21
26.323837
0
LINE
8
Layer 1
10
271.580597
20
26.323837
11
275.050276
21
29.574621
0
LINE
8
Layer 1
10
275.050276
20
29.574621
11
278.379566
21
32.959008
0
LINE
8
Layer 1
10
278.379566
20
32.959008
11
281.559279
21
36.472870
0
LINE
8
Layer 1
10
281.559279
20
36.472870
11
282.938559
21
37.905263
0
LINE
8
Layer 1
10
282.938559
20
37.905263
11
284.082518
21
39.373949
0
LINE
8
Layer 1
10
284.082518
20
39.373949
11
284.909147
21
40.701039
0
LINE
8
Layer 1
10
284.909147
20
40.701039
11
285.336438
21
41.708643
0
LINE
8
Layer 1
10
285.336438
20
41.708643
11
285.282380
21
42.218873
0
LINE
8
Layer 1
10
285.282380
20
42.218873
11
285.049217
21
42.231882
0
LINE
8
Layer 1
10
285.049217
20
42.231882
11
284.664963
21
42.053839
0
LINE
8
Layer 1
10
284.664963
20
42.053839
11
283.402178
21
41.035651
0
LINE
8
Layer 1
10
283.402178
20
41.035651
11
281.412016
21
38.986420
0
LINE
8
Layer 1
10
281.412016
20
38.986420
11
278.825155
21
37.018439
0
LINE
8
Layer 1
10
278.825155
20
37.018439
11
278.445063
21
36.862246
0
LINE
8
Layer 1
10
278.445063
20
36.862246
11
278.441169
21
37.121452
0
LINE
8
Layer 1
10
278.441169
20
37.121452
11
278.863883
21
38.476654
0
LINE
8
Layer 1
10
278.863883
20
38.476654
11
278.941448
21
39.367949
0
LINE
8
Layer 1
10
278.941448
20
39.367949
11
278.697123
21
40.265240
0
LINE
8
Layer 1
10
278.697123
20
40.265240
11
275.739428
21
38.230779
0
LINE
8
Layer 1
10
275.739428
20
38.230779
11
274.398181
21
37.190778
0
LINE
8
Layer 1
10
274.398181
20
37.190778
11
274.108449
21
37.060354
0
LINE
8
Layer 1
10
274.108449
20
37.060354
11
273.952498
21
37.198529
0
LINE
8
Layer 1
10
273.952498
20
37.198529
11
273.681495
21
38.307323
0
LINE
8
Layer 1
10
273.681495
20
38.307323
11
272.336735
21
38.243451
0
LINE
8
Layer 1
10
272.336735
20
38.243451
11
271.060672
21
37.883539
0
LINE
8
Layer 1
10
271.060672
20
37.883539
11
269.843154
21
37.262906
0
LINE
8
Layer 1
10
269.843154
20
37.262906
11
268.674026
21
36.416874
0
LINE
8
Layer 1
10
268.674026
20
36.416874
11
266.440324
21
34.189896
0
LINE
8
Layer 1
10
266.440324
20
34.189896
11
264.278338
21
31.485170
0
LINE
8
Layer 1
10
264.278338
20
31.485170
11
262.106837
21
28.585264
0
LINE
8
Layer 1
10
262.106837
20
28.585264
11
259.844590
21
25.772742
0
LINE
8
Layer 1
10
259.844590
20
25.772742
11
257.410368
21
23.330171
0
LINE
8
Layer 1
10
257.410368
20
23.330171
11
256.103382
21
22.335919
0
LINE
8
Layer 1
10
256.103382
20
22.335919
11
254.722940
21
21.540117
0
LINE
8
Layer 1
10
254.722940
20
21.540117
11
252.392554
21
19.853880
0
LINE
8
Layer 1
10
252.392554
20
19.853880
11
249.299062
21
17.914602
0
LINE
8
Layer 1
10
249.299062
20
17.914602
11
242.142426
21
13.972449
0
LINE
8
Layer 1
10
242.142426
20
13.972449
11
238.739117
21
12.317338
0
LINE
8
Layer 1
10
238.739117
20
12.317338
11
235.892371
21
11.104714
0
LINE
8
Layer 1
10
235.892371
20
11.104714
11
233.932104
21
10.508459
0
LINE
8
Layer 1
10
233.932104
20
10.508459
11
233.387499
21
10.495807
0
LINE
8
Layer 1
10
233.387499
20
10.495807
11
233.188233
21
10.702454
0
LINE
8
Layer 1
10
233.188233
20
10.702454
11
238.285354
21
13.061351
0
LINE
8
Layer 1
10
238.285354
20
13.061351
11
243.106237
21
15.842256
0
LINE
8
Layer 1
10
243.106237
20
15.842256
11
247.680017
21
18.982072
0
LINE
8
Layer 1
10
247.680017
20
18.982072
11
252.035828
21
22.417696
0
LINE
8
Layer 1
10
252.035828
20
22.417696
11
256.202802
21
26.086032
0
LINE
8
Layer 1
10
256.202802
20
26.086032
11
260.210075
21
29.923978
0
LINE
8
Layer 1
10
260.210075
20
29.923978
11
267.862047
21
37.856304
0
LINE
8
Layer 1
10
267.862047
20
37.856304
11
267.102531
21
37.998456
0
LINE
8
Layer 1
10
267.102531
20
37.998456
11
266.300219
21
37.985657
0
LINE
8
Layer 1
10
266.300219
20
37.985657
11
264.775441
21
37.810271
0
LINE
8
Layer 1
10
264.775441
20
37.810271
11
264.157095
21
37.805216
0
LINE
8
Layer 1
10
264.157095
20
37.805216
11
263.704189
21
37.960274
0
LINE
8
Layer 1
10
263.704189
20
37.960274
11
263.468784
21
38.354212
0
LINE
8
Layer 1
10
263.468784
20
38.354212
11
263.502939
21
39.065795
0
LINE
8
Layer 1
10
263.502939
20
39.065795
11
261.340277
21
37.928963
0
LINE
8
Layer 1
10
261.340277
20
37.928963
11
259.424906
21
37.235596
0
LINE
8
Layer 1
10
259.424906
20
37.235596
11
258.871819
21
37.250141
0
LINE
8
Layer 1
10
258.871819
20
37.250141
11
258.751003
21
37.381832
0
LINE
8
Layer 1
10
258.751003
20
37.381832
11
258.754795
21
37.609465
0
LINE
8
Layer 1
10
258.754795
20
37.609465
11
259.198578
21
38.391540
0
LINE
8
Layer 1
10
259.198578
20
38.391540
11
260.327916
21
39.674337
0
LINE
8
Layer 1
10
260.327916
20
39.674337
11
258.792206
21
39.105741
0
LINE
8
Layer 1
10
258.792206
20
39.105741
11
256.980575
21
38.146994
0
LINE
8
Layer 1
10
256.980575
20
38.146994
11
253.559924
21
36.103157
0
LINE
8
Layer 1
10
253.559924
20
36.103157
11
252.466091
21
35.540119
0
LINE
8
Layer 1
10
252.466091
20
35.540119
11
252.185994
21
35.487520
0
LINE
8
Layer 1
10
252.185994
20
35.487520
11
252.126710
21
35.631038
0
LINE
8
Layer 1
10
252.126710
20
35.631038
11
252.799374
21
36.636940
0
LINE
8
Layer 1
10
252.799374
20
36.636940
11
254.741677
21
38.818851
0
LINE
8
Layer 1
10
254.741677
20
38.818851
11
250.577782
21
36.131001
0
LINE
8
Layer 1
10
250.577782
20
36.131001
11
246.553100
21
32.978705
0
LINE
8
Layer 1
10
246.553100
20
32.978705
11
242.865582
21
29.595737
0
LINE
8
Layer 1
10
242.865582
20
29.595737
11
239.713180
21
26.215871
0
LINE
8
Layer 1
10
239.713180
20
26.215871
11
243.751688
21
28.788334
0
LINE
8
Layer 1
10
243.751688
20
28.788334
11
247.357629
21
31.203408
0
LINE
8
Layer 1
10
247.357629
20
31.203408
11
248.385790
21
31.780477
0
LINE
8
Layer 1
10
248.385790
20
31.780477
11
248.598964
21
31.811391
0
LINE
8
Layer 1
10
248.598964
20
31.811391
11
248.570694
21
31.632462
0
LINE
8
Layer 1
10
248.570694
20
31.632462
11
247.667302
21
30.530785
0
LINE
8
Layer 1
10
247.667302
20
30.530785
11
245.430576
21
28.246866
0
LINE
8
Layer 1
10
245.430576
20
28.246866
11
242.220746
21
26.521743
0
LINE
8
Layer 1
10
242.220746
20
26.521743
11
237.986880
21
23.798578
0
LINE
8
Layer 1
10
237.986880
20
23.798578
11
236.090239
21
22.401117
0
LINE
8
Layer 1
10
236.090239
20
22.401117
11
234.662756
21
21.160210
0
LINE
8
Layer 1
10
234.662756
20
21.160210
11
233.946153
21
20.211212
0
LINE
8
Layer 1
10
233.946153
20
20.211212
11
233.929970
21
19.888478
0
LINE
8
Layer 1
10
233.929970
20
19.888478
11
234.182152
21
19.689479
0
LINE
8
Layer 1
10
234.182152
20
19.689479
11
227.867052
21
17.614550
0
LINE
8
Layer 1
10
227.867052
20
17.614550
11
221.556391
21
15.368968
0
LINE
8
Layer 1
10
221.556391
20
15.368968
11
215.187834
21
13.246351
0
LINE
8
Layer 1
10
215.187834
20
13.246351
11
211.962364
21
12.322909
0
LINE
8
Layer 1
10
211.962364
20
12.322909
11
208.699044
21
11.540315
0
LINE
8
Layer 1
10
208.699044
20
11.540315
11
205.148809
21
10.663794
0
LINE
8
Layer 1
10
205.148809
20
10.663794
11
201.631940
21
9.982278
0
LINE
8
Layer 1
10
201.631940
20
9.982278
11
194.659933
21
9.094635
0
LINE
8
Layer 1
10
194.659933
20
9.094635
11
187.706290
21
8.658131
0
LINE
8
Layer 1
10
187.706290
20
8.658131
11
180.694279
21
8.453509
0
LINE
8
Layer 1
10
180.694279
20
8.453509
11
177.790059
21
8.183244
0
LINE
8
Layer 1
10
177.790059
20
8.183244
11
175.985901
21
8.222584
0
LINE
8
Layer 1
10
175.985901
20
8.222584
11
175.166184
21
8.480957
0
LINE
8
Layer 1
10
175.166184
20
8.480957
11
175.089360
21
8.663976
0
LINE
8
Layer 1
10
175.089360
20
8.663976
11
175.215288
21
8.867788
0
LINE
8
Layer 1
10
175.215288
20
8.867788
11
176.017590
21
9.292503
0
LINE
8
Layer 1
10
176.017590
20
9.292503
11
177.457470
21
9.664527
0
LINE
8
Layer 1
10
177.457470
20
9.664527
11
179.419306
21
9.893288
0
LINE
8
Layer 1
10
179.419306
20
9.893288
11
181.787478
21
9.888212
0
LINE
8
Layer 1
10
181.787478
20
9.888212
11
189.138572
21
10.297199
0
LINE
8
Layer 1
10
189.138572
20
10.297199
11
196.748099
21
10.723571
0
LINE
8
Layer 1
10
196.748099
20
10.723571
11
200.451797
21
11.196839
0
LINE
8
Layer 1
10
200.451797
20
11.196839
11
203.982530
21
11.978727
0
LINE
8
Layer 1
10
203.982530
20
11.978727
11
207.261107
21
13.170661
0
LINE
8
Layer 1
10
207.261107
20
13.170661
11
208.781090
21
13.952090
0
LINE
8
Layer 1
10
208.781090
20
13.952090
11
210.208337
21
14.874065
0
LINE
8
Layer 1
10
210.208337
20
14.874065
11
201.396409
21
13.641309
0
LINE
8
Layer 1
10
201.396409
20
13.641309
11
192.511419
21
12.780932
0
LINE
8
Layer 1
10
192.511419
20
12.780932
11
183.591617
21
12.298771
0
LINE
8
Layer 1
10
183.591617
20
12.298771
11
174.675255
21
12.200667
0
LINE
8
Layer 1
10
174.675255
20
12.200667
11
177.788787
21
13.011925
0
LINE
8
Layer 1
10
177.788787
20
13.011925
11
180.953981
21
13.498579
0
LINE
8
Layer 1
10
180.953981
20
13.498579
11
184.158196
21
13.762401
0
LINE
8
Layer 1
10
184.158196
20
13.762401
11
187.388793
21
13.905165
0
LINE
8
Layer 1
10
187.388793
20
13.905165
11
193.878569
21
14.234609
0
LINE
8
Layer 1
10
193.878569
20
14.234609
11
197.112466
21
14.624836
0
LINE
8
Layer 1
10
197.112466
20
14.624836
11
200.322183
21
15.301095
0
LINE
8
Layer 1
10
200.322183
20
15.301095
11
207.258011
21
16.835821
0
LINE
8
Layer 1
10
207.258011
20
16.835821
11
214.208300
21
18.583485
0
LINE
8
Layer 1
10
214.208300
20
18.583485
11
217.560680
21
19.644322
0
LINE
8
Layer 1
10
217.560680
20
19.644322
11
220.762851
21
20.886978
0
LINE
8
Layer 1
10
220.762851
20
20.886978
11
223.763537
21
22.354315
0
LINE
8
Layer 1
10
223.763537
20
22.354315
11
226.511465
21
24.089193
0
LINE
8
Layer 1
10
226.511465
20
24.089193
11
229.576504
21
25.623379
0
LINE
8
Layer 1
10
229.576504
20
25.623379
11
232.567533
21
27.322166
0
LINE
8
Layer 1
10
232.567533
20
27.322166
11
238.319867
21
31.107030
0
LINE
8
Layer 1
10
238.319867
20
31.107030
11
243.753072
21
35.230754
0
LINE
8
Layer 1
10
243.753072
20
35.230754
11
248.851753
21
39.480309
0
LINE
8
Layer 1
10
248.851753
20
39.480309
11
238.431676
21
33.005948
0
LINE
8
Layer 1
10
238.431676
20
33.005948
11
233.198498
21
29.735388
0
LINE
8
Layer 1
10
233.198498
20
29.735388
11
227.884312
21
26.606898
0
LINE
8
Layer 1
10
227.884312
20
26.606898
11
222.439933
21
23.743722
0
LINE
8
Layer 1
10
222.439933
20
23.743722
11
216.816176
21
21.269103
0
LINE
8
Layer 1
10
216.816176
20
21.269103
11
213.921659
21
20.216016
0
LINE
8
Layer 1
10
213.921659
20
20.216016
11
210.963854
21
19.306284
0
LINE
8
Layer 1
10
210.963854
20
19.306284
11
207.936610
21
18.555314
0
LINE
8
Layer 1
10
207.936610
20
18.555314
11
204.833782
21
17.978509
0
LINE
8
Layer 1
10
204.833782
20
17.978509
11
202.272477
21
17.098268
0
LINE
8
Layer 1
10
202.272477
20
17.098268
11
198.999431
21
16.402394
0
LINE
8
Layer 1
10
198.999431
20
16.402394
11
195.566487
21
15.923665
0
LINE
8
Layer 1
10
195.566487
20
15.923665
11
192.525491
21
15.694859
0
LINE
8
Layer 1
10
192.525491
20
15.694859
11
190.428286
21
15.748752
0
LINE
8
Layer 1
10
190.428286
20
15.748752
11
189.906058
21
15.891954
0
LINE
8
Layer 1
10
189.906058
20
15.891954
11
189.826719
21
16.118121
0
LINE
8
Layer 1
10
189.826719
20
16.118121
11
190.259250
21
16.431353
0
LINE
8
Layer 1
10
190.259250
20
16.431353
11
191.272632
21
16.835744
0
LINE
8
Layer 1
10
191.272632
20
16.835744
11
195.317872
21
17.934398
0
LINE
8
Layer 1
10
195.317872
20
17.934398
11
198.650979
21
19.361436
0
LINE
8
Layer 1
10
198.650979
20
19.361436
11
202.119753
21
20.430156
0
LINE
8
Layer 1
10
202.119753
20
20.430156
11
205.679341
21
21.263128
0
LINE
8
Layer 1
10
205.679341
20
21.263128
11
209.284889
21
21.982920
0
LINE
8
Layer 1
10
209.284889
20
21.982920
11
212.891542
21
22.712104
0
LINE
8
Layer 1
10
212.891542
20
22.712104
11
216.454449
21
23.573248
0
LINE
8
Layer 1
10
216.454449
20
23.573248
11
219.928755
21
24.688922
0
LINE
8
Layer 1
10
219.928755
20
24.688922
11
223.269607
21
26.181696
0
LINE
8
Layer 1
10
223.269607
20
26.181696
11
226.098501
21
27.356153
0
LINE
8
Layer 1
10
226.098501
20
27.356153
11
229.213980
21
28.937223
0
LINE
8
Layer 1
10
229.213980
20
28.937223
11
232.431442
21
30.804905
0
LINE
8
Layer 1
10
232.431442
20
30.804905
11
235.566284
21
32.839201
0
LINE
8
Layer 1
10
235.566284
20
32.839201
11
238.433903
21
34.920111
0
LINE
8
Layer 1
10
238.433903
20
34.920111
11
240.849695
21
36.927636
0
LINE
8
Layer 1
10
240.849695
20
36.927636
11
242.629059
21
38.741776
0
LINE
8
Layer 1
10
242.629059
20
38.741776
11
243.587391
21
40.242532
0
LINE
8
Layer 1
10
243.587391
20
40.242532
11
233.024250
21
33.414329
0
LINE
8
Layer 1
10
233.024250
20
33.414329
11
222.706023
21
26.939065
0
LINE
8
Layer 1
10
222.706023
20
26.939065
11
221.626454
21
27.375157
0
LINE
8
Layer 1
10
221.626454
20
27.375157
11
220.441273
21
27.533996
0
LINE
8
Layer 1
10
220.441273
20
27.533996
11
218.482278
21
27.434842
0
LINE
8
Layer 1
10
218.482278
20
27.434842
11
218.072564
21
27.384309
0
LINE
8
Layer 1
10
218.072564
20
27.384309
11
218.285441
21
27.471445
0
LINE
8
Layer 1
10
218.285441
20
27.471445
11
221.307166
21
28.473648
0
LINE
8
Layer 1
10
221.307166
20
28.473648
11
222.422115
21
28.662755
0
LINE
8
Layer 1
10
222.422115
20
28.662755
11
223.683880
21
29.036963
0
LINE
8
Layer 1
10
223.683880
20
29.036963
11
226.511471
21
30.236514
0
LINE
8
Layer 1
10
226.511471
20
30.236514
11
229.517165
21
31.863958
0
LINE
8
Layer 1
10
229.517165
20
31.863958
11
232.428188
21
33.710950
0
LINE
8
Layer 1
10
232.428188
20
33.710950
11
234.971768
21
35.569147
0
LINE
8
Layer 1
10
234.971768
20
35.569147
11
236.875131
21
37.230206
0
LINE
8
Layer 1
10
236.875131
20
37.230206
11
237.865503
21
38.485782
0
LINE
8
Layer 1
10
237.865503
20
38.485782
11
237.933076
21
38.896406
0
LINE
8
Layer 1
10
237.933076
20
38.896406
11
237.670111
21
39.127532
0
LINE
8
Layer 1
10
237.670111
20
39.127532
11
237.126852
21
38.311387
0
LINE
8
Layer 1
10
237.126852
20
38.311387
11
236.278946
21
37.490694
0
LINE
8
Layer 1
10
236.278946
20
37.490694
11
233.929296
21
35.903104
0
LINE
8
Layer 1
10
233.929296
20
35.903104
11
231.141376
21
34.499636
0
LINE
8
Layer 1
10
231.141376
20
34.499636
11
228.435400
21
33.415165
0
LINE
8
Layer 1
10
228.435400
20
33.415165
11
226.331583
21
32.784567
0
LINE
8
Layer 1
10
226.331583
20
32.784567
11
225.668051
21
32.681618
0
LINE
8
Layer 1
10
225.668051
20
32.681618
11
225.350139
21
32.742716
0
LINE
8
Layer 1
10
225.350139
20
32.742716
11
225.442874
21
32.984720
0
LINE
8
Layer 1
10
225.442874
20
32.984720
11
226.011282
21
33.424489
0
LINE
8
Layer 1
10
226.011282
20
33.424489
11
228.835227
21
34.964759
0
LINE
8
Layer 1
10
228.835227
20
34.964759
11
231.850369
21
36.797611
0
LINE
8
Layer 1
10
231.850369
20
36.797611
11
234.680739
21
38.869672
0
LINE
8
Layer 1
10
234.680739
20
38.869672
11
237.436412
21
40.984301
0
LINE
8
Layer 1
10
237.436412
20
40.984301
11
240.227460
21
42.944853
0
LINE
8
Layer 1
10
240.227460
20
42.944853
11
243.163957
21
44.554685
0
LINE
8
Layer 1
10
243.163957
20
44.554685
11
244.721147
21
45.166630
0
LINE
8
Layer 1
10
244.721147
20
45.166630
11
246.355978
21
45.617154
0
LINE
8
Layer 1
10
246.355978
20
45.617154
11
248.082207
21
45.881676
0
LINE
8
Layer 1
10
248.082207
20
45.881676
11
249.913595
21
45.935616
0
LINE
8
Layer 1
10
249.913595
20
45.935616
11
251.863900
21
45.754393
0
LINE
8
Layer 1
10
251.863900
20
45.754393
11
253.946883
21
45.313428
0
LINE
8
Layer 1
10
253.946883
20
45.313428
11
259.643902
21
45.572739
0
LINE
8
Layer 1
10
259.643902
20
45.572739
11
265.433457
21
45.692151
0
LINE
8
Layer 1
10
265.433457
20
45.692151
11
276.393250
21
45.868175
0
LINE
8
Layer 1
10
276.393250
20
45.868175
11
279.202548
21
46.302623
0
LINE
8
Layer 1
10
279.202548
20
46.302623
11
282.131310
21
46.544598
0
LINE
8
Layer 1
10
282.131310
20
46.544598
11
288.103873
21
46.877418
0
LINE
8
Layer 1
10
288.103873
20
46.877418
11
291.025997
21
47.181405
0
LINE
8
Layer 1
10
291.025997
20
47.181405
11
293.824233
21
47.719205
0
LINE
8
Layer 1
10
293.824233
20
47.719205
11
296.437741
21
48.597390
0
LINE
8
Layer 1
10
296.437741
20
48.597390
11
298.805685
21
49.922532
0
LINE
8
Layer 1
10
298.805685
20
49.922532
11
299.017514
21
51.286936
0
LINE
8
Layer 1
10
299.017514
20
51.286936
11
298.888015
21
52.515305
0
LINE
8
Layer 1
10
298.888015
20
52.515305
11
298.452247
21
53.619130
0
LINE
8
Layer 1
10
298.452247
20
53.619130
11
297.745274
21
54.609905
0
LINE
8
Layer 1
10
297.745274
20
54.609905
11
296.802157
21
55.499121
0
LINE
8
Layer 1
10
296.802157
20
55.499121
11
295.657957
21
56.298272
0
LINE
8
Layer 1
10
295.657957
20
56.298272
11
292.906555
21
57.672348
0
LINE
8
Layer 1
10
292.906555
20
57.672348
11
289.771564
21
58.824073
0
LINE
8
Layer 1
10
289.771564
20
58.824073
11
286.533475
21
59.845388
0
LINE
8
Layer 1
10
286.533475
20
59.845388
11
283.472783
21
60.828235
0
LINE
8
Layer 1
10
283.472783
20
60.828235
11
280.869980
21
61.864553
0
LINE
8
Layer 1
10
280.869980
20
61.864553
11
277.177968
21
63.028793
0
LINE
8
Layer 1
10
277.177968
20
63.028793
11
273.426645
21
63.976780
0
LINE
8
Layer 1
10
273.426645
20
63.976780
11
265.837494
21
65.547553
0
LINE
8
Layer 1
10
265.837494
20
65.547553
11
258.285384
21
67.223983
0
LINE
8
Layer 1
10
258.285384
20
67.223983
11
254.580363
21
68.304044
0
LINE
8
Layer 1
10
254.580363
20
68.304044
11
250.953174
21
69.653187
0
LINE
8
Layer 1
10
250.953174
20
69.653187
11
247.081877
21
69.830063
0
LINE
8
Layer 1
10
247.081877
20
69.830063
11
243.198265
21
69.863216
0
LINE
8
Layer 1
10
243.198265
20
69.863216
11
235.404942
21
69.661532
0
LINE
8
Layer 1
10
235.404942
20
69.661532
11
227.594895
21
69.374498
0
LINE
8
Layer 1
10
227.594895
20
69.374498
11
219.789812
21
69.328476
0
LINE
8
Layer 1
10
219.789812
20
69.328476
11
202.384275
21
68.749308
0
LINE
8
Layer 1
10
202.384275
20
68.749308
11
193.707784
21
68.209453
0
LINE
8
Layer 1
10
193.707784
20
68.209453
11
185.120940
21
67.226282
0
LINE
8
Layer 1
10
185.120940
20
67.226282
11
181.986745
21
67.245863
0
LINE
8
Layer 1
10
181.986745
20
67.245863
11
178.823020
21
67.116377
0
LINE
8
Layer 1
10
178.823020
20
67.116377
11
172.434916
21
66.561206
0
LINE
8
Layer 1
10
172.434916
20
66.561206
11
166.012507
21
65.862785
0
LINE
8
Layer 1
10
166.012507
20
65.862785
11
159.611670
21
65.323133
0
LINE
8
Layer 1
10
159.611670
20
65.323133
11
156.198273
21
64.869329
0
LINE
8
Layer 1
10
156.198273
20
64.869329
11
152.711437
21
64.606684
0
LINE
8
Layer 1
10
152.711437
20
64.606684
11
145.591544
21
64.471356
0
LINE
8
Layer 1
10
145.591544
20
64.471356
11
138.400183
21
64.550117
0
LINE
8
Layer 1
10
138.400183
20
64.550117
11
131.285547
21
64.475936
0
LINE
8
Layer 1
10
131.285547
20
64.475936
11
120.169950
21
64.519903
0
LINE
8
Layer 1
10
120.169950
20
64.519903
11
109.043042
21
64.500315
0
LINE
8
Layer 1
10
109.043042
20
64.500315
11
97.928860
21
64.721322
0
LINE
8
Layer 1
10
97.928860
20
64.721322
11
92.384052
21
65.017095
0
LINE
8
Layer 1
10
92.384052
20
65.017095
11
86.851439
21
65.487073
0
LINE
8
Layer 1
10
86.851439
20
65.487073
11
85.891943
21
65.767594
0
LINE
8
Layer 1
10
85.891943
20
65.767594
11
84.868088
21
66.292094
0
LINE
8
Layer 1
10
84.868088
20
66.292094
11
82.692733
21
67.855738
0
LINE
8
Layer 1
10
82.692733
20
67.855738
11
78.289422
21
71.520517
0
LINE
8
Layer 1
10
78.289422
20
71.520517
11
76.323172
21
72.752465
0
LINE
8
Layer 1
10
76.323172
20
72.752465
11
75.456146
21
73.028194
0
LINE
8
Layer 1
10
75.456146
20
73.028194
11
74.688329
21
73.004661
0
LINE
8
Layer 1
10
74.688329
20
73.004661
11
74.036077
21
72.627541
0
LINE
8
Layer 1
10
74.036077
20
72.627541
11
73.515747
21
71.842510
0
LINE
8
Layer 1
10
73.515747
20
71.842510
11
73.143695
21
70.595245
0
LINE
8
Layer 1
10
73.143695
20
70.595245
11
72.936278
21
68.831420
0
LINE
8
Layer 1
10
72.936278
20
68.831420
11
67.210017
21
73.094896
0
LINE
8
Layer 1
10
67.210017
20
73.094896
11
64.177609
21
75.404728
0
LINE
8
Layer 1
10
64.177609
20
75.404728
11
61.341467
21
77.882251
0
LINE
8
Layer 1
10
61.341467
20
77.882251
11
58.933428
21
80.564188
0
LINE
8
Layer 1
10
58.933428
20
80.564188
11
57.962396
21
81.993287
0
LINE
8
Layer 1
10
57.962396
20
81.993287
11
57.185330
21
83.487261
0
LINE
8
Layer 1
10
57.185330
20
83.487261
11
56.631208
21
85.050700
0
LINE
8
Layer 1
10
56.631208
20
85.050700
11
56.329011
21
86.688193
0
LINE
8
Layer 1
10
56.329011
20
86.688193
11
56.307717
21
88.404331
0
LINE
8
Layer 1
10
56.307717
20
88.404331
11
56.596308
21
90.203705
0
LINE
8
Layer 1
10
56.596308
20
90.203705
11
57.225708
21
91.514485
0
LINE
8
Layer 1
10
57.225708
20
91.514485
11
58.161019
21
92.765201
0
LINE
8
Layer 1
10
58.161019
20
92.765201
11
59.344549
21
93.967271
0
LINE
8
Layer 1
10
59.344549
20
93.967271
11
60.718606
21
95.132110
0
LINE
8
Layer 1
10
60.718606
20
95.132110
11
63.807523
21
97.395770
0
LINE
8
Layer 1
10
63.807523
20
97.395770
11
66.966229
21
99.647520
0
LINE
8
Layer 1
10
66.966229
20
99.647520
11
69.733179
21
101.978698
0
LINE
8
Layer 1
10
69.733179
20
101.978698
11
70.825513
21
103.202615
0
LINE
8
Layer 1
10
70.825513
20
103.202615
11
71.646830
21
104.480642
0
LINE
8
Layer 1
10
71.646830
20
104.480642
11
72.139435
21
105.824195
0
LINE
8
Layer 1
10
72.139435
20
105.824195
11
72.245637
21
107.244691
0
LINE
8
Layer 1
10
72.245637
20
107.244691
11
71.907742
21
108.753549
0
LINE
8
Layer 1
10
71.907742
20
108.753549
11
71.068057
21
110.362184
0
LINE
8
Layer 1
10
71.068057
20
110.362184
11
71.068057
21
110.362184
0
LINE
8
Layer 1
10
70.184566
20
109.471420
11
70.444560
21
109.234820
0
LINE
8
Layer 1
10
70.444560
20
109.234820
11
70.481701
21
109.065820
0
LINE
8
Layer 1
10
70.481701
20
109.065820
11
70.184562
21
108.930624
0
LINE
8
Layer 1
10
70.184562
20
108.930624
11
69.887425
21
109.065826
0
LINE
8
Layer 1
10
69.887425
20
109.065826
11
69.924568
21
109.234825
0
LINE
8
Layer 1
10
69.924568
20
109.234825
11
70.184566
21
109.471420
0
LINE
8
Layer 1
10
70.184566
20
109.471420
11
70.184566
21
109.471420
0
LINE
8
Layer 1
10
66.761041
20
106.552184
11
66.992970
21
106.273805
0
LINE
8
Layer 1
10
66.992970
20
106.273805
11
66.983462
21
106.086705
0
LINE
8
Layer 1
10
66.983462
20
106.086705
11
66.590478
21
105.962856
0
LINE
8
Layer 1
10
66.590478
20
105.962856
11
66.282776
21
106.133671
0
LINE
8
Layer 1
10
66.282776
20
106.133671
11
66.379870
21
106.314901
0
LINE
8
Layer 1
10
66.379870
20
106.314901
11
66.761041
21
106.552184
0
LINE
8
Layer 1
10
66.761041
20
106.552184
11
66.761041
21
106.552184
0
LINE
8
Layer 1
10
63.484785
20
105.802532
11
61.038572
21
105.210405
0
LINE
8
Layer 1
10
61.038572
20
105.210405
11
59.566677
21
104.698570
0
LINE
8
Layer 1
10
59.566677
20
104.698570
11
58.931400
21
104.311471
0
LINE
8
Layer 1
10
58.931400
20
104.311471
11
58.884462
21
104.178586
0
LINE
8
Layer 1
10
58.884462
20
104.178586
11
58.995041
21
104.093551
0
LINE
8
Layer 1
10
58.995041
20
104.093551
11
59.619901
21
104.089253
0
LINE
8
Layer 1
10
59.619901
20
104.089253
11
60.668278
21
104.343022
0
LINE
8
Layer 1
10
60.668278
20
104.343022
11
62.002473
21
104.899300
0
LINE
8
Layer 1
10
62.002473
20
104.899300
11
63.484785
21
105.802532
0
LINE
8
Layer 1
10
63.484785
20
105.802532
11
63.484785
21
105.802532
0
LINE
8
Layer 1
10
56.674560
20
104.003365
11
52.631254
21
103.602885
0
LINE
8
Layer 1
10
52.631254
20
103.602885
11
51.856367
21
103.441779
0
LINE
8
Layer 1
10
51.856367
20
103.441779
11
51.806150
21
103.339289
0
LINE
8
Layer 1
10
51.806150
20
103.339289
11
53.560199
21
103.407731
0
LINE
8
Layer 1
10
53.560199
20
103.407731
11
57.254349
21
104.003365
0
LINE
8
Layer 1
10
57.254349
20
104.003365
11
56.674560
21
104.003365
0
LINE
8
Layer 1
10
56.674560
20
104.003365
11
56.674560
21
104.003365
0
LINE
8
Layer 1
10
56.674560
20
104.003365
11
56.674560
21
104.003365
0
LINE
8
Layer 1
10
55.818682
20
102.116004
11
55.226729
21
101.972542
0
LINE
8
Layer 1
10
55.226729
20
101.972542
11
55.022074
21
101.820433
0
LINE
8
Layer 1
10
55.022074
20
101.820433
11
55.338320
21
101.589548
0
LINE
8
Layer 1
10
55.338320
20
101.589548
11
55.894746
21
101.621892
0
LINE
8
Layer 1
10
55.894746
20
101.621892
11
55.990317
21
101.798818
0
LINE
8
Layer 1
10
55.990317
20
101.798818
11
55.818682
21
102.116004
0
LINE
8
Layer 1
10
55.818682
20
102.116004
11
55.818682
21
102.116004
0
LINE
8
Layer 1
10
59.582710
20
101.569199
11
59.842706
21
101.332600
0
LINE
8
Layer 1
10
59.842706
20
101.332600
11
59.879848
21
101.163601
0
LINE
8
Layer 1
10
59.879848
20
101.163601
11
59.582710
21
101.028402
0
LINE
8
Layer 1
10
59.582710
20
101.028402
11
59.285572
21
101.163601
0
LINE
8
Layer 1
10
59.285572
20
101.163601
11
59.322715
21
101.332600
0
LINE
8
Layer 1
10
59.322715
20
101.332600
11
59.582710
21
101.569199
0
LINE
8
Layer 1
10
59.582710
20
101.569199
11
59.582710
21
101.569199
0
LINE
8
Layer 1
10
42.980486
20
98.552949
11
45.098039
21
97.223444
0
LINE
8
Layer 1
10
45.098039
20
97.223444
11
46.743624
21
95.598721
0
LINE
8
Layer 1
10
46.743624
20
95.598721
11
48.039172
21
93.764308
0
LINE
8
Layer 1
10
48.039172
20
93.764308
11
49.106614
21
91.805736
0
LINE
8
Layer 1
10
49.106614
20
91.805736
11
51.044906
21
87.858240
0
LINE
8
Layer 1
10
51.044906
20
87.858240
11
52.159618
21
86.040377
0
LINE
8
Layer 1
10
52.159618
20
86.040377
11
53.533949
21
84.440477
0
LINE
8
Layer 1
10
53.533949
20
84.440477
11
53.949623
21
84.268171
0
LINE
8
Layer 1
10
53.949623
20
84.268171
11
54.680155
21
83.662105
0
LINE
8
Layer 1
10
54.680155
20
83.662105
11
56.324552
21
81.923893
0
LINE
8
Layer 1
10
56.324552
20
81.923893
11
56.857798
21
81.179347
0
LINE
8
Layer 1
10
56.857798
20
81.179347
11
56.944665
21
80.776241
0
LINE
8
Layer 1
10
56.944665
20
80.776241
11
56.394842
21
80.908374
0
LINE
8
Layer 1
10
56.394842
20
80.908374
11
55.018020
21
81.769545
0
LINE
8
Layer 1
10
55.018020
20
81.769545
11
56.187181
21
80.857640
0
LINE
8
Layer 1
10
56.187181
20
80.857640
11
56.989684
21
79.865188
0
LINE
8
Layer 1
10
56.989684
20
79.865188
11
57.549280
21
78.807591
0
LINE
8
Layer 1
10
57.549280
20
78.807591
11
57.989722
21
77.700251
0
LINE
8
Layer 1
10
57.989722
20
77.700251
11
59.008150
21
75.397948
0
LINE
8
Layer 1
10
59.008150
20
75.397948
11
59.833639
21
74.233788
0
LINE
8
Layer 1
10
59.833639
20
74.233788
11
61.034981
21
73.081492
0
LINE
8
Layer 1
10
61.034981
20
73.081492
11
60.866348
21
74.048002
0
LINE
8
Layer 1
10
60.866348
20
74.048002
11
60.885104
21
74.596058
0
LINE
8
Layer 1
10
60.885104
20
74.596058
11
61.056704
21
74.779417
0
LINE
8
Layer 1
10
61.056704
20
74.779417
11
61.346603
21
74.651834
0
LINE
8
Layer 1
10
61.346603
20
74.651834
11
62.143121
21
73.678869
0
LINE
8
Layer 1
10
62.143121
20
73.678869
11
62.998302
21
72.107208
0
LINE
8
Layer 1
10
62.998302
20
72.107208
11
63.635790
21
70.366898
0
LINE
8
Layer 1
10
63.635790
20
70.366898
11
63.786537
21
69.567890
0
LINE
8
Layer 1
10
63.786537
20
69.567890
11
63.779228
21
68.887987
0
LINE
8
Layer 1
10
63.779228
20
68.887987
11
63.579317
21
68.380945
0
LINE
8
Layer 1
10
63.579317
20
68.380945
11
63.152260
21
68.100520
0
LINE
8
Layer 1
10
63.152260
20
68.100520
11
62.463512
21
68.100468
0
LINE
8
Layer 1
10
62.463512
20
68.100468
11
61.478530
21
68.434545
0
LINE
8
Layer 1
10
61.478530
20
68.434545
11
60.429911
21
69.127084
0
LINE
8
Layer 1
10
60.429911
20
69.127084
11
59.405611
21
70.034473
0
LINE
8
Layer 1
10
59.405611
20
70.034473
11
57.481608
21
72.193751
0
LINE
8
Layer 1
10
57.481608
20
72.193751
11
55.809796
21
74.312281
0
LINE
8
Layer 1
10
55.809796
20
74.312281
11
54.493448
21
75.789962
0
LINE
8
Layer 1
10
54.493448
20
75.789962
11
53.953613
21
77.789636
0
LINE
8
Layer 1
10
53.953613
20
77.789636
11
53.201188
21
79.333218
0
LINE
8
Layer 1
10
53.201188
20
79.333218
11
52.864775
21
79.734399
0
LINE
8
Layer 1
10
52.864775
20
79.734399
11
52.618638
21
79.782065
0
LINE
8
Layer 1
10
52.618638
20
79.782065
11
52.510586
21
79.396386
0
LINE
8
Layer 1
10
52.510586
20
79.396386
11
52.588425
21
78.497532
0
LINE
8
Layer 1
10
52.588425
20
78.497532
11
51.307577
21
79.558528
0
LINE
8
Layer 1
10
51.307577
20
79.558528
11
50.269645
21
80.592795
0
LINE
8
Layer 1
10
50.269645
20
80.592795
11
49.487669
21
81.556935
0
LINE
8
Layer 1
10
49.487669
20
81.556935
11
48.974689
21
82.407551
0
LINE
8
Layer 1
10
48.974689
20
82.407551
11
48.743746
21
83.101246
0
LINE
8
Layer 1
10
48.743746
20
83.101246
11
48.807879
21
83.594624
0
LINE
8
Layer 1
10
48.807879
20
83.594624
11
49.180130
21
83.844286
0
LINE
8
Layer 1
10
49.180130
20
83.844286
11
49.873538
21
83.806837
0
LINE
8
Layer 1
10
49.873538
20
83.806837
11
49.005930
21
84.872346
0
LINE
8
Layer 1
10
49.005930
20
84.872346
11
48.072400
21
86.501700
0
LINE
8
Layer 1
10
48.072400
20
86.501700
11
46.208570
21
90.279206
0
LINE
8
Layer 1
10
46.208570
20
90.279206
11
45.378767
21
91.840989
0
LINE
8
Layer 1
10
45.378767
20
91.840989
11
44.684036
21
92.793879
0
LINE
8
Layer 1
10
44.684036
20
92.793879
11
44.403026
21
92.950368
0
LINE
8
Layer 1
10
44.403026
20
92.950368
11
44.174627
21
92.844691
0
LINE
8
Layer 1
10
44.174627
20
92.844691
11
43.900787
21
91.700240
0
LINE
8
Layer 1
10
43.900787
20
91.700240
11
44.170523
21
90.814513
0
LINE
8
Layer 1
10
44.170523
20
90.814513
11
44.174040
21
90.379574
0
LINE
8
Layer 1
10
44.174040
20
90.379574
11
43.959033
21
90.336370
0
LINE
8
Layer 1
10
43.959033
20
90.336370
11
43.573200
21
90.625847
0
LINE
8
Layer 1
10
43.573200
20
90.625847
11
42.479844
21
91.966625
0
LINE
8
Layer 1
10
42.479844
20
91.966625
11
41.275548
21
93.929476
0
LINE
8
Layer 1
10
41.275548
20
93.929476
11
40.341888
21
96.041967
0
LINE
8
Layer 1
10
40.341888
20
96.041967
11
40.095789
21
97.006692
0
LINE
8
Layer 1
10
40.095789
20
97.006692
11
40.060440
21
97.831665
0
LINE
8
Layer 1
10
40.060440
20
97.831665
11
40.283538
21
98.457831
0
LINE
8
Layer 1
10
40.283538
20
98.457831
11
40.812781
21
98.826136
0
LINE
8
Layer 1
10
40.812781
20
98.826136
11
41.695864
21
98.877527
0
LINE
8
Layer 1
10
41.695864
20
98.877527
11
42.980486
21
98.552949
0
LINE
8
Layer 1
10
42.980486
20
98.552949
11
42.980486
21
98.552949
0
LINE
8
Layer 1
10
31.946077
20
95.642532
11
30.990549
21
95.329483
0
LINE
8
Layer 1
10
30.990549
20
95.329483
11
31.803233
21
95.311387
0
LINE
8
Layer 1
10
31.803233
20
95.311387
11
32.687339
21
95.458864
0
LINE
8
Layer 1
10
32.687339
20
95.458864
11
32.625928
21
95.554260
0
LINE
8
Layer 1
10
32.625928
20
95.554260
11
31.946077
21
95.642532
0
LINE
8
Layer 1
10
31.946077
20
95.642532
11
31.946077
21
95.642532
0
LINE
8
Layer 1
10
27.178921
20
94.469546
11
20.908220
21
92.844354
0
LINE
8
Layer 1
10
20.908220
20
92.844354
11
20.529832
21
92.689025
0
LINE
8
Layer 1
10
20.529832
20
92.689025
11
21.027117
21
92.690722
0
LINE
8
Layer 1
10
21.027117
20
92.690722
11
25.448625
21
93.278468
0
LINE
8
Layer 1
10
25.448625
20
93.278468
11
25.816268
21
93.401040
0
LINE
8
Layer 1
10
25.816268
20
93.401040
11
26.742839
21
93.770635
0
LINE
8
Layer 1
10
26.742839
20
93.770635
11
27.454876
21
94.191917
0
LINE
8
Layer 1
10
27.454876
20
94.191917
11
27.488739
21
94.360896
0
LINE
8
Layer 1
10
27.488739
20
94.360896
11
27.178921
21
94.469546
0
LINE
8
Layer 1
10
27.178921
20
94.469546
11
27.178921
21
94.469546
0
LINE
8
Layer 1
10
48.695554
20
87.387532
11
49.687803
21
85.374311
0
LINE
8
Layer 1
10
49.687803
20
85.374311
11
50.560491
21
84.000910
0
LINE
8
Layer 1
10
50.560491
20
84.000910
11
51.231648
21
83.235022
0
LINE
8
Layer 1
10
51.231648
20
83.235022
11
51.619304
21
83.044340
0
LINE
8
Layer 1
10
51.619304
20
83.044340
11
51.641492
21
83.396558
0
LINE
8
Layer 1
10
51.641492
20
83.396558
11
51.216242
21
84.259367
0
LINE
8
Layer 1
10
51.216242
20
84.259367
11
50.261586
21
85.600461
0
LINE
8
Layer 1
10
50.261586
20
85.600461
11
48.695554
21
87.387532
0
LINE
8
Layer 1
10
48.695554
20
87.387532
11
48.695554
21
87.387532
0
LINE
8
Layer 1
10
50.876666
20
82.378087
11
50.783706
21
81.942280
0
LINE
8
Layer 1
10
50.783706
20
81.942280
11
51.047483
21
81.826196
0
LINE
8
Layer 1
10
51.047483
20
81.826196
11
51.225851
21
81.986058
0
LINE
8
Layer 1
10
51.225851
20
81.986058
11
50.876666
21
82.378087
0
LINE
8
Layer 1
10
50.876666
20
82.378087
11
50.876666
21
82.378087
0
LINE
8
Layer 1
10
52.965748
20
81.707809
11
53.109169
21
81.047911
0
LINE
8
Layer 1
10
53.109169
20
81.047911
11
53.309678
21
80.702068
0
LINE
8
Layer 1
10
53.309678
20
80.702068
11
53.518243
21
80.607524
0
LINE
8
Layer 1
10
53.518243
20
80.607524
11
53.685829
21
80.701523
0
LINE
8
Layer 1
10
53.685829
20
80.701523
11
53.763406
21
80.921307
0
LINE
8
Layer 1
10
53.763406
20
80.921307
11
53.701940
21
81.204121
0
LINE
8
Layer 1
10
53.701940
20
81.204121
11
53.452398
21
81.487207
0
LINE
8
Layer 1
10
53.452398
20
81.487207
11
52.965748
21
81.707809
0
LINE
8
Layer 1
10
52.965748
20
81.707809
11
52.965748
21
81.707809
0
LINE
8
Layer 1
10
51.778560
20
81.249198
11
51.396698
21
81.019602
0
LINE
8
Layer 1
10
51.396698
20
81.019602
11
51.342146
21
80.855605
0
LINE
8
Layer 1
10
51.342146
20
80.855605
11
51.778560
21
80.724408
0
LINE
8
Layer 1
10
51.778560
20
80.724408
11
52.214974
21
80.855606
0
LINE
8
Layer 1
10
52.214974
20
80.855606
11
52.160423
21
81.019603
0
LINE
8
Layer 1
10
52.160423
20
81.019603
11
51.778560
21
81.249198
0
LINE
8
Layer 1
10
51.778560
20
81.249198
11
51.778560
21
81.249198
0
LINE
8
Layer 1
10
54.116125
20
80.032115
11
55.230820
21
78.473850
0
LINE
8
Layer 1
10
55.230820
20
78.473850
11
56.167197
21
77.381434
0
LINE
8
Layer 1
10
56.167197
20
77.381434
11
56.855172
21
76.744552
0
LINE
8
Layer 1
10
56.855172
20
76.744552
11
57.224663
21
76.552887
0
LINE
8
Layer 1
10
57.224663
20
76.552887
11
57.205587
21
76.796127
0
LINE
8
Layer 1
10
57.205587
20
76.796127
11
56.727860
21
77.463955
0
LINE
8
Layer 1
10
56.727860
20
77.463955
11
55.721401
21
78.546056
0
LINE
8
Layer 1
10
55.721401
20
78.546056
11
54.116125
21
80.032115
0
LINE
8
Layer 1
10
54.116125
20
80.032115
11
54.116125
21
80.032115
0
LINE
8
Layer 1
10
59.858800
20
77.862532
11
60.207984
21
77.470502
0
LINE
8
Layer 1
10
60.207984
20
77.470502
11
60.029616
21
77.310640
0
LINE
8
Layer 1
10
60.029616
20
77.310640
11
59.765840
21
77.426725
0
LINE
8
Layer 1
10
59.765840
20
77.426725
11
59.858800
21
77.862532
0
LINE
8
Layer 1
10
59.858800
20
77.862532
11
59.858800
21
77.862532
0
LINE
8
Layer 1
10
60.742291
20
76.733643
11
61.124868
21
76.544416
0
LINE
8
Layer 1
10
61.124868
20
76.544416
11
61.218862
21
76.385008
0
LINE
8
Layer 1
10
61.218862
20
76.385008
11
60.899652
21
76.204143
0
LINE
8
Layer 1
10
60.899652
20
76.204143
11
60.501762
21
76.288027
0
LINE
8
Layer 1
10
60.501762
20
76.288027
11
60.497405
21
76.459557
0
LINE
8
Layer 1
10
60.497405
20
76.459557
11
60.742291
21
76.733643
0
LINE
8
Layer 1
10
60.742291
20
76.733643
11
60.742291
21
76.733643
0
LINE
8
Layer 1
10
75.283032
20
72.500309
11
75.655864
21
72.384144
0
LINE
8
Layer 1
10
75.655864
20
72.384144
11
75.620542
21
72.261782
0
LINE
8
Layer 1
10
75.620542
20
72.261782
11
74.928694
21
72.077243
0
LINE
8
Layer 1
10
74.928694
20
72.077243
11
74.414016
21
72.104237
0
LINE
8
Layer 1
10
74.414016
20
72.104237
11
75.283032
21
72.500309
0
LINE
8
Layer 1
10
75.283032
20
72.500309
11
75.283032
21
72.500309
0
LINE
8
Layer 1
10
76.608265
20
71.733018
11
77.882189
21
69.987038
0
LINE
8
Layer 1
10
77.882189
20
69.987038
11
79.249153
21
68.485972
0
LINE
8
Layer 1
10
79.249153
20
68.485972
11
80.703093
21
67.211514
0
LINE
8
Layer 1
10
80.703093
20
67.211514
11
82.237950
21
66.145354
0
LINE
8
Layer 1
10
82.237950
20
66.145354
11
83.847660
21
65.269185
0
LINE
8
Layer 1
10
83.847660
20
65.269185
11
85.526161
21
64.564700
0
LINE
8
Layer 1
10
85.526161
20
64.564700
11
87.267393
21
64.013590
0
LINE
8
Layer 1
10
87.267393
20
64.013590
11
89.065292
21
63.597547
0
LINE
8
Layer 1
10
89.065292
20
63.597547
11
92.806844
21
63.097432
0
LINE
8
Layer 1
10
92.806844
20
63.097432
11
96.702323
21
62.917893
0
LINE
8
Layer 1
10
96.702323
20
62.917893
11
104.761078
21
62.934686
0
LINE
8
Layer 1
10
104.761078
20
62.934686
11
111.290174
21
63.263250
0
LINE
8
Layer 1
10
111.290174
20
63.263250
11
117.821613
21
63.390407
0
LINE
8
Layer 1
10
117.821613
20
63.390407
11
130.888612
21
63.332694
0
LINE
8
Layer 1
10
130.888612
20
63.332694
11
143.956253
21
63.345932
0
LINE
8
Layer 1
10
143.956253
20
63.345932
11
150.488494
21
63.561779
0
LINE
8
Layer 1
10
150.488494
20
63.561779
11
157.018713
21
64.014508
0
LINE
8
Layer 1
10
157.018713
20
64.014508
11
164.332070
21
64.216778
0
LINE
8
Layer 1
10
164.332070
20
64.216778
11
171.645393
21
64.665731
0
LINE
8
Layer 1
10
171.645393
20
64.665731
11
186.269380
21
65.818665
0
LINE
8
Layer 1
10
186.269380
20
65.818665
11
193.578763
21
66.280135
0
LINE
8
Layer 1
10
193.578763
20
66.280135
11
200.885552
21
66.503266
0
LINE
8
Layer 1
10
200.885552
20
66.503266
11
208.189107
21
66.366802
0
LINE
8
Layer 1
10
208.189107
20
66.366802
11
215.488788
21
65.749489
0
LINE
8
Layer 1
10
215.488788
20
65.749489
11
226.775853
21
62.091579
0
LINE
8
Layer 1
10
226.775853
20
62.091579
11
232.227362
21
60.132666
0
LINE
8
Layer 1
10
232.227362
20
60.132666
11
234.650432
21
59.088582
0
LINE
8
Layer 1
10
234.650432
20
59.088582
11
236.774694
21
57.989171
0
LINE
8
Layer 1
10
236.774694
20
57.989171
11
235.544525
21
56.540960
0
LINE
8
Layer 1
10
235.544525
20
56.540960
11
234.155312
21
55.361853
0
LINE
8
Layer 1
10
234.155312
20
55.361853
11
232.624542
21
54.424321
0
LINE
8
Layer 1
10
232.624542
20
54.424321
11
230.969699
21
53.700833
0
LINE
8
Layer 1
10
230.969699
20
53.700833
11
229.208271
21
53.163859
0
LINE
8
Layer 1
10
229.208271
20
53.163859
11
227.357744
21
52.785870
0
LINE
8
Layer 1
10
227.357744
20
52.785870
11
223.459335
21
52.396724
0
LINE
8
Layer 1
10
223.459335
20
52.396724
11
219.414364
21
52.313154
0
LINE
8
Layer 1
10
219.414364
20
52.313154
11
215.362719
21
52.314919
0
LINE
8
Layer 1
10
215.362719
20
52.314919
11
211.444290
21
52.181779
0
LINE
8
Layer 1
10
211.444290
20
52.181779
11
207.798966
21
51.693493
0
LINE
8
Layer 1
10
207.798966
20
51.693493
11
202.697185
21
51.070071
0
LINE
8
Layer 1
10
202.697185
20
51.070071
11
197.618906
21
50.202833
0
LINE
8
Layer 1
10
197.618906
20
50.202833
11
187.483153
21
48.279864
0
LINE
8
Layer 1
10
187.483153
20
48.279864
11
182.400826
21
47.495610
0
LINE
8
Layer 1
10
182.400826
20
47.495610
11
177.292296
21
47.010493
0
LINE
8
Layer 1
10
177.292296
20
47.010493
11
172.145137
21
46.960251
0
LINE
8
Layer 1
10
172.145137
20
46.960251
11
169.553188
21
47.140627
0
LINE
8
Layer 1
10
169.553188
20
47.140627
11
166.946921
21
47.480624
0
LINE
8
Layer 1
10
166.946921
20
47.480624
11
151.705572
21
49.209542
0
LINE
8
Layer 1
10
151.705572
20
49.209542
11
136.412080
21
50.507806
0
LINE
8
Layer 1
10
136.412080
20
50.507806
11
121.088320
21
51.398183
0
LINE
8
Layer 1
10
121.088320
20
51.398183
11
105.756165
21
51.903441
0
LINE
8
Layer 1
10
105.756165
20
51.903441
11
102.754746
21
51.883386
0
LINE
8
Layer 1
10
102.754746
20
51.883386
11
99.695442
21
51.539315
0
LINE
8
Layer 1
10
99.695442
20
51.539315
11
93.758137
21
50.517447
0
LINE
8
Layer 1
10
93.758137
20
50.517447
11
91.057614
21
50.158810
0
LINE
8
Layer 1
10
91.057614
20
50.158810
11
88.654164
21
50.114477
0
LINE
8
Layer 1
10
88.654164
20
50.114477
11
87.591572
21
50.260044
0
LINE
8
Layer 1
10
87.591572
20
50.260044
11
86.636525
21
50.544029
0
LINE
8
Layer 1
10
86.636525
20
50.544029
11
85.800116
21
50.986380
0
LINE
8
Layer 1
10
85.800116
20
50.986380
11
85.093437
21
51.607045
0
LINE
8
Layer 1
10
85.093437
20
51.607045
11
83.694026
21
52.112543
0
LINE
8
Layer 1
10
83.694026
20
52.112543
11
82.568515
21
52.824792
0
LINE
8
Layer 1
10
82.568515
20
52.824792
11
81.637551
21
53.662538
0
LINE
8
Layer 1
10
81.637551
20
53.662538
11
80.821782
21
54.544529
0
LINE
8
Layer 1
10
80.821782
20
54.544529
11
80.041858
21
55.389513
0
LINE
8
Layer 1
10
80.041858
20
55.389513
11
79.218426
21
56.116237
0
LINE
8
Layer 1
10
79.218426
20
56.116237
11
78.272134
21
56.643448
0
LINE
8
Layer 1
10
78.272134
20
56.643448
11
77.123631
21
56.889893
0
LINE
8
Layer 1
10
77.123631
20
56.889893
11
76.140563
21
56.898900
0
LINE
8
Layer 1
10
76.140563
20
56.898900
11
75.433370
21
57.242611
0
LINE
8
Layer 1
10
75.433370
20
57.242611
11
74.978985
21
57.827073
0
LINE
8
Layer 1
10
74.978985
20
57.827073
11
74.754340
21
58.558331
0
LINE
8
Layer 1
10
74.754340
20
58.558331
11
74.736365
21
59.342431
0
LINE
8
Layer 1
10
74.736365
20
59.342431
11
74.901992
21
60.085420
0
LINE
8
Layer 1
10
74.901992
20
60.085420
11
75.228152
21
60.693344
0
LINE
8
Layer 1
10
75.228152
20
60.693344
11
75.691777
21
61.072248
0
LINE
8
Layer 1
10
75.691777
20
61.072248
11
74.765641
21
61.743973
0
LINE
8
Layer 1
10
74.765641
20
61.743973
11
74.324144
21
62.205789
0
LINE
8
Layer 1
10
74.324144
20
62.205789
11
74.304654
21
62.488496
0
LINE
8
Layer 1
10
74.304654
20
62.488496
11
74.644538
21
62.622895
0
LINE
8
Layer 1
10
74.644538
20
62.622895
11
76.151891
21
62.569970
0
LINE
8
Layer 1
10
76.151891
20
62.569970
11
78.345134
21
62.293416
0
LINE
8
Layer 1
10
78.345134
20
62.293416
11
80.723202
21
62.039638
0
LINE
8
Layer 1
10
80.723202
20
62.039638
11
82.785025
21
62.055039
0
LINE
8
Layer 1
10
82.785025
20
62.055039
11
83.540762
21
62.240683
0
LINE
8
Layer 1
10
83.540762
20
62.240683
11
84.029537
21
62.586023
0
LINE
8
Layer 1
10
84.029537
20
62.586023
11
84.188718
21
63.121860
0
LINE
8
Layer 1
10
84.188718
20
63.121860
11
83.955670
21
63.878993
0
LINE
8
Layer 1
10
83.955670
20
63.878993
11
82.023122
21
65.757539
0
LINE
8
Layer 1
10
82.023122
20
65.757539
11
79.851669
21
67.534928
0
LINE
8
Layer 1
10
79.851669
20
67.534928
11
77.895366
21
69.447856
0
LINE
8
Layer 1
10
77.895366
20
69.447856
11
77.139787
21
70.529114
0
LINE
8
Layer 1
10
77.139787
20
70.529114
11
76.608265
21
71.733018
0
LINE
8
Layer 1
10
76.608265
20
71.733018
11
76.608265
21
71.733018
0
LINE
8
Layer 1
10
75.191002
20
70.524754
11
75.450996
21
70.288153
0
LINE
8
Layer 1
10
75.450996
20
70.288153
11
75.488137
21
70.119154
0
LINE
8
Layer 1
10
75.488137
20
70.119154
11
75.190998
21
69.983957
0
LINE
8
Layer 1
10
75.190998
20
69.983957
11
74.893861
21
70.119159
0
LINE
8
Layer 1
10
74.893861
20
70.119159
11
74.931004
21
70.288158
0
LINE
8
Layer 1
10
74.931004
20
70.288158
11
75.191002
21
70.524754
0
LINE
8
Layer 1
10
75.191002
20
70.524754
11
75.191002
21
70.524754
0
LINE
8
Layer 1
10
65.951176
20
69.933851
11
66.283877
21
69.620784
0
LINE
8
Layer 1
10
66.283877
20
69.620784
11
66.193552
21
69.397068
0
LINE
8
Layer 1
10
66.193552
20
69.397068
11
65.399759
21
69.217883
0
LINE
8
Layer 1
10
65.399759
20
69.217883
11
65.024261
21
69.262511
0
LINE
8
Layer 1
10
65.024261
20
69.262511
11
64.881675
21
69.396683
0
LINE
8
Layer 1
10
64.881675
20
69.396683
11
65.135985
21
69.620447
0
LINE
8
Layer 1
10
65.135985
20
69.620447
11
65.951176
21
69.933851
0
LINE
8
Layer 1
10
65.951176
20
69.933851
11
65.951176
21
69.933851
0
LINE
8
Layer 1
10
246.606212
20
69.342948
11
248.856487
21
69.196583
0
LINE
8
Layer 1
10
248.856487
20
69.196583
11
250.565923
21
68.865861
0
LINE
8
Layer 1
10
250.565923
20
68.865861
11
251.691185
21
68.440197
0
LINE
8
Layer 1
10
251.691185
20
68.440197
11
252.188939
21
68.009004
0
LINE
8
Layer 1
10
252.188939
20
68.009004
11
252.188957
21
67.819277
0
LINE
8
Layer 1
10
252.188957
20
67.819277
11
252.015848
21
67.661697
0
LINE
8
Layer 1
10
252.015848
20
67.661697
11
251.128577
21
67.487689
0
LINE
8
Layer 1
10
251.128577
20
67.487689
11
249.483792
21
67.576394
0
LINE
8
Layer 1
10
249.483792
20
67.576394
11
247.038156
21
68.017226
0
LINE
8
Layer 1
10
247.038156
20
68.017226
11
238.690161
21
67.681155
0
LINE
8
Layer 1
10
238.690161
20
67.681155
11
237.895973
21
67.731601
0
LINE
8
Layer 1
10
237.895973
20
67.731601
11
237.883089
21
67.810325
0
LINE
8
Layer 1
10
237.883089
20
67.810325
11
238.172474
21
67.932796
0
LINE
8
Layer 1
10
238.172474
20
67.932796
11
243.044670
21
68.981351
0
LINE
8
Layer 1
10
243.044670
20
68.981351
11
244.804274
21
69.240233
0
LINE
8
Layer 1
10
244.804274
20
69.240233
11
246.606218
21
69.342948
0
LINE
8
Layer 1
10
246.606218
20
69.342948
11
246.606212
21
69.342948
0
LINE
8
Layer 1
10
246.606212
20
69.342948
11
246.606212
21
69.342948
0
LINE
8
Layer 1
10
64.543133
20
68.355170
11
65.574423
21
67.771123
0
LINE
8
Layer 1
10
65.574423
20
67.771123
11
65.782896
21
67.366209
0
LINE
8
Layer 1
10
65.782896
20
67.366209
11
65.432632
21
67.134297
0
LINE
8
Layer 1
10
65.432632
20
67.134297
11
64.787714
21
67.069255
0
LINE
8
Layer 1
10
64.787714
20
67.069255
11
64.112223
21
67.164953
0
LINE
8
Layer 1
10
64.112223
20
67.164953
11
63.670241
21
67.415259
0
LINE
8
Layer 1
10
63.670241
20
67.415259
11
63.619342
21
67.596474
0
LINE
8
Layer 1
10
63.619342
20
67.596474
11
63.725851
21
67.814042
0
LINE
8
Layer 1
10
63.725851
20
67.814042
11
64.543133
21
68.355170
0
LINE
8
Layer 1
10
64.543133
20
68.355170
11
64.543133
21
68.355170
0
LINE
8
Layer 1
10
68.159898
20
68.205240
11
68.830773
21
67.886799
0
LINE
8
Layer 1
10
68.830773
20
67.886799
11
69.034147
21
67.667105
0
LINE
8
Layer 1
10
69.034147
20
67.667105
11
68.907932
21
67.542278
0
LINE
8
Layer 1
10
68.907932
20
67.542278
11
68.590038
21
67.508433
0
LINE
8
Layer 1
10
68.590038
20
67.508433
11
67.930858
21
67.698165
0
LINE
8
Layer 1
10
67.930858
20
67.698165
11
67.865395
21
67.913976
0
LINE
8
Layer 1
10
67.865395
20
67.913976
11
68.159898
21
68.205240
0
LINE
8
Layer 1
10
68.159898
20
68.205240
11
68.159898
21
68.205240
0
LINE
8
Layer 1
10
67.009541
20
67.393851
11
67.787007
21
65.853924
0
LINE
8
Layer 1
10
67.787007
20
65.853924
11
67.945902
21
64.959063
0
LINE
8
Layer 1
10
67.945902
20
64.959063
11
67.684445
21
64.606724
0
LINE
8
Layer 1
10
67.684445
20
64.606724
11
67.200855
21
64.694364
0
LINE
8
Layer 1
10
67.200855
20
64.694364
11
66.693351
21
65.119441
0
LINE
8
Layer 1
10
66.693351
20
65.119441
11
66.360151
21
65.779410
0
LINE
8
Layer 1
10
66.360151
20
65.779410
11
66.399475
21
66.571727
0
LINE
8
Layer 1
10
66.399475
20
66.571727
11
67.009541
21
67.393851
0
LINE
8
Layer 1
10
67.009541
20
67.393851
11
67.009541
21
67.393851
0
LINE
8
Layer 1
10
175.025219
20
66.573643
11
175.407085
21
66.344046
0
LINE
8
Layer 1
10
175.407085
20
66.344046
11
175.461639
21
66.180049
0
LINE
8
Layer 1
10
175.461639
20
66.180049
11
175.025228
21
66.048854
0
LINE
8
Layer 1
10
175.025228
20
66.048854
11
174.588812
21
66.180053
0
LINE
8
Layer 1
10
174.588812
20
66.180053
11
174.643361
21
66.344050
0
LINE
8
Layer 1
10
174.643361
20
66.344050
11
175.025219
21
66.573643
0
LINE
8
Layer 1
10
175.025219
20
66.573643
11
175.025219
21
66.573643
0
LINE
8
Layer 1
10
62.067522
20
66.291420
11
62.450100
21
66.102193
0
LINE
8
Layer 1
10
62.450100
20
66.102193
11
62.544095
21
65.942786
0
LINE
8
Layer 1
10
62.544095
20
65.942786
11
62.224884
21
65.761920
0
LINE
8
Layer 1
10
62.224884
20
65.761920
11
61.826993
21
65.845805
0
LINE
8
Layer 1
10
61.826993
20
65.845805
11
61.822636
21
66.017335
0
LINE
8
Layer 1
10
61.822636
20
66.017335
11
62.067522
21
66.291420
0
LINE
8
Layer 1
10
62.067522
20
66.291420
11
62.067522
21
66.291420
0
LINE
8
Layer 1
10
73.111123
20
66.291420
11
73.460306
21
65.899387
0
LINE
8
Layer 1
10
73.460306
20
65.899387
11
73.281935
21
65.739529
0
LINE
8
Layer 1
10
73.281935
20
65.739529
11
73.018158
21
65.855617
0
LINE
8
Layer 1
10
73.018158
20
65.855617
11
73.111123
21
66.291420
0
LINE
8
Layer 1
10
73.111123
20
66.291420
11
73.111123
21
66.291420
0
LINE
8
Layer 1
10
75.632747
20
65.550587
11
77.080507
21
65.069804
0
LINE
8
Layer 1
10
77.080507
20
65.069804
11
77.661022
21
64.655363
0
LINE
8
Layer 1
10
77.661022
20
64.655363
11
77.601092
21
64.342774
0
LINE
8
Layer 1
10
77.601092
20
64.342774
11
77.127516
21
64.167553
0
LINE
8
Layer 1
10
77.127516
20
64.167553
11
76.467095
21
64.165211
0
LINE
8
Layer 1
10
76.467095
20
64.165211
11
75.846627
21
64.371260
0
LINE
8
Layer 1
10
75.846627
20
64.371260
11
75.492911
21
64.821215
0
LINE
8
Layer 1
10
75.492911
20
64.821215
11
75.632747
21
65.550587
0
LINE
8
Layer 1
10
75.632747
20
65.550587
11
75.632747
21
65.550587
0
LINE
8
Layer 1
10
69.264268
20
65.162532
11
69.557433
21
64.439288
0
LINE
8
Layer 1
10
69.557433
20
64.439288
11
69.617927
21
64.001612
0
LINE
8
Layer 1
10
69.617927
20
64.001612
11
69.520204
21
63.810042
0
LINE
8
Layer 1
10
69.520204
20
63.810042
11
69.338719
21
63.825113
0
LINE
8
Layer 1
10
69.338719
20
63.825113
11
69.022286
21
64.317322
0
LINE
8
Layer 1
10
69.022286
20
64.317322
11
69.036247
21
64.715534
0
LINE
8
Layer 1
10
69.036247
20
64.715534
11
69.264268
21
65.162532
0
LINE
8
Layer 1
10
69.264268
20
65.162532
11
69.264268
21
65.162532
0
LINE
8
Layer 1
10
242.676545
20
64.845032
11
244.881370
21
64.465087
0
LINE
8
Layer 1
10
244.881370
20
64.465087
11
246.690537
21
63.905316
0
LINE
8
Layer 1
10
246.690537
20
63.905316
11
248.012701
21
63.295264
0
LINE
8
Layer 1
10
248.012701
20
63.295264
11
248.756518
21
62.764474
0
LINE
8
Layer 1
10
248.756518
20
62.764474
11
248.883001
21
62.569285
0
LINE
8
Layer 1
10
248.883001
20
62.569285
11
248.830642
21
62.442491
0
LINE
8
Layer 1
10
248.830642
20
62.442491
11
248.143728
21
62.458859
0
LINE
8
Layer 1
10
248.143728
20
62.458859
11
246.604431
21
62.943122
0
LINE
8
Layer 1
10
246.604431
20
62.943122
11
244.121407
21
64.024823
0
LINE
8
Layer 1
10
244.121407
20
64.024823
11
242.950223
21
64.064484
0
LINE
8
Layer 1
10
242.950223
20
64.064484
11
241.595346
21
64.352967
0
LINE
8
Layer 1
10
241.595346
20
64.352967
11
241.188244
21
64.525566
0
LINE
8
Layer 1
10
241.188244
20
64.525566
11
241.142284
21
64.682430
0
LINE
8
Layer 1
10
241.142284
20
64.682430
11
242.676545
21
64.845032
0
LINE
8
Layer 1
10
242.676545
20
64.845032
11
242.676545
21
64.845032
0
LINE
8
Layer 1
10
71.334952
20
64.262948
11
72.473695
21
63.936041
0
LINE
8
Layer 1
10
72.473695
20
63.936041
11
72.992935
21
63.580784
0
LINE
8
Layer 1
10
72.992935
20
63.580784
11
73.039745
21
63.258054
0
LINE
8
Layer 1
10
73.039745
20
63.258054
11
72.761200
21
63.028726
0
LINE
8
Layer 1
10
72.761200
20
63.028726
11
72.304373
21
62.953676
0
LINE
8
Layer 1
10
72.304373
20
62.953676
11
71.816340
21
63.093779
0
LINE
8
Layer 1
10
71.816340
20
63.093779
11
71.444175
21
63.509911
0
LINE
8
Layer 1
10
71.444175
20
63.509911
11
71.334952
21
64.262948
0
LINE
8
Layer 1
10
71.334952
20
64.262948
11
71.334952
21
64.262948
0
LINE
8
Layer 1
10
80.280276
20
63.883712
11
81.636659
21
63.609834
0
LINE
8
Layer 1
10
81.636659
20
63.609834
11
81.591891
21
63.482843
0
LINE
8
Layer 1
10
81.591891
20
63.482843
11
81.269877
21
63.393696
0
LINE
8
Layer 1
10
81.269877
20
63.393696
11
80.408294
21
63.422567
0
LINE
8
Layer 1
10
80.408294
20
63.422567
11
80.175817
21
63.587401
0
LINE
8
Layer 1
10
80.175817
20
63.587401
11
80.280276
21
63.883712
0
LINE
8
Layer 1
10
80.280276
20
63.883712
11
80.280276
21
63.883712
0
LINE
8
Layer 1
10
70.184566
20
63.751420
11
70.491486
21
63.510280
0
LINE
8
Layer 1
10
70.491486
20
63.510280
11
70.194979
21
63.362573
0
LINE
8
Layer 1
10
70.194979
20
63.362573
11
69.893265
21
63.409289
0
LINE
8
Layer 1
10
69.893265
20
63.409289
11
70.184566
21
63.751420
0
LINE
8
Layer 1
10
70.184566
20
63.751420
11
70.184566
21
63.751420
0
LINE
8
Layer 1
10
67.230413
20
63.742601
11
68.475526
21
63.216602
0
LINE
8
Layer 1
10
68.475526
20
63.216602
11
69.169305
21
62.639052
0
LINE
8
Layer 1
10
69.169305
20
62.639052
11
69.409545
21
62.110870
0
LINE
8
Layer 1
10
69.409545
20
62.110870
11
69.294037
21
61.732974
0
LINE
8
Layer 1
10
69.294037
20
61.732974
11
68.920577
21
61.606281
0
LINE
8
Layer 1
10
68.920577
20
61.606281
11
68.386957
21
61.831710
0
LINE
8
Layer 1
10
68.386957
20
61.831710
11
67.790972
21
62.510177
0
LINE
8
Layer 1
10
67.790972
20
62.510177
11
67.230413
21
63.742601
0
LINE
8
Layer 1
10
67.230413
20
63.742601
11
67.230413
21
63.742601
0
LINE
8
Layer 1
10
70.028125
20
61.749407
11
72.154730
21
61.351821
0
LINE
8
Layer 1
10
72.154730
20
61.351821
11
73.288063
21
60.884006
0
LINE
8
Layer 1
10
73.288063
20
60.884006
11
73.633946
21
60.424316
0
LINE
8
Layer 1
10
73.633946
20
60.424316
11
73.398205
21
60.051107
0
LINE
8
Layer 1
10
73.398205
20
60.051107
11
72.786663
21
59.842732
0
LINE
8
Layer 1
10
72.786663
20
59.842732
11
72.005147
21
59.877548
0
LINE
8
Layer 1
10
72.005147
20
59.877548
11
71.259479
21
60.233909
0
LINE
8
Layer 1
10
71.259479
20
60.233909
11
70.755485
21
60.990170
0
LINE
8
Layer 1
10
70.755485
20
60.990170
11
70.136948
21
61.289962
0
LINE
8
Layer 1
10
70.136948
20
61.289962
11
69.896796
21
61.474453
0
LINE
8
Layer 1
10
69.896796
20
61.474453
11
70.028125
21
61.749407
0
LINE
8
Layer 1
10
70.028125
20
61.749407
11
70.028125
21
61.749407
0
LINE
8
Layer 1
10
71.528206
20
55.575795
11
72.295787
21
55.203917
0
LINE
8
Layer 1
10
72.295787
20
55.203917
11
72.660960
21
54.857063
0
LINE
8
Layer 1
10
72.660960
20
54.857063
11
72.715275
21
54.575847
0
LINE
8
Layer 1
10
72.715275
20
54.575847
11
72.550282
21
54.400881
0
LINE
8
Layer 1
10
72.550282
20
54.400881
11
72.257529
21
54.372780
0
LINE
8
Layer 1
10
72.257529
20
54.372780
11
71.928566
21
54.532157
0
LINE
8
Layer 1
10
71.928566
20
54.532157
11
71.654942
21
54.919624
0
LINE
8
Layer 1
10
71.654942
20
54.919624
11
71.528206
21
55.575795
0
LINE
8
Layer 1
10
71.528206
20
55.575795
11
71.528206
21
55.575795
0
LINE
8
Layer 1
10
294.949654
20
44.983643
11
294.706105
21
43.324964
0
LINE
8
Layer 1
10
294.706105
20
43.324964
11
294.325384
21
42.284269
0
LINE
8
Layer 1
10
294.325384
20
42.284269
11
293.882928
21
41.786712
0
LINE
8
Layer 1
10
293.882928
20
41.786712
11
293.454173
21
41.757447
0
LINE
8
Layer 1
10
293.454173
20
41.757447
11
293.114556
21
42.121628
0
LINE
8
Layer 1
10
293.114556
20
42.121628
11
292.939514
21
42.804410
0
LINE
8
Layer 1
10
292.939514
20
42.804410
11
293.004484
21
43.730949
0
LINE
8
Layer 1
10
293.004484
20
43.730949
11
293.384901
21
44.826397
0
LINE
8
Layer 1
10
293.384901
20
44.826397
11
293.244096
21
43.768022
0
LINE
8
Layer 1
10
293.244096
20
43.768022
11
293.407566
21
43.684361
0
LINE
8
Layer 1
10
293.407566
20
43.684361
11
293.673153
21
43.806461
0
LINE
8
Layer 1
10
293.673153
20
43.806461
11
294.949654
21
44.983643
0
LINE
8
Layer 1
10
294.949654
20
44.983643
11
294.949654
21
44.983643
0
LINE
8
Layer 1
10
286.694513
20
44.533851
11
284.730027
21
43.893248
0
LINE
8
Layer 1
10
284.730027
20
43.893248
11
283.451194
21
43.228237
0
LINE
8
Layer 1
10
283.451194
20
43.228237
11
282.797966
21
42.641748
0
LINE
8
Layer 1
10
282.797966
20
42.641748
11
282.710293
21
42.236714
0
LINE
8
Layer 1
10
282.710293
20
42.236714
11
283.128126
21
42.116066
0
LINE
8
Layer 1
10
283.128126
20
42.116066
11
283.991417
21
42.382735
0
LINE
8
Layer 1
10
283.991417
20
42.382735
11
285.240116
21
43.139654
0
LINE
8
Layer 1
10
285.240116
20
43.139654
11
286.814175
21
44.489754
0
LINE
8
Layer 1
10
286.814175
20
44.489754
11
286.694513
21
44.533851
0
LINE
8
Layer 1
10
286.694513
20
44.533851
11
286.694513
21
44.533851
0
LINE
8
Layer 1
10
286.694513
20
44.533851
11
286.694513
21
44.533851
0
LINE
8
Layer 1
10
279.700225
20
43.713643
11
279.607317
21
43.277797
0
LINE
8
Layer 1
10
279.607317
20
43.277797
11
279.871083
21
43.161767
0
LINE
8
Layer 1
10
279.871083
20
43.161767
11
280.049420
21
43.321676
0
LINE
8
Layer 1
10
280.049420
20
43.321676
11
279.700225
21
43.713643
0
LINE
8
Layer 1
10
279.700225
20
43.713643
11
279.700225
21
43.713643
0
LINE
8
Layer 1
10
227.178681
20
43.016907
11
227.140669
21
42.527361
0
LINE
8
Layer 1
10
227.140669
20
42.527361
11
226.968947
21
42.139907
0
LINE
8
Layer 1
10
226.968947
20
42.139907
11
226.343322
21
41.639711
0
LINE
8
Layer 1
10
226.343322
20
41.639711
11
225.539714
21
41.453204
0
LINE
8
Layer 1
10
225.539714
20
41.453204
11
224.796030
21
41.517267
0
LINE
8
Layer 1
10
224.796030
20
41.517267
11
224.350178
21
41.768786
0
LINE
8
Layer 1
10
224.350178
20
41.768786
11
224.313285
21
41.945117
0
LINE
8
Layer 1
10
224.313285
20
41.945117
11
224.440064
21
42.144643
0
LINE
8
Layer 1
10
224.440064
20
42.144643
11
225.303597
21
42.581722
0
LINE
8
Layer 1
10
225.303597
20
42.581722
11
227.178684
21
43.016907
0
LINE
8
Layer 1
10
227.178684
20
43.016907
11
227.178681
21
43.016907
0
LINE
8
Layer 1
10
227.178681
20
43.016907
11
227.178681
21
43.016907
0
LINE
8
Layer 1
10
71.509800
20
42.011490
11
72.605849
21
41.430042
0
LINE
8
Layer 1
10
72.605849
20
41.430042
11
72.772853
21
41.219661
0
LINE
8
Layer 1
10
72.772853
20
41.219661
11
72.742915
21
41.097519
0
LINE
8
Layer 1
10
72.742915
20
41.097519
11
72.263422
21
41.221981
0
LINE
8
Layer 1
10
72.263422
20
41.221981
11
71.509800
21
42.011490
0
LINE
8
Layer 1
10
71.509800
20
42.011490
11
71.509800
21
42.011490
0
LINE
8
Layer 1
10
230.565387
20
41.888018
11
230.825385
21
41.651418
0
LINE
8
Layer 1
10
230.825385
20
41.651418
11
230.862528
21
41.482419
0
LINE
8
Layer 1
10
230.862528
20
41.482419
11
230.565391
21
41.347222
0
LINE
8
Layer 1
10
230.565391
20
41.347222
11
230.268252
21
41.482423
0
LINE
8
Layer 1
10
230.268252
20
41.482423
11
230.305393
21
41.651421
0
LINE
8
Layer 1
10
230.305393
20
41.651421
11
230.565387
21
41.888018
0
LINE
8
Layer 1
10
230.565387
20
41.888018
11
230.565387
21
41.888018
0
LINE
8
Layer 1
10
227.279897
20
41.288295
11
229.115135
21
41.146129
0
LINE
8
Layer 1
10
229.115135
20
41.146129
11
229.841299
21
40.964038
0
LINE
8
Layer 1
10
229.841299
20
40.964038
11
229.879840
21
40.870606
0
LINE
8
Layer 1
10
229.879840
20
40.870606
11
229.750747
21
40.782294
0
LINE
8
Layer 1
10
229.750747
20
40.782294
11
229.135842
21
40.641170
0
LINE
8
Layer 1
10
229.135842
20
40.641170
11
227.502413
21
40.641865
0
LINE
8
Layer 1
10
227.502413
20
40.641865
11
227.068611
21
40.864228
0
LINE
8
Layer 1
10
227.068611
20
40.864228
11
227.075345
21
41.048531
0
LINE
8
Layer 1
10
227.075345
20
41.048531
11
227.279897
21
41.288295
0
LINE
8
Layer 1
10
227.279897
20
41.288295
11
227.279897
21
41.288295
0
LINE
8
Layer 1
10
245.998814
20
41.173643
11
245.707525
21
40.831505
0
LINE
8
Layer 1
10
245.707525
20
40.831505
11
246.009240
21
40.784796
0
LINE
8
Layer 1
10
246.009240
20
40.784796
11
246.305743
21
40.932511
0
LINE
8
Layer 1
10
246.305743
20
40.932511
11
245.998814
21
41.173643
0
LINE
8
Layer 1
10
245.998814
20
41.173643
11
245.998814
21
41.173643
0
LINE
8
Layer 1
10
226.193943
20
40.688573
11
227.395916
21
40.161417
0
LINE
8
Layer 1
10
227.395916
20
40.161417
11
228.529381
21
39.821084
0
LINE
8
Layer 1
10
228.529381
20
39.821084
11
230.074489
21
39.532719
0
LINE
8
Layer 1
10
230.074489
20
39.532719
11
230.227981
21
39.500604
0
LINE
8
Layer 1
10
230.227981
20
39.500604
11
229.796666
21
39.487143
0
LINE
8
Layer 1
10
229.796666
20
39.487143
11
226.663315
21
39.348018
0
LINE
8
Layer 1
10
226.663315
20
39.348018
11
225.245792
21
39.752499
0
LINE
8
Layer 1
10
225.245792
20
39.752499
11
224.480883
21
40.082199
0
LINE
8
Layer 1
10
224.480883
20
40.082199
11
224.443551
21
40.232390
0
LINE
8
Layer 1
10
224.443551
20
40.232390
11
224.689846
21
40.379947
0
LINE
8
Layer 1
10
224.689846
20
40.379947
11
226.193943
21
40.688573
0
LINE
8
Layer 1
10
226.193943
20
40.688573
11
226.193943
21
40.688573
0
LINE
8
Layer 1
10
216.254694
20
40.600379
11
217.619505
21
39.782668
0
LINE
8
Layer 1
10
217.619505
20
39.782668
11
217.714889
21
39.521503
0
LINE
8
Layer 1
10
217.714889
20
39.521503
11
217.509345
21
39.346474
0
LINE
8
Layer 1
10
217.509345
20
39.346474
11
216.466728
21
39.217855
0
LINE
8
Layer 1
10
216.466728
20
39.217855
11
215.034165
21
39.322867
0
LINE
8
Layer 1
10
215.034165
20
39.322867
11
213.754168
21
39.587568
0
LINE
8
Layer 1
10
213.754168
20
39.587568
11
213.169249
21
39.938015
0
LINE
8
Layer 1
10
213.169249
20
39.938015
11
213.306979
21
40.122287
0
LINE
8
Layer 1
10
213.306979
20
40.122287
11
213.821920
21
40.300266
0
LINE
8
Layer 1
10
213.821920
20
40.300266
11
216.254694
21
40.600379
0
LINE
8
Layer 1
10
216.254694
20
40.600379
11
216.254694
21
40.600379
0
LINE
8
Layer 1
10
79.479606
20
40.044757
11
80.615377
21
39.343670
0
LINE
8
Layer 1
10
80.615377
20
39.343670
11
80.830156
21
39.038572
0
LINE
8
Layer 1
10
80.830156
20
39.038572
11
80.857001
21
38.769856
0
LINE
8
Layer 1
10
80.857001
20
38.769856
11
80.489299
21
38.359832
0
LINE
8
Layer 1
10
80.489299
20
38.359832
11
79.797091
21
38.150119
0
LINE
8
Layer 1
10
79.797091
20
38.150119
11
79.065197
21
38.177235
0
LINE
8
Layer 1
10
79.065197
20
38.177235
11
78.578438
21
38.477701
0
LINE
8
Layer 1
10
78.578438
20
38.477701
11
78.515991
21
38.741852
0
LINE
8
Layer 1
10
78.515991
20
38.741852
11
78.621634
21
39.088035
0
LINE
8
Layer 1
10
78.621634
20
39.088035
11
79.479606
21
40.044757
0
LINE
8
Layer 1
10
79.479606
20
40.044757
11
79.479606
21
40.044757
0
LINE
8
Layer 1
10
253.223192
20
39.965382
11
248.932249
21
37.278656
0
LINE
8
Layer 1
10
248.932249
20
37.278656
11
244.814328
21
34.325423
0
LINE
8
Layer 1
10
244.814328
20
34.325423
11
236.773221
21
28.121012
0
LINE
8
Layer 1
10
236.773221
20
28.121012
11
232.687872
21
25.120620
0
LINE
8
Layer 1
10
232.687872
20
25.120620
11
228.451217
21
22.355297
0
LINE
8
Layer 1
10
228.451217
20
22.355297
11
223.982174
21
19.950434
0
LINE
8
Layer 1
10
223.982174
20
19.950434
11
221.635168
21
18.922361
0
LINE
8
Layer 1
10
221.635168
20
18.922361
11
219.199660
21
18.031426
0
LINE
8
Layer 1
10
219.199660
20
18.031426
11
216.909472
21
17.333312
0
LINE
8
Layer 1
10
216.909472
20
17.333312
11
214.839973
21
16.482052
0
LINE
8
Layer 1
10
214.839973
20
16.482052
11
213.168383
21
15.616465
0
LINE
8
Layer 1
10
213.168383
20
15.616465
11
212.071921
21
14.875375
0
LINE
8
Layer 1
10
212.071921
20
14.875375
11
211.727808
21
14.397602
0
LINE
8
Layer 1
10
211.727808
20
14.397602
11
211.893263
21
14.300841
0
LINE
8
Layer 1
10
211.893263
20
14.300841
11
212.313262
21
14.321967
0
LINE
8
Layer 1
10
212.313262
20
14.321967
11
214.005504
21
14.787292
0
LINE
8
Layer 1
10
214.005504
20
14.787292
11
216.981752
21
15.932398
0
LINE
8
Layer 1
10
216.981752
20
15.932398
11
225.739669
21
19.823535
0
LINE
8
Layer 1
10
225.739669
20
19.823535
11
229.920440
21
21.929421
0
LINE
8
Layer 1
10
229.920440
20
21.929421
11
234.347811
21
24.522537
0
LINE
8
Layer 1
10
234.347811
20
24.522537
11
239.459068
21
27.951406
0
LINE
8
Layer 1
10
239.459068
20
27.951406
11
244.318356
21
31.781601
0
LINE
8
Layer 1
10
244.318356
20
31.781601
11
248.911217
21
35.842975
0
LINE
8
Layer 1
10
248.911217
20
35.842975
11
253.223192
21
39.965382
0
LINE
8
Layer 1
10
253.223192
20
39.965382
11
253.223192
21
39.965382
0
LINE
8
Layer 1
10
287.108674
20
38.351423
11
286.374836
21
37.129726
0
LINE
8
Layer 1
10
286.374836
20
37.129726
11
285.692509
21
36.304002
0
LINE
8
Layer 1
10
285.692509
20
36.304002
11
285.140772
21
35.850793
0
LINE
8
Layer 1
10
285.140772
20
35.850793
11
284.798703
21
35.746641
0
LINE
8
Layer 1
10
284.798703
20
35.746641
11
284.745380
21
35.968086
0
LINE
8
Layer 1
10
284.745380
20
35.968086
11
285.059882
21
36.491670
0
LINE
8
Layer 1
10
285.059882
20
36.491670
11
285.821288
21
37.293936
0
LINE
8
Layer 1
10
285.821288
20
37.293936
11
287.108674
21
38.351423
0
LINE
8
Layer 1
10
287.108674
20
38.351423
11
287.108674
21
38.351423
0
LINE
8
Layer 1
10
214.901870
20
38.175034
11
214.903055
21
37.123233
0
LINE
8
Layer 1
10
214.903055
20
37.123233
11
214.663478
21
36.297447
0
LINE
8
Layer 1
10
214.663478
20
36.297447
11
214.174934
21
35.368974
0
LINE
8
Layer 1
10
214.174934
20
35.368974
11
214.282411
21
35.288816
0
LINE
8
Layer 1
10
214.282411
20
35.288816
11
214.862019
21
35.479727
0
LINE
8
Layer 1
10
214.862019
20
35.479727
11
218.150519
21
36.719815
0
LINE
8
Layer 1
10
218.150519
20
36.719815
11
215.922637
21
34.557951
0
LINE
8
Layer 1
10
215.922637
20
34.557951
11
213.427950
21
32.500967
0
LINE
8
Layer 1
10
213.427950
20
32.500967
11
210.705687
21
30.577054
0
LINE
8
Layer 1
10
210.705687
20
30.577054
11
207.795074
21
28.814404
0
LINE
8
Layer 1
10
207.795074
20
28.814404
11
204.735340
21
27.241210
0
LINE
8
Layer 1
10
204.735340
20
27.241210
11
201.565712
21
25.885662
0
LINE
8
Layer 1
10
201.565712
20
25.885662
11
198.325419
21
24.775954
0
LINE
8
Layer 1
10
198.325419
20
24.775954
11
195.053687
21
23.940276
0
LINE
8
Layer 1
10
195.053687
20
23.940276
11
192.335219
21
23.765489
0
LINE
8
Layer 1
10
192.335219
20
23.765489
11
191.852647
21
23.859895
0
LINE
8
Layer 1
10
191.852647
20
23.859895
11
191.865171
21
24.060077
0
LINE
8
Layer 1
10
191.865171
20
24.060077
11
193.107473
21
24.731496
0
LINE
8
Layer 1
10
193.107473
20
24.731496
11
195.526057
21
25.687206
0
LINE
8
Layer 1
10
195.526057
20
25.687206
11
201.747793
21
28.081331
0
LINE
8
Layer 1
10
201.747793
20
28.081331
11
204.478808
21
29.334664
0
LINE
8
Layer 1
10
204.478808
20
29.334664
11
205.514821
21
29.934910
0
LINE
8
Layer 1
10
205.514821
20
29.934910
11
206.241828
21
30.502121
0
LINE
8
Layer 1
10
206.241828
20
30.502121
11
208.482974
21
32.349469
0
LINE
8
Layer 1
10
208.482974
20
32.349469
11
210.858539
21
34.080195
0
LINE
8
Layer 1
10
210.858539
20
34.080195
11
213.090759
21
35.940113
0
LINE
8
Layer 1
10
213.090759
20
35.940113
11
214.066314
21
36.995335
0
LINE
8
Layer 1
10
214.066314
20
36.995335
11
214.901870
21
38.175034
0
LINE
8
Layer 1
10
214.901870
20
38.175034
11
214.901870
21
38.175034
0
LINE
8
Layer 1
10
76.056086
20
37.222534
11
76.438662
21
37.033305
0
LINE
8
Layer 1
10
76.438662
20
37.033305
11
76.532655
21
36.873897
0
LINE
8
Layer 1
10
76.532655
20
36.873897
11
76.213443
21
36.693035
0
LINE
8
Layer 1
10
76.213443
20
36.693035
11
75.815552
21
36.776923
0
LINE
8
Layer 1
10
75.815552
20
36.776923
11
75.811197
21
36.948452
0
LINE
8
Layer 1
10
75.811197
20
36.948452
11
76.056086
21
37.222534
0
LINE
8
Layer 1
10
76.056086
20
37.222534
11
76.056086
21
37.222534
0
LINE
8
Layer 1
10
82.995155
20
36.940312
11
85.343311
21
36.312559
0
LINE
8
Layer 1
10
85.343311
20
36.312559
11
85.938658
21
36.030205
0
LINE
8
Layer 1
10
85.938658
20
36.030205
11
86.215290
21
35.776198
0
LINE
8
Layer 1
10
86.215290
20
35.776198
11
86.223537
21
35.556034
0
LINE
8
Layer 1
10
86.223537
20
35.556034
11
86.013729
21
35.375211
0
LINE
8
Layer 1
10
86.013729
20
35.375211
11
85.141266
21
35.153583
0
LINE
8
Layer 1
10
85.141266
20
35.153583
11
84.000540
21
35.155296
0
LINE
8
Layer 1
10
84.000540
20
35.155296
11
82.994187
21
35.424333
0
LINE
8
Layer 1
10
82.994187
20
35.424333
11
82.667225
21
35.672843
0
LINE
8
Layer 1
10
82.667225
20
35.672843
11
82.524846
21
36.004677
0
LINE
8
Layer 1
10
82.524846
20
36.004677
11
82.617379
21
36.425335
0
LINE
8
Layer 1
10
82.617379
20
36.425335
11
82.995155
21
36.940312
0
LINE
8
Layer 1
10
82.995155
20
36.940312
11
82.995155
21
36.940312
0
LINE
8
Layer 1
10
271.914482
20
36.940312
11
272.174482
21
36.703712
0
LINE
8
Layer 1
10
272.174482
20
36.703712
11
272.211628
21
36.534714
0
LINE
8
Layer 1
10
272.211628
20
36.534714
11
271.914492
21
36.399520
0
LINE
8
Layer 1
10
271.914492
20
36.399520
11
271.617352
21
36.534721
0
LINE
8
Layer 1
10
271.617352
20
36.534721
11
271.654491
21
36.703719
0
LINE
8
Layer 1
10
271.654491
20
36.703719
11
271.914482
21
36.940312
0
LINE
8
Layer 1
10
271.914482
20
36.940312
11
271.914482
21
36.940312
0
LINE
8
Layer 1
10
257.898319
20
36.605173
11
255.920434
21
33.866173
0
LINE
8
Layer 1
10
255.920434
20
33.866173
11
253.664147
21
31.218466
0
LINE
8
Layer 1
10
253.664147
20
31.218466
11
251.171098
21
28.674442
0
LINE
8
Layer 1
10
251.171098
20
28.674442
11
248.482924
21
26.246492
0
LINE
8
Layer 1
10
248.482924
20
26.246492
11
245.641264
21
23.947006
0
LINE
8
Layer 1
10
245.641264
20
23.947006
11
242.687756
21
21.788373
0
LINE
8
Layer 1
10
242.687756
20
21.788373
11
239.664040
21
19.782985
0
LINE
8
Layer 1
10
239.664040
20
19.782985
11
236.611753
21
17.943232
0
LINE
8
Layer 1
10
236.611753
20
17.943232
11
230.927794
21
15.347848
0
LINE
8
Layer 1
10
230.927794
20
15.347848
11
224.218896
21
12.577868
0
LINE
8
Layer 1
10
224.218896
20
12.577868
11
217.991358
21
10.369493
0
LINE
8
Layer 1
10
217.991358
20
10.369493
11
215.528816
21
9.705970
0
LINE
8
Layer 1
10
215.528816
20
9.705970
11
213.751476
21
9.458923
0
LINE
8
Layer 1
10
213.751476
20
9.458923
11
213.126584
21
9.364263
0
LINE
8
Layer 1
10
213.126584
20
9.364263
11
211.737890
21
8.892882
0
LINE
8
Layer 1
10
211.737890
20
8.892882
11
207.340300
21
7.389367
0
LINE
8
Layer 1
10
207.340300
20
7.389367
11
204.667006
21
6.641936
0
LINE
8
Layer 1
10
204.667006
20
6.641936
11
201.901112
21
6.087192
0
LINE
8
Layer 1
10
201.901112
20
6.087192
11
199.210419
21
5.867488
0
LINE
8
Layer 1
10
199.210419
20
5.867488
11
197.945711
21
5.927761
0
LINE
8
Layer 1
10
197.945711
20
5.927761
11
196.762728
21
6.125176
0
LINE
8
Layer 1
10
196.762728
20
6.125176
11
197.023956
21
6.507333
0
LINE
8
Layer 1
10
197.023956
20
6.507333
11
197.565393
21
6.837890
0
LINE
8
Layer 1
10
197.565393
20
6.837890
11
199.355589
21
7.382868
0
LINE
8
Layer 1
10
199.355589
20
7.382868
11
204.832151
21
8.278950
0
LINE
8
Layer 1
10
204.832151
20
8.278950
11
207.985305
21
8.784718
0
LINE
8
Layer 1
10
207.985305
20
8.784718
11
211.059566
21
9.432082
0
LINE
8
Layer 1
10
211.059566
20
9.432082
11
213.788328
21
10.298374
0
LINE
8
Layer 1
10
213.788328
20
10.298374
11
214.939832
21
10.837784
0
LINE
8
Layer 1
10
214.939832
20
10.837784
11
215.904984
21
11.460926
0
LINE
8
Layer 1
10
215.904984
20
11.460926
11
222.267452
21
13.720589
0
LINE
8
Layer 1
10
222.267452
20
13.720589
11
228.572689
21
16.219423
0
LINE
8
Layer 1
10
228.572689
20
16.219423
11
231.614639
21
17.606371
0
LINE
8
Layer 1
10
231.614639
20
17.606371
11
234.535232
21
19.110522
0
LINE
8
Layer 1
10
234.535232
20
19.110522
11
237.298786
21
20.751013
0
LINE
8
Layer 1
10
237.298786
20
20.751013
11
239.869616
21
22.546982
0
LINE
8
Layer 1
10
239.869616
20
22.546982
11
242.541471
21
23.721050
0
LINE
8
Layer 1
10
242.541471
20
23.721050
11
245.049188
21
25.293466
0
LINE
8
Layer 1
10
245.049188
20
25.293466
11
247.415083
21
27.148370
0
LINE
8
Layer 1
10
247.415083
20
27.148370
11
249.661473
21
29.169904
0
LINE
8
Layer 1
10
249.661473
20
29.169904
11
253.885005
21
33.249429
0
LINE
8
Layer 1
10
253.885005
20
33.249429
11
255.906781
21
35.075703
0
LINE
8
Layer 1
10
255.906781
20
35.075703
11
257.898319
21
36.605173
0
LINE
8
Layer 1
10
257.898319
20
36.605173
11
257.898319
21
36.605173
0
LINE
8
Layer 1
10
262.720695
20
36.340590
11
260.454467
21
32.823387
0
LINE
8
Layer 1
10
260.454467
20
32.823387
11
257.827989
21
29.584033
0
LINE
8
Layer 1
10
257.827989
20
29.584033
11
254.899279
21
26.591076
0
LINE
8
Layer 1
10
254.899279
20
26.591076
11
251.726357
21
23.813065
0
LINE
8
Layer 1
10
251.726357
20
23.813065
11
248.367242
21
21.218546
0
LINE
8
Layer 1
10
248.367242
20
21.218546
11
244.879952
21
18.776068
0
LINE
8
Layer 1
10
244.879952
20
18.776068
11
237.752924
21
14.221426
0
LINE
8
Layer 1
10
237.752924
20
14.221426
11
233.174590
21
12.227461
0
LINE
8
Layer 1
10
233.174590
20
12.227461
11
228.092810
21
10.244456
0
LINE
8
Layer 1
10
228.092810
20
10.244456
11
226.390671
21
9.753772
0
LINE
8
Layer 1
10
226.390671
20
9.753772
11
225.929109
21
9.720559
0
LINE
8
Layer 1
10
225.929109
20
9.720559
11
225.795722
21
9.861880
0
LINE
8
Layer 1
10
225.795722
20
9.861880
11
226.718981
21
10.767462
0
LINE
8
Layer 1
10
226.718981
20
10.767462
11
229.571465
21
12.669204
0
LINE
8
Layer 1
10
229.571465
20
12.669204
11
234.329734
21
14.781272
0
LINE
8
Layer 1
10
234.329734
20
14.781272
11
238.801512
21
17.295638
0
LINE
8
Layer 1
10
238.801512
20
17.295638
11
243.042242
21
20.132132
0
LINE
8
Layer 1
10
243.042242
20
20.132132
11
247.107367
21
23.210584
0
LINE
8
Layer 1
10
247.107367
20
23.210584
11
254.932579
21
29.772686
0
LINE
8
Layer 1
10
254.932579
20
29.772686
11
262.720695
21
36.340590
0
LINE
8
Layer 1
10
262.720695
20
36.340590
11
262.720695
21
36.340590
0
LINE
8
Layer 1
10
277.694020
20
36.023090
11
277.403578
21
35.364983
0
LINE
8
Layer 1
10
277.403578
20
35.364983
11
277.036264
21
35.269077
0
LINE
8
Layer 1
10
277.036264
20
35.269077
11
276.950577
21
35.374077
0
LINE
8
Layer 1
10
276.950577
20
35.374077
11
276.997828
21
35.550178
0
LINE
8
Layer 1
10
276.997828
20
35.550178
11
277.694020
21
36.023090
0
LINE
8
Layer 1
10
277.694020
20
36.023090
11
277.694020
21
36.023090
0
LINE
8
Layer 1
10
272.485070
20
35.802595
11
270.092495
21
32.367833
0
LINE
8
Layer 1
10
270.092495
20
32.367833
11
267.441726
21
29.092136
0
LINE
8
Layer 1
10
267.441726
20
29.092136
11
264.546464
21
26.003162
0
LINE
8
Layer 1
10
264.546464
20
26.003162
11
261.420412
21
23.128573
0
LINE
8
Layer 1
10
261.420412
20
23.128573
11
258.077269
21
20.496028
0
LINE
8
Layer 1
10
258.077269
20
20.496028
11
254.530736
21
18.133188
0
LINE
8
Layer 1
10
254.530736
20
18.133188
11
250.794516
21
16.067711
0
LINE
8
Layer 1
10
250.794516
20
16.067711
11
246.882308
21
14.327259
0
LINE
8
Layer 1
10
246.882308
20
14.327259
11
249.757842
21
15.824908
0
LINE
8
Layer 1
10
249.757842
20
15.824908
11
252.446412
21
17.539464
0
LINE
8
Layer 1
10
252.446412
20
17.539464
11
254.983988
21
19.427635
0
LINE
8
Layer 1
10
254.983988
20
19.427635
11
257.406537
21
21.446129
0
LINE
8
Layer 1
10
257.406537
20
21.446129
11
262.050434
21
25.700920
0
LINE
8
Layer 1
10
262.050434
20
25.700920
11
266.665851
21
29.957499
0
LINE
8
Layer 1
10
266.665851
20
29.957499
11
267.712447
21
31.335946
0
LINE
8
Layer 1
10
267.712447
20
31.335946
11
269.133128
21
32.704194
0
LINE
8
Layer 1
10
269.133128
20
32.704194
11
272.485070
21
35.802595
0
LINE
8
Layer 1
10
272.485070
20
35.802595
11
272.485070
21
35.802595
0
LINE
8
Layer 1
10
284.228117
20
35.246979
11
283.597918
21
34.408376
0
LINE
8
Layer 1
10
283.597918
20
34.408376
11
283.152299
21
34.104097
0
LINE
8
Layer 1
10
283.152299
20
34.104097
11
283.244588
21
34.371259
0
LINE
8
Layer 1
10
283.244588
20
34.371259
11
284.228117
21
35.246979
0
LINE
8
Layer 1
10
284.228117
20
35.246979
11
284.228117
21
35.246979
0
LINE
8
Layer 1
10
276.580428
20
34.894201
11
272.976176
21
30.348903
0
LINE
8
Layer 1
10
272.976176
20
30.348903
11
268.941848
21
26.108190
0
LINE
8
Layer 1
10
268.941848
20
26.108190
11
264.531512
21
22.183347
0
LINE
8
Layer 1
10
264.531512
20
22.183347
11
259.799237
21
18.585654
0
LINE
8
Layer 1
10
259.799237
20
18.585654
11
254.799088
21
15.326394
0
LINE
8
Layer 1
10
254.799088
20
15.326394
11
249.585135
21
12.416849
0
LINE
8
Layer 1
10
249.585135
20
12.416849
11
244.211445
21
9.868301
0
LINE
8
Layer 1
10
244.211445
20
9.868301
11
238.732085
21
7.692032
0
LINE
8
Layer 1
10
238.732085
20
7.692032
11
246.584908
21
12.011264
0
LINE
8
Layer 1
10
246.584908
20
12.011264
11
254.401195
21
16.466268
0
LINE
8
Layer 1
10
254.401195
20
16.466268
11
258.177200
21
18.880431
0
LINE
8
Layer 1
10
258.177200
20
18.880431
11
261.801946
21
21.491432
0
LINE
8
Layer 1
10
261.801946
20
21.491432
11
265.228057
21
24.353572
0
LINE
8
Layer 1
10
265.228057
20
24.353572
11
268.408158
21
27.521148
0
LINE
8
Layer 1
10
268.408158
20
27.521148
11
272.292295
21
31.414938
0
LINE
8
Layer 1
10
272.292295
20
31.414938
11
274.352955
21
33.230847
0
LINE
8
Layer 1
10
274.352955
20
33.230847
11
276.580428
21
34.894201
0
LINE
8
Layer 1
10
276.580428
20
34.894201
11
276.580428
21
34.894201
0
LINE
8
Layer 1
10
268.086033
20
33.553646
11
268.346032
21
33.317046
0
LINE
8
Layer 1
10
268.346032
20
33.317046
11
268.383177
21
33.148048
0
LINE
8
Layer 1
10
268.383177
20
33.148048
11
268.086041
21
33.012853
0
LINE
8
Layer 1
10
268.086041
20
33.012853
11
267.788901
21
33.148055
0
LINE
8
Layer 1
10
267.788901
20
33.148055
11
267.826041
21
33.317052
0
LINE
8
Layer 1
10
267.826041
20
33.317052
11
268.086033
21
33.553646
0
LINE
8
Layer 1
10
268.086033
20
33.553646
11
268.086033
21
33.553646
0
LINE
8
Layer 1
10
282.185079
20
33.244957
11
282.399688
21
33.112767
0
LINE
8
Layer 1
10
282.399688
20
33.112767
11
282.342806
21
32.949950
0
LINE
8
Layer 1
10
282.342806
20
32.949950
11
281.834920
21
32.669224
0
LINE
8
Layer 1
10
281.834920
20
32.669224
11
281.502113
21
32.676364
0
LINE
8
Layer 1
10
281.502113
20
32.676364
11
282.185079
21
33.244957
0
LINE
8
Layer 1
10
282.185079
20
33.244957
11
282.185079
21
33.244957
0
LINE
8
Layer 1
10
81.642320
20
32.389479
11
81.506854
21
31.854895
0
LINE
8
Layer 1
10
81.506854
20
31.854895
11
81.522920
21
31.851363
0
LINE
8
Layer 1
10
81.522920
20
31.851363
11
81.642320
21
32.389479
0
LINE
8
Layer 1
10
81.642320
20
32.389479
11
81.642320
21
32.389479
0
LINE
8
Layer 1
10
281.200321
20
32.186623
11
279.815824
21
30.362017
0
LINE
8
Layer 1
10
279.815824
20
30.362017
11
278.004961
21
28.317670
0
LINE
8
Layer 1
10
278.004961
20
28.317670
11
273.715301
21
24.084246
0
LINE
8
Layer 1
10
273.715301
20
24.084246
11
269.553670
21
20.515344
0
LINE
8
Layer 1
10
269.553670
20
20.515344
11
267.902844
21
19.301648
0
LINE
8
Layer 1
10
267.902844
20
19.301648
11
266.742398
21
18.639954
0
LINE
8
Layer 1
10
266.742398
20
18.639954
11
270.415524
21
21.978573
0
LINE
8
Layer 1
10
270.415524
20
21.978573
11
273.939270
21
25.503595
0
LINE
8
Layer 1
10
273.939270
20
25.503595
11
277.479060
21
28.983464
0
LINE
8
Layer 1
10
277.479060
20
28.983464
11
281.200321
21
32.186623
0
LINE
8
Layer 1
10
281.200321
20
32.186623
11
281.200321
21
32.186623
0
LINE
8
Layer 1
10
267.220948
20
32.071979
11
267.365296
21
31.749002
0
LINE
8
Layer 1
10
267.365296
20
31.749002
11
267.260479
21
31.530244
0
LINE
8
Layer 1
10
267.260479
20
31.530244
11
266.719198
21
31.381507
0
LINE
8
Layer 1
10
266.719198
20
31.381507
11
266.490655
21
31.439587
0
LINE
8
Layer 1
10
266.490655
20
31.439587
11
266.428792
21
31.578006
0
LINE
8
Layer 1
10
266.428792
20
31.578006
11
266.637569
21
31.790793
0
LINE
8
Layer 1
10
266.637569
20
31.790793
11
267.220948
21
32.071979
0
LINE
8
Layer 1
10
267.220948
20
32.071979
11
267.220948
21
32.071979
0
LINE
8
Layer 1
10
83.068778
20
32.063151
11
83.318651
21
31.469406
0
LINE
8
Layer 1
10
83.318651
20
31.469406
11
83.301882
21
30.979825
0
LINE
8
Layer 1
10
83.301882
20
30.979825
11
83.116094
21
30.627146
0
LINE
8
Layer 1
10
83.116094
20
30.627146
11
82.858915
21
30.444108
0
LINE
8
Layer 1
10
82.858915
20
30.444108
11
82.627968
21
30.463451
0
LINE
8
Layer 1
10
82.627968
20
30.463451
11
82.520879
21
30.717913
0
LINE
8
Layer 1
10
82.520879
20
30.717913
11
82.635274
21
31.240233
0
LINE
8
Layer 1
10
82.635274
20
31.240233
11
83.068778
21
32.063151
0
LINE
8
Layer 1
10
83.068778
20
32.063151
11
83.068778
21
32.063151
0
LINE
8
Layer 1
10
89.133567
20
31.860312
11
90.281067
21
30.997110
0
LINE
8
Layer 1
10
90.281067
20
30.997110
11
90.498902
21
30.641794
0
LINE
8
Layer 1
10
90.498902
20
30.641794
11
90.527248
21
30.340659
0
LINE
8
Layer 1
10
90.527248
20
30.340659
11
90.158840
21
29.910899
0
LINE
8
Layer 1
10
90.158840
20
29.910899
11
89.462575
21
29.727767
0
LINE
8
Layer 1
10
89.462575
20
29.727767
11
88.725185
21
29.811204
0
LINE
8
Layer 1
10
88.725185
20
29.811204
11
88.233399
21
30.181148
0
LINE
8
Layer 1
10
88.233399
20
30.181148
11
88.169212
21
30.479791
0
LINE
8
Layer 1
10
88.169212
20
30.479791
11
88.273949
21
30.857538
0
LINE
8
Layer 1
10
88.273949
20
30.857538
11
89.133567
21
31.860312
0
LINE
8
Layer 1
10
89.133567
20
31.860312
11
89.133567
21
31.860312
0
LINE
8
Layer 1
10
224.601840
20
31.719201
11
222.633410
21
30.714613
0
LINE
8
Layer 1
10
222.633410
20
30.714613
11
221.049999
21
30.067488
0
LINE
8
Layer 1
10
221.049999
20
30.067488
11
219.940301
21
29.742605
0
LINE
8
Layer 1
10
219.940301
20
29.742605
11
219.393012
21
29.704748
0
LINE
8
Layer 1
10
219.393012
20
29.704748
11
219.496826
21
29.918698
0
LINE
8
Layer 1
10
219.496826
20
29.918698
11
220.340438
21
30.349235
0
LINE
8
Layer 1
10
220.340438
20
30.349235
11
222.012545
21
30.961143
0
LINE
8
Layer 1
10
222.012545
20
30.961143
11
224.601840
21
31.719201
0
LINE
8
Layer 1
10
224.601840
20
31.719201
11
224.601840
21
31.719201
0
LINE
8
Layer 1
10
265.840498
20
29.214479
11
265.488781
21
28.916202
0
LINE
8
Layer 1
10
265.488781
20
28.916202
11
265.400616
21
28.659440
0
LINE
8
Layer 1
10
265.400616
20
28.659440
11
265.688816
21
28.357873
0
LINE
8
Layer 1
10
265.688816
20
28.357873
11
265.902122
21
28.356777
0
LINE
8
Layer 1
10
265.902122
20
28.356777
11
266.052858
21
28.484609
0
LINE
8
Layer 1
10
266.052858
20
28.484609
11
266.059493
21
28.763226
0
LINE
8
Layer 1
10
266.059493
20
28.763226
11
265.840498
21
29.214479
0
LINE
8
Layer 1
10
265.840498
20
29.214479
11
265.840498
21
29.214479
0
LINE
8
Layer 1
10
101.833720
20
29.179201
11
102.483014
21
28.626658
0
LINE
8
Layer 1
10
102.483014
20
28.626658
11
102.554490
21
28.188070
0
LINE
8
Layer 1
10
102.554490
20
28.188070
11
102.244300
21
27.885394
0
LINE
8
Layer 1
10
102.244300
20
27.885394
11
101.748598
21
27.740588
0
LINE
8
Layer 1
10
101.748598
20
27.740588
11
101.263536
21
27.775609
0
LINE
8
Layer 1
10
101.263536
20
27.775609
11
100.985267
21
28.012414
0
LINE
8
Layer 1
10
100.985267
20
28.012414
11
101.109944
21
28.472959
0
LINE
8
Layer 1
10
101.109944
20
28.472959
11
101.833720
21
29.179201
0
LINE
8
Layer 1
10
101.833720
20
29.179201
11
101.833720
21
29.179201
0
LINE
8
Layer 1
10
95.667703
20
27.759262
11
97.054422
21
27.155400
0
LINE
8
Layer 1
10
97.054422
20
27.155400
11
97.539749
21
26.727202
0
LINE
8
Layer 1
10
97.539749
20
26.727202
11
97.376276
21
26.473103
0
LINE
8
Layer 1
10
97.376276
20
26.473103
11
96.816598
21
26.391536
0
LINE
8
Layer 1
10
96.816598
20
26.391536
11
96.113308
21
26.480934
0
LINE
8
Layer 1
10
96.113308
20
26.480934
11
95.518999
21
26.739732
0
LINE
8
Layer 1
10
95.518999
20
26.739732
11
95.286267
21
27.166364
0
LINE
8
Layer 1
10
95.286267
20
27.166364
11
95.667703
21
27.759262
0
LINE
8
Layer 1
10
95.667703
20
27.759262
11
95.667703
21
27.759262
0
LINE
8
Layer 1
10
110.051997
20
27.732812
11
111.025133
21
27.155505
0
LINE
8
Layer 1
10
111.025133
20
27.155505
11
111.259525
21
26.753560
0
LINE
8
Layer 1
10
111.259525
20
26.753560
11
110.985527
21
26.521770
0
LINE
8
Layer 1
10
110.985527
20
26.521770
11
110.433490
21
26.454925
0
LINE
8
Layer 1
10
110.433490
20
26.454925
11
109.833766
21
26.547816
0
LINE
8
Layer 1
10
109.833766
20
26.547816
11
109.416708
21
26.795234
0
LINE
8
Layer 1
10
109.416708
20
26.795234
11
109.412667
21
27.191969
0
LINE
8
Layer 1
10
109.412667
20
27.191969
11
110.051997
21
27.732812
0
LINE
8
Layer 1
10
110.051997
20
27.732812
11
110.051997
21
27.732812
0
LINE
8
Layer 1
10
216.125851
20
27.485868
11
215.838409
21
27.081195
0
LINE
8
Layer 1
10
215.838409
20
27.081195
11
215.381407
21
26.732345
0
LINE
8
Layer 1
10
215.381407
20
26.732345
11
214.126833
21
26.198994
0
LINE
8
Layer 1
10
214.126833
20
26.198994
11
212.698353
21
25.879570
0
LINE
8
Layer 1
10
212.698353
20
25.879570
11
211.432190
21
25.767829
0
LINE
8
Layer 1
10
211.432190
20
25.767829
11
210.664567
21
25.857526
0
LINE
8
Layer 1
10
210.664567
20
25.857526
11
210.572777
21
25.975963
0
LINE
8
Layer 1
10
210.572777
20
25.975963
11
210.731706
21
26.142417
0
LINE
8
Layer 1
10
210.731706
20
26.142417
11
211.969832
21
26.616258
0
LINE
8
Layer 1
10
211.969832
20
26.616258
11
214.715166
21
27.272804
0
LINE
8
Layer 1
10
214.715166
20
27.272804
11
216.125857
21
27.485871
0
LINE
8
Layer 1
10
216.125857
20
27.485871
11
216.125851
21
27.485868
0
LINE
8
Layer 1
10
216.125851
20
27.485868
11
216.125851
21
27.485868
0
LINE
8
Layer 1
10
245.888377
20
27.318290
11
245.407628
21
26.452163
0
LINE
8
Layer 1
10
245.407628
20
26.452163
11
244.723435
21
25.813379
0
LINE
8
Layer 1
10
244.723435
20
25.813379
11
244.006197
21
25.411999
0
LINE
8
Layer 1
10
244.006197
20
25.411999
11
243.426316
21
25.258083
0
LINE
8
Layer 1
10
243.426316
20
25.258083
11
243.154193
21
25.361694
0
LINE
8
Layer 1
10
243.154193
20
25.361694
11
243.360228
21
25.732891
0
LINE
8
Layer 1
10
243.360228
20
25.732891
11
244.214823
21
26.381736
0
LINE
8
Layer 1
10
244.214823
20
26.381736
11
245.888377
21
27.318290
0
LINE
8
Layer 1
10
245.888377
20
27.318290
11
245.888377
21
27.318290
0
LINE
8
Layer 1
10
143.219636
20
26.498090
11
143.489602
21
26.246371
0
LINE
8
Layer 1
10
143.489602
20
26.246371
11
143.531481
21
26.040921
0
LINE
8
Layer 1
10
143.531481
20
26.040921
11
143.232887
21
25.820131
0
LINE
8
Layer 1
10
143.232887
20
25.820131
11
142.927667
21
25.938320
0
LINE
8
Layer 1
10
142.927667
20
25.938320
11
142.961264
21
26.156595
0
LINE
8
Layer 1
10
142.961264
20
26.156595
11
143.219636
21
26.498090
0
LINE
8
Layer 1
10
143.219636
20
26.498090
11
143.219636
21
26.498090
0
LINE
8
Layer 1
10
144.692108
20
26.498090
11
145.521877
21
25.951659
0
LINE
8
Layer 1
10
145.521877
20
25.951659
11
145.658573
21
25.669080
0
LINE
8
Layer 1
10
145.658573
20
25.669080
11
145.330194
21
25.596488
0
LINE
8
Layer 1
10
145.330194
20
25.596488
11
144.764739
21
25.680021
0
LINE
8
Layer 1
10
144.764739
20
25.680021
11
143.834589
21
26.099996
0
LINE
8
Layer 1
10
143.834589
20
26.099996
11
143.925891
21
26.328711
0
LINE
8
Layer 1
10
143.925891
20
26.328711
11
144.692108
21
26.498090
0
LINE
8
Layer 1
10
144.692108
20
26.498090
11
144.692108
21
26.498090
0
LINE
8
Layer 1
10
172.098662
20
26.215868
11
172.818378
21
25.781977
0
LINE
8
Layer 1
10
172.818378
20
25.781977
11
172.865543
21
25.501850
0
LINE
8
Layer 1
10
172.865543
20
25.501850
11
172.473615
21
25.360588
0
LINE
8
Layer 1
10
172.473615
20
25.360588
11
171.876054
21
25.343296
0
LINE
8
Layer 1
10
171.876054
20
25.343296
11
171.306319
21
25.435075
0
LINE
8
Layer 1
10
171.306319
20
25.435075
11
170.997869
21
25.621029
0
LINE
8
Layer 1
10
170.997869
20
25.621029
11
171.184164
21
25.886259
0
LINE
8
Layer 1
10
171.184164
20
25.886259
11
172.098662
21
26.215868
0
LINE
8
Layer 1
10
172.098662
20
26.215868
11
172.098662
21
26.215868
0
LINE
8
Layer 1
10
216.816093
20
25.933646
11
216.029099
21
25.284063
0
LINE
8
Layer 1
10
216.029099
20
25.284063
11
214.921950
21
24.682292
0
LINE
8
Layer 1
10
214.921950
20
24.682292
11
212.052446
21
23.644108
0
LINE
8
Layer 1
10
212.052446
20
23.644108
11
208.818105
21
22.862947
0
LINE
8
Layer 1
10
208.818105
20
22.862947
11
205.829453
21
22.382657
0
LINE
8
Layer 1
10
205.829453
20
22.382657
11
203.697012
21
22.247090
0
LINE
8
Layer 1
10
203.697012
20
22.247090
11
203.142660
21
22.322281
0
LINE
8
Layer 1
10
203.142660
20
22.322281
11
203.031307
21
22.500097
0
LINE
8
Layer 1
10
203.031307
20
22.500097
11
203.439268
21
22.786018
0
LINE
8
Layer 1
10
203.439268
20
22.786018
11
204.442861
21
23.185527
0
LINE
8
Layer 1
10
204.442861
20
23.185527
11
208.542199
21
24.347232
0
LINE
8
Layer 1
10
208.542199
20
24.347232
11
216.816093
21
25.933646
0
LINE
8
Layer 1
10
216.816093
20
25.933646
11
216.816093
21
25.933646
0
LINE
8
Layer 1
10
239.041339
20
25.924818
11
237.970775
21
25.325577
0
LINE
8
Layer 1
10
237.970775
20
25.325577
11
237.804704
21
25.006523
0
LINE
8
Layer 1
10
237.804704
20
25.006523
11
238.256950
21
25.146616
0
LINE
8
Layer 1
10
238.256950
20
25.146616
11
239.041339
21
25.924818
0
LINE
8
Layer 1
10
239.041339
20
25.924818
11
239.041339
21
25.924818
0
LINE
8
Layer 1
10
115.665831
20
24.804757
11
116.015014
21
24.412722
0
LINE
8
Layer 1
10
116.015014
20
24.412722
11
115.836642
21
24.252867
0
LINE
8
Layer 1
10
115.836642
20
24.252867
11
115.572865
21
24.368956
0
LINE
8
Layer 1
10
115.572865
20
24.368956
11
115.665831
21
24.804757
0
LINE
8
Layer 1
10
115.665831
20
24.804757
11
115.665831
21
24.804757
0
LINE
8
Layer 1
10
133.823371
20
24.769479
11
134.691447
21
24.041010
0
LINE
8
Layer 1
10
134.691447
20
24.041010
11
134.833739
21
23.730229
0
LINE
8
Layer 1
10
134.833739
20
23.730229
11
134.822301
21
23.460129
0
LINE
8
Layer 1
10
134.822301
20
23.460129
11
134.460533
21
23.057108
0
LINE
8
Layer 1
10
134.460533
20
23.057108
11
133.850743
21
22.862221
0
LINE
8
Layer 1
10
133.850743
20
22.862221
11
133.237532
21
22.905742
0
LINE
8
Layer 1
10
133.237532
20
22.905742
11
132.865500
21
23.217942
0
LINE
8
Layer 1
10
132.865500
20
23.217942
11
132.979246
21
23.829097
0
LINE
8
Layer 1
10
132.979246
20
23.829097
11
133.823371
21
24.769479
0
LINE
8
Layer 1
10
133.823371
20
24.769479
11
133.823371
21
24.769479
0
LINE
8
Layer 1
10
181.439733
20
24.513707
11
182.945342
21
24.252972
0
LINE
8
Layer 1
10
182.945342
20
24.252972
11
183.498399
21
23.957903
0
LINE
8
Layer 1
10
183.498399
20
23.957903
11
183.360093
21
23.682914
0
LINE
8
Layer 1
10
183.360093
20
23.682914
11
182.791613
21
23.482421
0
LINE
8
Layer 1
10
182.791613
20
23.482421
11
182.054147
21
23.410839
0
LINE
8
Layer 1
10
182.054147
20
23.410839
11
181.408886
21
23.522582
0
LINE
8
Layer 1
10
181.408886
20
23.522582
11
181.117018
21
23.872066
0
LINE
8
Layer 1
10
181.117018
20
23.872066
11
181.439733
21
24.513707
0
LINE
8
Layer 1
10
181.439733
20
24.513707
11
181.439733
21
24.513707
0
LINE
8
Layer 1
10
184.743595
20
23.958090
11
185.003595
21
23.721490
0
LINE
8
Layer 1
10
185.003595
20
23.721490
11
185.040739
21
23.552492
0
LINE
8
Layer 1
10
185.040739
20
23.552492
11
184.743604
21
23.417298
0
LINE
8
Layer 1
10
184.743604
20
23.417298
11
184.446464
21
23.552499
0
LINE
8
Layer 1
10
184.446464
20
23.552499
11
184.483603
21
23.721496
0
LINE
8
Layer 1
10
184.483603
20
23.721496
11
184.743595
21
23.958090
0
LINE
8
Layer 1
10
184.743595
20
23.958090
11
184.743595
21
23.958090
0
LINE
8
Layer 1
10
157.171384
20
23.596484
11
159.773271
21
23.226097
0
LINE
8
Layer 1
10
159.773271
20
23.226097
11
160.886546
21
22.776994
0
LINE
8
Layer 1
10
160.886546
20
22.776994
11
160.979835
21
22.549206
0
LINE
8
Layer 1
10
160.979835
20
22.549206
11
160.814829
21
22.333278
0
LINE
8
Layer 1
10
160.814829
20
22.333278
11
159.861742
21
21.979051
0
LINE
8
Layer 1
10
159.861742
20
21.979051
11
158.330904
21
21.798416
0
LINE
8
Layer 1
10
158.330904
20
21.798416
11
156.525937
21
21.875474
0
LINE
8
Layer 1
10
156.525937
20
21.875474
11
154.750460
21
22.294330
0
LINE
8
Layer 1
10
154.750460
20
22.294330
11
153.968663
21
22.658213
0
LINE
8
Layer 1
10
153.968663
20
22.658213
11
153.308095
21
23.139084
0
LINE
8
Layer 1
10
153.308095
20
23.139084
11
155.227409
21
23.456244
0
LINE
8
Layer 1
10
155.227409
20
23.456244
11
157.171384
21
23.596484
0
LINE
8
Layer 1
10
157.171384
20
23.596484
11
157.171384
21
23.596484
0
LINE
8
Layer 1
10
163.079715
20
23.393646
11
163.462296
21
23.204417
0
LINE
8
Layer 1
10
163.462296
20
23.204417
11
163.556293
21
23.045011
0
LINE
8
Layer 1
10
163.556293
20
23.045011
11
163.237086
21
22.864149
0
LINE
8
Layer 1
10
163.237086
20
22.864149
11
162.839193
21
22.948035
0
LINE
8
Layer 1
10
162.839193
20
22.948035
11
162.834834
21
23.119564
0
LINE
8
Layer 1
10
162.834834
20
23.119564
11
163.079715
21
23.393646
0
LINE
8
Layer 1
10
163.079715
20
23.393646
11
163.079715
21
23.393646
0
LINE
8
Layer 1
10
105.082371
20
23.367179
11
106.165130
21
22.460335
0
LINE
8
Layer 1
10
106.165130
20
22.460335
11
106.477382
21
21.880421
0
LINE
8
Layer 1
10
106.477382
20
21.880421
11
106.249700
21
21.593523
0
LINE
8
Layer 1
10
106.249700
20
21.593523
11
105.712659
21
21.565722
0
LINE
8
Layer 1
10
105.712659
20
21.565722
11
105.096832
21
21.763103
0
LINE
8
Layer 1
10
105.096832
20
21.763103
11
104.632793
21
22.151751
0
LINE
8
Layer 1
10
104.632793
20
22.151751
11
104.551114
21
22.697748
0
LINE
8
Layer 1
10
104.551114
20
22.697748
11
105.082371
21
23.367179
0
LINE
8
Layer 1
10
105.082371
20
23.367179
11
105.082371
21
23.367179
0
LINE
8
Layer 1
10
176.313640
20
23.314262
11
176.612419
21
22.683957
0
LINE
8
Layer 1
10
176.612419
20
22.683957
11
176.390419
21
22.343318
0
LINE
8
Layer 1
10
176.390419
20
22.343318
11
175.865346
21
22.237557
0
LINE
8
Layer 1
10
175.865346
20
22.237557
11
175.254908
21
22.311883
0
LINE
8
Layer 1
10
175.254908
20
22.311883
11
174.776811
21
22.511506
0
LINE
8
Layer 1
10
174.776811
20
22.511506
11
174.648762
21
22.781637
0
LINE
8
Layer 1
10
174.648762
20
22.781637
11
175.088470
21
23.067485
0
LINE
8
Layer 1
10
175.088470
20
23.067485
11
176.313640
21
23.314262
0
LINE
8
Layer 1
10
176.313640
20
23.314262
11
176.313640
21
23.314262
0
LINE
8
Layer 1
10
167.745658
20
23.102595
11
168.202204
21
22.565076
0
LINE
8
Layer 1
10
168.202204
20
22.565076
11
168.332467
21
22.168160
0
LINE
8
Layer 1
10
168.332467
20
22.168160
11
168.193321
21
21.897076
0
LINE
8
Layer 1
10
168.193321
20
21.897076
11
167.841639
21
21.737053
0
LINE
8
Layer 1
10
167.841639
20
21.737053
11
166.728163
21
21.691101
0
LINE
8
Layer 1
10
166.728163
20
21.691101
11
165.447027
21
21.912130
0
LINE
8
Layer 1
10
165.447027
20
21.912130
11
164.453220
21
22.281968
0
LINE
8
Layer 1
10
164.453220
20
22.281968
11
164.206249
21
22.485760
0
LINE
8
Layer 1
10
164.206249
20
22.485760
11
164.201731
21
22.682440
0
LINE
8
Layer 1
10
164.201731
20
22.682440
11
164.496539
21
22.857235
0
LINE
8
Layer 1
10
164.496539
20
22.857235
11
165.147547
21
22.995374
0
LINE
8
Layer 1
10
165.147547
20
22.995374
11
167.745658
21
23.102595
0
LINE
8
Layer 1
10
167.745658
20
23.102595
11
167.745658
21
23.102595
0
LINE
8
Layer 1
10
112.656456
20
22.943845
11
114.565991
21
21.533182
0
LINE
8
Layer 1
10
114.565991
20
21.533182
11
114.911457
21
21.062783
0
LINE
8
Layer 1
10
114.911457
20
21.062783
11
114.933739
21
20.731817
0
LINE
8
Layer 1
10
114.933739
20
20.731817
11
114.695099
21
20.527395
0
LINE
8
Layer 1
10
114.695099
20
20.527395
11
114.257802
21
20.436626
0
LINE
8
Layer 1
10
114.257802
20
20.436626
11
113.036284
21
20.544481
0
LINE
8
Layer 1
10
113.036284
20
20.544481
11
111.767287
21
20.952257
0
LINE
8
Layer 1
10
111.767287
20
20.952257
11
110.948915
21
21.556827
0
LINE
8
Layer 1
10
110.948915
20
21.556827
11
110.864370
21
21.900683
0
LINE
8
Layer 1
10
110.864370
20
21.900683
11
111.079271
21
22.255065
0
LINE
8
Layer 1
10
111.079271
20
22.255065
11
111.655878
21
22.607083
0
LINE
8
Layer 1
10
111.655878
20
22.607083
11
112.656456
21
22.943845
0
LINE
8
Layer 1
10
112.656456
20
22.943845
11
112.656456
21
22.943845
0
LINE
8
Layer 1
10
173.847235
20
22.829201
11
174.154163
21
22.588066
0
LINE
8
Layer 1
10
174.154163
20
22.588066
11
173.857658
21
22.440359
0
LINE
8
Layer 1
10
173.857658
20
22.440359
11
173.555941
21
22.487073
0
LINE
8
Layer 1
10
173.555941
20
22.487073
11
173.847235
21
22.829201
0
LINE
8
Layer 1
10
173.847235
20
22.829201
11
173.847235
21
22.829201
0
LINE
8
Layer 1
10
162.490723
20
22.546979
11
162.839917
21
22.154945
0
LINE
8
Layer 1
10
162.839917
20
22.154945
11
162.661548
21
21.995090
0
LINE
8
Layer 1
10
162.661548
20
21.995090
11
162.397768
21
22.111179
0
LINE
8
Layer 1
10
162.397768
20
22.111179
11
162.490723
21
22.546979
0
LINE
8
Layer 1
10
162.490723
20
22.546979
11
162.490723
21
22.546979
0
LINE
8
Layer 1
10
140.780846
20
22.423507
11
141.515030
21
21.906814
0
LINE
8
Layer 1
10
141.515030
20
21.906814
11
141.920371
21
21.464662
0
LINE
8
Layer 1
10
141.920371
20
21.464662
11
142.046358
21
21.095840
0
LINE
8
Layer 1
10
142.046358
20
21.095840
11
141.942481
21
20.799138
0
LINE
8
Layer 1
10
141.942481
20
20.799138
11
141.243095
21
20.417252
0
LINE
8
Layer 1
10
141.243095
20
20.417252
11
140.218130
21
20.309322
0
LINE
8
Layer 1
10
140.218130
20
20.309322
11
139.263505
21
20.465664
0
LINE
8
Layer 1
10
139.263505
20
20.465664
11
138.936294
21
20.639912
0
LINE
8
Layer 1
10
138.936294
20
20.639912
11
138.775138
21
20.876598
0
LINE
8
Layer 1
10
138.775138
20
20.876598
11
138.829525
21
21.174510
0
LINE
8
Layer 1
10
138.829525
20
21.174510
11
139.148945
21
21.532439
0
LINE
8
Layer 1
10
139.148945
20
21.532439
11
140.780846
21
22.423507
0
LINE
8
Layer 1
10
140.780846
20
22.423507
11
140.780846
21
22.423507
0
LINE
8
Layer 1
10
124.684779
20
21.673845
11
125.191413
21
21.144541
0
LINE
8
Layer 1
10
125.191413
20
21.144541
11
125.379231
21
20.699360
0
LINE
8
Layer 1
10
125.379231
20
20.699360
11
125.302075
21
20.335398
0
LINE
8
Layer 1
10
125.302075
20
20.335398
11
125.013789
21
20.049752
0
LINE
8
Layer 1
10
125.013789
20
20.049752
11
124.019193
21
19.701796
0
LINE
8
Layer 1
10
124.019193
20
19.701796
11
122.826182
21
19.632264
0
LINE
8
Layer 1
10
122.826182
20
19.632264
11
121.865496
21
19.817930
0
LINE
8
Layer 1
10
121.865496
20
19.817930
11
121.606881
21
19.999204
0
LINE
8
Layer 1
10
121.606881
20
19.999204
11
121.567874
21
20.235567
0
LINE
8
Layer 1
10
121.567874
20
20.235567
11
121.802318
21
20.524116
0
LINE
8
Layer 1
10
121.802318
20
20.524116
11
122.364055
21
20.861948
0
LINE
8
Layer 1
10
122.364055
20
20.861948
11
124.684779
21
21.673845
0
LINE
8
Layer 1
10
124.684779
20
21.673845
11
124.684779
21
21.673845
0
LINE
8
Layer 1
10
120.479013
20
21.329896
11
121.097863
21
21.007631
0
LINE
8
Layer 1
10
121.097863
20
21.007631
11
121.248632
21
20.820139
0
LINE
8
Layer 1
10
121.248632
20
20.820139
11
120.728459
21
20.764079
0
LINE
8
Layer 1
10
120.728459
20
20.764079
11
120.083563
21
20.990927
0
LINE
8
Layer 1
10
120.083563
20
20.990927
11
120.078428
21
21.157070
0
LINE
8
Layer 1
10
120.078428
20
21.157070
11
120.479013
21
21.329896
0
LINE
8
Layer 1
10
120.479013
20
21.329896
11
120.479013
21
21.329896
0
LINE
8
Layer 1
10
158.128499
20
20.518507
11
160.380523
21
20.228419
0
LINE
8
Layer 1
10
160.380523
20
20.228419
11
163.122307
21
20.109079
0
LINE
8
Layer 1
10
163.122307
20
20.109079
11
169.080091
21
20.137612
0
LINE
8
Layer 1
10
169.080091
20
20.137612
11
174.011735
21
20.114059
0
LINE
8
Layer 1
10
174.011735
20
20.114059
11
175.470842
21
19.929610
0
LINE
8
Layer 1
10
175.470842
20
19.929610
11
175.839882
21
19.767417
0
LINE
8
Layer 1
10
175.839882
20
19.767417
11
175.927120
21
19.548371
0
LINE
8
Layer 1
10
175.927120
20
19.548371
11
173.882188
21
19.497199
0
LINE
8
Layer 1
10
173.882188
20
19.497199
11
171.295856
21
19.284667
0
LINE
8
Layer 1
10
171.295856
20
19.284667
11
165.478992
21
18.796781
0
LINE
8
Layer 1
10
165.478992
20
18.796781
11
162.738463
21
18.732055
0
LINE
8
Layer 1
10
162.738463
20
18.732055
11
160.436537
21
18.927224
0
LINE
8
Layer 1
10
160.436537
20
18.927224
11
159.526613
21
19.155181
0
LINE
8
Layer 1
10
159.526613
20
19.155181
11
158.818215
21
19.487604
0
LINE
8
Layer 1
10
158.818215
20
19.487604
11
158.341969
21
19.937658
0
LINE
8
Layer 1
10
158.341969
20
19.937658
11
158.128499
21
20.518507
0
LINE
8
Layer 1
10
158.128499
20
20.518507
11
158.128499
21
20.518507
0
LINE
8
Layer 1
10
118.049418
20
19.892318
11
118.117406
21
19.725037
0
LINE
8
Layer 1
10
118.117406
20
19.725037
11
118.038188
21
19.524963
0
LINE
8
Layer 1
10
118.038188
20
19.524963
11
117.693695
21
19.187608
0
LINE
8
Layer 1
10
117.693695
20
19.187608
11
117.556202
21
19.130917
0
LINE
8
Layer 1
10
117.556202
20
19.130917
11
117.527064
21
19.202609
0
LINE
8
Layer 1
10
117.527064
20
19.202609
11
118.049418
21
19.892318
0
LINE
8
Layer 1
10
118.049418
20
19.892318
11
118.049418
21
19.892318
0
LINE
8
Layer 1
10
129.884486
20
19.151484
11
130.849025
21
18.574608
0
LINE
8
Layer 1
10
130.849025
20
18.574608
11
131.400513
21
18.085510
0
LINE
8
Layer 1
10
131.400513
20
18.085510
11
131.599904
21
17.681862
0
LINE
8
Layer 1
10
131.599904
20
17.681862
11
131.508150
21
17.361337
0
LINE
8
Layer 1
10
131.508150
20
17.361337
11
131.186203
21
17.121608
0
LINE
8
Layer 1
10
131.186203
20
17.121608
11
130.695017
21
16.960348
0
LINE
8
Layer 1
10
130.695017
20
16.960348
11
129.448733
21
16.863922
0
LINE
8
Layer 1
10
129.448733
20
16.863922
11
128.256918
21
17.053441
0
LINE
8
Layer 1
10
128.256918
20
17.053441
11
127.833818
21
17.249612
0
LINE
8
Layer 1
10
127.833818
20
17.249612
11
127.607192
21
17.510287
0
LINE
8
Layer 1
10
127.607192
20
17.510287
11
127.637994
21
17.833138
0
LINE
8
Layer 1
10
127.637994
20
17.833138
11
127.987176
21
18.215840
0
LINE
8
Layer 1
10
127.987176
20
18.215840
11
128.715690
21
18.656063
0
LINE
8
Layer 1
10
128.715690
20
18.656063
11
129.884489
21
19.151481
0
LINE
8
Layer 1
10
129.884489
20
19.151481
11
129.884486
21
19.151484
0
LINE
8
Layer 1
10
129.884486
20
19.151484
11
129.884486
21
19.151484
0
LINE
8
Layer 1
10
126.304506
20
18.313646
11
126.549390
21
18.039558
0
LINE
8
Layer 1
10
126.549390
20
18.039558
11
126.545032
21
17.868028
0
LINE
8
Layer 1
10
126.545032
20
17.868028
11
126.147140
21
17.784148
0
LINE
8
Layer 1
10
126.147140
20
17.784148
11
125.827931
21
17.965016
0
LINE
8
Layer 1
10
125.827931
20
17.965016
11
125.921927
21
18.124422
0
LINE
8
Layer 1
10
125.921927
20
18.124422
11
126.304506
21
18.313646
0
LINE
8
Layer 1
10
126.304506
20
18.313646
11
126.304506
21
18.313646
0
LINE
8
Layer 1
10
156.241900
20
18.004957
11
157.108431
21
17.853279
0
LINE
8
Layer 1
10
157.108431
20
17.853279
11
157.398048
21
17.705815
0
LINE
8
Layer 1
10
157.398048
20
17.705815
11
156.905207
21
17.501773
0
LINE
8
Layer 1
10
156.905207
20
17.501773
11
156.080712
21
17.549323
0
LINE
8
Layer 1
10
156.080712
20
17.549323
11
155.955762
21
17.716349
0
LINE
8
Layer 1
10
155.955762
20
17.716349
11
156.241900
21
18.004957
0
LINE
8
Layer 1
10
156.241900
20
18.004957
11
156.241900
21
18.004957
0
LINE
8
Layer 1
10
147.314982
20
17.960868
11
147.991357
21
17.679132
0
LINE
8
Layer 1
10
147.991357
20
17.679132
11
148.360226
21
17.310396
0
LINE
8
Layer 1
10
148.360226
20
17.310396
11
148.478718
21
16.938408
0
LINE
8
Layer 1
10
148.478718
20
16.938408
11
148.403961
21
16.646916
0
LINE
8
Layer 1
10
148.403961
20
16.646916
11
148.193080
21
16.519668
0
LINE
8
Layer 1
10
148.193080
20
16.519668
11
147.903206
21
16.640412
0
LINE
8
Layer 1
10
147.903206
20
16.640412
11
147.591464
21
17.092896
0
LINE
8
Layer 1
10
147.591464
20
17.092896
11
147.314982
21
17.960868
0
LINE
8
Layer 1
10
147.314982
20
17.960868
11
147.314982
21
17.960868
0
LINE
8
Layer 1
10
149.404047
20
17.828568
11
151.159563
21
17.927251
0
LINE
8
Layer 1
10
151.159563
20
17.927251
11
152.500049
21
17.850937
0
LINE
8
Layer 1
10
152.500049
20
17.850937
11
153.464282
21
17.634306
0
LINE
8
Layer 1
10
153.464282
20
17.634306
11
154.091039
21
17.312038
0
LINE
8
Layer 1
10
154.091039
20
17.312038
11
154.419099
21
16.918813
0
LINE
8
Layer 1
10
154.419099
20
16.918813
11
154.487238
21
16.489310
0
LINE
8
Layer 1
10
154.487238
20
16.489310
11
154.334234
21
16.058209
0
LINE
8
Layer 1
10
154.334234
20
16.058209
11
153.998864
21
15.660190
0
LINE
8
Layer 1
10
153.998864
20
15.660190
11
152.936138
21
15.102117
0
LINE
8
Layer 1
10
152.936138
20
15.102117
11
152.286337
21
15.011423
0
LINE
8
Layer 1
10
152.286337
20
15.011423
11
151.609281
21
15.092530
0
LINE
8
Layer 1
10
151.609281
20
15.092530
11
150.943746
21
15.380118
0
LINE
8
Layer 1
10
150.943746
20
15.380118
11
150.328510
21
15.908867
0
LINE
8
Layer 1
10
150.328510
20
15.908867
11
149.802352
21
16.713457
0
LINE
8
Layer 1
10
149.802352
20
16.713457
11
149.404047
21
17.828568
0
LINE
8
Layer 1
10
149.404047
20
17.828568
11
149.404047
21
17.828568
0
LINE
8
Layer 1
10
187.265220
20
17.749201
11
187.510109
21
17.475115
0
LINE
8
Layer 1
10
187.510109
20
17.475115
11
187.505755
21
17.303585
0
LINE
8
Layer 1
10
187.505755
20
17.303585
11
187.107866
21
17.219705
0
LINE
8
Layer 1
10
187.107866
20
17.219705
11
186.788653
21
17.400573
0
LINE
8
Layer 1
10
186.788653
20
17.400573
11
186.882645
21
17.559979
0
LINE
8
Layer 1
10
186.882645
20
17.559979
11
187.265220
21
17.749201
0
LINE
8
Layer 1
10
187.265220
20
17.749201
11
187.265220
21
17.749201
0
LINE
8
Layer 1
10
109.205319
20
17.616901
11
110.837299
21
17.222089
0
LINE
8
Layer 1
10
110.837299
20
17.222089
11
111.534530
21
16.844286
0
LINE
8
Layer 1
10
111.534530
20
16.844286
11
111.605814
21
16.676731
0
LINE
8
Layer 1
10
111.605814
20
16.676731
11
111.531248
21
16.531389
0
LINE
8
Layer 1
10
111.531248
20
16.531389
11
111.061685
21
16.331296
0
LINE
8
Layer 1
10
111.061685
20
16.331296
11
110.360077
21
16.291903
0
LINE
8
Layer 1
10
110.360077
20
16.291903
11
109.660657
21
16.461108
0
LINE
8
Layer 1
10
109.660657
20
16.461108
11
109.197660
21
16.886809
0
LINE
8
Layer 1
10
109.197660
20
16.886809
11
109.128018
21
17.210812
0
LINE
8
Layer 1
10
109.128018
20
17.210812
11
109.205319
21
17.616901
0
LINE
8
Layer 1
10
109.205319
20
17.616901
11
109.205319
21
17.616901
0
LINE
8
Layer 1
10
135.709982
20
17.484618
11
136.041413
21
16.769155
0
LINE
8
Layer 1
10
136.041413
20
16.769155
11
136.140399
21
16.213581
0
LINE
8
Layer 1
10
136.140399
20
16.213581
11
136.047281
21
15.804077
0
LINE
8
Layer 1
10
136.047281
20
15.804077
11
135.802399
21
15.526821
0
LINE
8
Layer 1
10
135.802399
20
15.526821
11
135.018702
21
15.313776
0
LINE
8
Layer 1
10
135.018702
20
15.313776
11
134.112028
21
15.463884
0
LINE
8
Layer 1
10
134.112028
20
15.463884
11
133.405098
21
15.866584
0
LINE
8
Layer 1
10
133.405098
20
15.866584
11
133.227387
21
16.128106
0
LINE
8
Layer 1
10
133.227387
20
16.128106
11
133.220632
21
16.411315
0
LINE
8
Layer 1
10
133.220632
20
16.411315
11
133.425174
21
16.702391
0
LINE
8
Layer 1
10
133.425174
20
16.702391
11
133.881351
21
16.987514
0
LINE
8
Layer 1
10
133.881351
20
16.987514
11
135.709976
21
17.484621
0
LINE
8
Layer 1
10
135.709976
20
17.484621
11
135.709982
21
17.484618
0
LINE
8
Layer 1
10
135.709982
20
17.484618
11
135.709982
21
17.484618
0
LINE
8
Layer 1
10
162.334290
20
17.458151
11
163.717041
21
17.330147
0
LINE
8
Layer 1
10
163.717041
20
17.330147
11
165.413217
21
16.985093
0
LINE
8
Layer 1
10
165.413217
20
16.985093
11
168.772753
21
16.148597
0
LINE
8
Layer 1
10
168.772753
20
16.148597
11
169.949569
21
15.909536
0
LINE
8
Layer 1
10
169.949569
20
15.909536
11
170.466721
21
15.958188
0
LINE
8
Layer 1
10
170.466721
20
15.958188
11
170.080937
21
16.420742
0
LINE
8
Layer 1
10
170.080937
20
16.420742
11
168.548945
21
17.423390
0
LINE
8
Layer 1
10
168.548945
20
17.423390
11
171.085102
21
16.867774
0
LINE
8
Layer 1
10
171.085102
20
16.867774
11
172.561526
21
16.362516
0
LINE
8
Layer 1
10
172.561526
20
16.362516
11
173.121741
21
15.912760
0
LINE
8
Layer 1
10
173.121741
20
15.912760
11
173.103123
21
15.710303
0
LINE
8
Layer 1
10
173.103123
20
15.710303
11
172.909276
21
15.523652
0
LINE
8
Layer 1
10
172.909276
20
15.523652
11
172.067656
21
15.200340
0
LINE
8
Layer 1
10
172.067656
20
15.200340
11
170.740409
21
14.947969
0
LINE
8
Layer 1
10
170.740409
20
14.947969
11
167.203139
21
14.676633
0
LINE
8
Layer 1
10
167.203139
20
14.676633
11
163.445679
21
14.750815
0
LINE
8
Layer 1
10
163.445679
20
14.750815
11
161.843194
21
14.930340
0
LINE
8
Layer 1
10
161.843194
20
14.930340
11
160.616241
21
15.211683
0
LINE
8
Layer 1
10
160.616241
20
15.211683
11
159.908348
21
15.599989
0
LINE
8
Layer 1
10
159.908348
20
15.599989
11
159.793901
21
15.835862
0
LINE
8
Layer 1
10
159.793901
20
15.835862
11
159.863041
21
16.100405
0
LINE
8
Layer 1
10
159.863041
20
16.100405
11
160.623846
21
16.718077
0
LINE
8
Layer 1
10
160.623846
20
16.718077
11
162.334290
21
17.458151
0
LINE
8
Layer 1
10
162.334290
20
17.458151
11
162.334290
21
17.458151
0
LINE
8
Layer 1
10
145.455973
20
17.414062
11
145.190385
21
16.501123
0
LINE
8
Layer 1
10
145.190385
20
16.501123
11
144.663340
21
16.005606
0
LINE
8
Layer 1
10
144.663340
20
16.005606
11
144.043507
21
15.849221
0
LINE
8
Layer 1
10
144.043507
20
15.849221
11
143.499557
21
15.953675
0
LINE
8
Layer 1
10
143.499557
20
15.953675
11
143.200159
21
16.240678
0
LINE
8
Layer 1
10
143.200159
20
16.240678
11
143.313982
21
16.631938
0
LINE
8
Layer 1
10
143.313982
20
16.631938
11
144.009697
21
17.049163
0
LINE
8
Layer 1
10
144.009697
20
17.049163
11
145.455973
21
17.414062
0
LINE
8
Layer 1
10
145.455973
20
17.414062
11
145.455973
21
17.414062
0
LINE
8
Layer 1
10
184.421509
20
17.369957
11
185.544749
21
16.672319
0
LINE
8
Layer 1
10
185.544749
20
16.672319
11
186.039453
21
16.119323
0
LINE
8
Layer 1
10
186.039453
20
16.119323
11
185.996152
21
15.698033
0
LINE
8
Layer 1
10
185.996152
20
15.698033
11
185.505378
21
15.395512
0
LINE
8
Layer 1
10
185.505378
20
15.395512
11
183.543534
21
15.095033
0
LINE
8
Layer 1
10
183.543534
20
15.095033
11
180.878171
21
15.114396
0
LINE
8
Layer 1
10
180.878171
20
15.114396
11
178.233537
21
15.350110
0
LINE
8
Layer 1
10
178.233537
20
15.350110
11
176.333881
21
15.698685
0
LINE
8
Layer 1
10
176.333881
20
15.698685
11
175.889748
21
15.882954
0
LINE
8
Layer 1
10
175.889748
20
15.882954
11
175.903454
21
16.056630
0
LINE
8
Layer 1
10
175.903454
20
16.056630
11
177.666503
21
16.320454
0
LINE
8
Layer 1
10
177.666503
20
16.320454
11
177.896247
21
15.814534
0
LINE
8
Layer 1
10
177.896247
20
15.814534
11
178.432870
21
15.743887
0
LINE
8
Layer 1
10
178.432870
20
15.743887
11
180.164214
21
16.401931
0
LINE
8
Layer 1
10
180.164214
20
16.401931
11
182.335453
21
17.281611
0
LINE
8
Layer 1
10
182.335453
20
17.281611
11
183.421947
21
17.488012
0
LINE
8
Layer 1
10
183.421947
20
17.488012
11
184.421509
21
17.369957
0
LINE
8
Layer 1
10
184.421509
20
17.369957
11
184.421509
21
17.369957
0
LINE
8
Layer 1
10
142.428177
20
17.158290
11
142.468173
21
16.118451
0
LINE
8
Layer 1
10
142.468173
20
16.118451
11
142.098336
21
15.618381
0
LINE
8
Layer 1
10
142.098336
20
15.618381
11
141.517868
21
15.536743
0
LINE
8
Layer 1
10
141.517868
20
15.536743
11
140.925974
21
15.752202
0
LINE
8
Layer 1
10
140.925974
20
15.752202
11
140.521854
21
16.143422
0
LINE
8
Layer 1
10
140.521854
20
16.143422
11
140.504713
21
16.589067
0
LINE
8
Layer 1
10
140.504713
20
16.589067
11
141.073754
21
16.967801
0
LINE
8
Layer 1
10
141.073754
20
16.967801
11
142.428177
21
17.158290
0
LINE
8
Layer 1
10
142.428177
20
17.158290
11
142.428177
21
17.158290
0
LINE
8
Layer 1
10
173.571146
20
16.867257
11
173.982639
21
16.754554
0
LINE
8
Layer 1
10
173.982639
20
16.754554
11
173.706378
21
16.684293
0
LINE
8
Layer 1
10
173.706378
20
16.684293
11
173.362502
21
16.705514
0
LINE
8
Layer 1
10
173.362502
20
16.705514
11
173.571146
21
16.867257
0
LINE
8
Layer 1
10
173.571146
20
16.867257
11
173.571146
21
16.867257
0
LINE
8
Layer 1
10
146.882423
20
16.620312
11
147.231616
21
16.228278
0
LINE
8
Layer 1
10
147.231616
20
16.228278
11
147.053247
21
16.068423
0
LINE
8
Layer 1
10
147.053247
20
16.068423
11
146.789466
21
16.184512
0
LINE
8
Layer 1
10
146.789466
20
16.184512
11
146.882423
21
16.620312
0
LINE
8
Layer 1
10
146.882423
20
16.620312
11
146.882423
21
16.620312
0
LINE
8
Layer 1
10
120.994379
20
16.170512
11
121.391265
21
15.450352
0
LINE
8
Layer 1
10
121.391265
20
15.450352
11
121.502617
21
14.927383
0
LINE
8
Layer 1
10
121.502617
20
14.927383
11
121.378279
21
14.579924
0
LINE
8
Layer 1
10
121.378279
20
14.579924
11
121.068100
21
14.386298
0
LINE
8
Layer 1
10
121.068100
20
14.386298
11
120.089600
21
14.373825
0
LINE
8
Layer 1
10
120.089600
20
14.373825
11
118.965889
21
14.716531
0
LINE
8
Layer 1
10
118.965889
20
14.716531
11
118.095740
21
15.240986
0
LINE
8
Layer 1
10
118.095740
20
15.240986
11
117.880367
21
15.517171
0
LINE
8
Layer 1
10
117.880367
20
15.517171
11
117.877924
21
15.773755
0
LINE
8
Layer 1
10
117.877924
20
15.773755
11
118.138257
21
15.989061
0
LINE
8
Layer 1
10
118.138257
20
15.989061
11
118.711213
21
16.141408
0
LINE
8
Layer 1
10
118.711213
20
16.141408
11
120.994379
21
16.170512
0
LINE
8
Layer 1
10
120.994379
20
16.170512
11
120.994379
21
16.170512
0
LINE
8
Layer 1
10
174.012888
20
15.491423
11
175.423792
21
15.288707
0
LINE
8
Layer 1
10
175.423792
20
15.288707
11
175.898937
21
15.120109
0
LINE
8
Layer 1
10
175.898937
20
15.120109
11
175.704646
21
14.997528
0
LINE
8
Layer 1
10
175.704646
20
14.997528
11
175.107239
21
14.932867
0
LINE
8
Layer 1
10
175.107239
20
14.932867
11
173.768365
21
15.024903
0
LINE
8
Layer 1
10
173.768365
20
15.024903
11
173.559541
21
15.205402
0
LINE
8
Layer 1
10
173.559541
20
15.205402
11
174.012888
21
15.491423
0
LINE
8
Layer 1
10
174.012888
20
15.491423
11
174.012888
21
15.491423
0
LINE
8
Layer 1
10
246.293310
20
14.080312
11
246.553309
21
13.843712
0
LINE
8
Layer 1
10
246.553309
20
13.843712
11
246.590454
21
13.674714
0
LINE
8
Layer 1
10
246.590454
20
13.674714
11
246.293318
21
13.539520
0
LINE
8
Layer 1
10
246.293318
20
13.539520
11
245.996178
21
13.674721
0
LINE
8
Layer 1
10
245.996178
20
13.674721
11
246.033318
21
13.843719
0
LINE
8
Layer 1
10
246.033318
20
13.843719
11
246.293310
21
14.080312
0
LINE
8
Layer 1
10
246.293310
20
14.080312
11
246.293310
21
14.080312
0
LINE
8
Layer 1
10
245.161359
20
13.798090
11
244.962720
21
13.264958
0
LINE
8
Layer 1
10
244.962720
20
13.264958
11
244.549422
21
12.844286
0
LINE
8
Layer 1
10
244.549422
20
12.844286
11
243.621676
21
12.420048
0
LINE
8
Layer 1
10
243.621676
20
12.420048
11
243.378641
21
12.456346
0
LINE
8
Layer 1
10
243.378641
20
12.456346
11
243.463772
21
12.684831
0
LINE
8
Layer 1
10
243.463772
20
12.684831
11
244.012776
21
13.125435
0
LINE
8
Layer 1
10
244.012776
20
13.125435
11
245.161359
21
13.798090
0
LINE
8
Layer 1
10
245.161359
20
13.798090
11
245.161359
21
13.798090
0
LINE
8
Layer 1
10
152.956407
20
13.454123
11
155.830621
21
13.314609
0
LINE
8
Layer 1
10
155.830621
20
13.314609
11
156.939576
21
13.014766
0
LINE
8
Layer 1
10
156.939576
20
13.014766
11
156.979589
21
12.836000
0
LINE
8
Layer 1
10
156.979589
20
12.836000
11
156.755298
21
12.654688
0
LINE
8
Layer 1
10
156.755298
20
12.654688
11
155.749816
21
12.334472
0
LINE
8
Layer 1
10
155.749816
20
12.334472
11
154.395158
21
12.154212
0
LINE
8
Layer 1
10
154.395158
20
12.154212
11
153.163353
21
12.214003
0
LINE
8
Layer 1
10
153.163353
20
12.214003
11
152.741029
21
12.365197
0
LINE
8
Layer 1
10
152.741029
20
12.365197
11
152.526428
21
12.613941
0
LINE
8
Layer 1
10
152.526428
20
12.613941
11
152.578555
21
12.972744
0
LINE
8
Layer 1
10
152.578555
20
12.972744
11
152.956412
21
13.454120
0
LINE
8
Layer 1
10
152.956412
20
13.454120
11
152.956407
21
13.454123
0
LINE
8
Layer 1
10
152.956407
20
13.454123
11
152.956407
21
13.454123
0
LINE
8
Layer 1
10
125.697107
20
13.418845
11
129.190335
21
13.459200
0
LINE
8
Layer 1
10
129.190335
20
13.459200
11
130.220996
21
13.293221
0
LINE
8
Layer 1
10
130.220996
20
13.293221
11
130.841106
21
13.040171
0
LINE
8
Layer 1
10
130.841106
20
13.040171
11
131.100726
21
12.727824
0
LINE
8
Layer 1
10
131.100726
20
12.727824
11
131.049921
21
12.383954
0
LINE
8
Layer 1
10
131.049921
20
12.383954
11
130.738753
21
12.036335
0
LINE
8
Layer 1
10
130.738753
20
12.036335
11
130.217286
21
11.712742
0
LINE
8
Layer 1
10
130.217286
20
11.712742
11
128.743703
21
11.248731
0
LINE
8
Layer 1
10
128.743703
20
11.248731
11
127.029677
21
11.214114
0
LINE
8
Layer 1
10
127.029677
20
11.214114
11
126.207655
21
11.427265
0
LINE
8
Layer 1
10
126.207655
20
11.427265
11
125.475711
21
11.831087
0
LINE
8
Layer 1
10
125.475711
20
11.831087
11
124.883909
21
12.453355
0
LINE
8
Layer 1
10
124.883909
20
12.453355
11
124.482310
21
13.321843
0
LINE
8
Layer 1
10
124.482310
20
13.321843
11
125.697104
21
13.418843
0
LINE
8
Layer 1
10
125.697104
20
13.418843
11
125.697107
21
13.418845
0
LINE
8
Layer 1
10
125.697107
20
13.418845
11
125.697107
21
13.418845
0
LINE
8
Layer 1
10
204.014694
20
13.233646
11
204.363887
21
12.841612
0
LINE
8
Layer 1
10
204.363887
20
12.841612
11
204.185518
21
12.681756
0
LINE
8
Layer 1
10
204.185518
20
12.681756
11
203.921737
21
12.797846
0
LINE
8
Layer 1
10
203.921737
20
12.797846
11
204.014694
21
13.233646
0
LINE
8
Layer 1
10
204.014694
20
13.233646
11
204.014694
21
13.233646
0
LINE
8
Layer 1
10
159.591793
20
13.198368
11
161.568081
21
12.936825
0
LINE
8
Layer 1
10
161.568081
20
12.936825
11
162.201195
21
12.711546
0
LINE
8
Layer 1
10
162.201195
20
12.711546
11
161.880393
21
12.541762
0
LINE
8
Layer 1
10
161.880393
20
12.541762
11
160.994938
21
12.446706
0
LINE
8
Layer 1
10
160.994938
20
12.446706
11
159.087109
21
12.557696
0
LINE
8
Layer 1
10
159.087109
20
12.557696
11
158.865463
21
12.662197
0
LINE
8
Layer 1
10
158.865463
20
12.662197
11
158.843257
21
12.802206
0
LINE
8
Layer 1
10
158.843257
20
12.802206
11
159.591793
21
13.198368
0
LINE
8
Layer 1
10
159.591793
20
13.198368
11
159.591793
21
13.198368
0
LINE
8
Layer 1
10
145.649219
20
13.189540
11
147.517889
21
13.051174
0
LINE
8
Layer 1
10
147.517889
20
13.051174
11
148.198157
21
12.909107
0
LINE
8
Layer 1
10
148.198157
20
12.909107
11
148.017272
21
12.784956
0
LINE
8
Layer 1
10
148.017272
20
12.784956
11
147.302482
21
12.700338
0
LINE
8
Layer 1
10
147.302482
20
12.700338
11
145.580175
21
12.736170
0
LINE
8
Layer 1
10
145.580175
20
12.736170
11
145.227154
21
12.899854
0
LINE
8
Layer 1
10
145.227154
20
12.899854
11
145.649219
21
13.189540
0
LINE
8
Layer 1
10
145.649219
20
13.189540
11
145.649219
21
13.189540
0
LINE
8
Layer 1
10
166.917387
20
12.801484
11
167.528137
21
12.313151
0
LINE
8
Layer 1
10
167.528137
20
12.313151
11
167.778270
21
11.959564
0
LINE
8
Layer 1
10
167.778270
20
11.959564
11
167.727612
21
11.725803
0
LINE
8
Layer 1
10
167.727612
20
11.725803
11
167.435987
21
11.596944
0
LINE
8
Layer 1
10
167.435987
20
11.596944
11
166.369136
21
11.594248
0
LINE
8
Layer 1
10
166.369136
20
11.594248
11
165.056318
21
11.832100
0
LINE
8
Layer 1
10
165.056318
20
11.832100
11
163.976134
21
12.191125
0
LINE
8
Layer 1
10
163.976134
20
12.191125
11
163.672843
21
12.378772
0
LINE
8
Layer 1
10
163.672843
20
12.378772
11
163.607184
21
12.551948
0
LINE
8
Layer 1
10
163.607184
20
12.551948
11
163.838985
21
12.695728
0
LINE
8
Layer 1
10
163.838985
20
12.695728
11
164.428068
21
12.795193
0
LINE
8
Layer 1
10
164.428068
20
12.795193
11
166.917387
21
12.801484
0
LINE
8
Layer 1
10
166.917387
20
12.801484
11
166.917387
21
12.801484
0
LINE
8
Layer 1
10
169.374574
20
12.360512
11
170.130860
21
11.922726
0
LINE
8
Layer 1
10
170.130860
20
11.922726
11
170.221183
21
11.709145
0
LINE
8
Layer 1
10
170.221183
20
11.709145
11
169.303700
21
11.756349
0
LINE
8
Layer 1
10
169.303700
20
11.756349
11
168.421655
21
12.105635
0
LINE
8
Layer 1
10
168.421655
20
12.105635
11
168.556273
21
12.269655
0
LINE
8
Layer 1
10
168.556273
20
12.269655
11
169.374574
21
12.360512
0
LINE
8
Layer 1
10
169.374574
20
12.360512
11
169.374574
21
12.360512
0
LINE
8
Layer 1
10
139.492426
20
11.875451
11
140.360698
21
11.041295
0
LINE
8
Layer 1
10
140.360698
20
11.041295
11
140.445080
21
10.727051
0
LINE
8
Layer 1
10
140.445080
20
10.727051
11
140.348954
21
10.478603
0
LINE
8
Layer 1
10
140.348954
20
10.478603
11
139.773163
21
10.170808
0
LINE
8
Layer 1
10
139.773163
20
10.170808
11
138.949293
21
10.101344
0
LINE
8
Layer 1
10
138.949293
20
10.101344
11
138.193316
21
10.253643
0
LINE
8
Layer 1
10
138.193316
20
10.253643
11
137.821200
21
10.611139
0
LINE
8
Layer 1
10
137.821200
20
10.611139
11
137.877830
21
10.861659
0
LINE
8
Layer 1
10
137.877830
20
10.861659
11
138.148914
21
11.157265
0
LINE
8
Layer 1
10
138.148914
20
11.157265
11
139.492428
21
11.875454
0
LINE
8
Layer 1
10
139.492428
20
11.875454
11
139.492426
21
11.875451
0
LINE
8
Layer 1
10
139.492426
20
11.875451
11
139.492426
21
11.875451
0
LINE
8
Layer 1
10
223.828785
20
11.531484
11
223.946945
21
11.266804
0
LINE
8
Layer 1
10
223.946945
20
11.266804
11
223.843394
21
11.081265
0
LINE
8
Layer 1
10
223.843394
20
11.081265
11
223.347061
21
10.940574
0
LINE
8
Layer 1
10
223.347061
20
10.940574
11
223.142230
21
10.981905
0
LINE
8
Layer 1
10
223.142230
20
10.981905
11
223.091590
21
11.095339
0
LINE
8
Layer 1
10
223.091590
20
11.095339
11
223.828785
21
11.531484
0
LINE
8
Layer 1
10
223.828785
20
11.531484
11
223.828785
21
11.531484
0
LINE
8
Layer 1
10
145.888498
20
11.222812
11
146.299993
21
11.110110
0
LINE
8
Layer 1
10
146.299993
20
11.110110
11
146.023733
21
11.039849
0
LINE
8
Layer 1
10
146.023733
20
11.039849
11
145.679856
21
11.061069
0
LINE
8
Layer 1
10
145.679856
20
11.061069
11
145.888498
21
11.222812
0
LINE
8
Layer 1
10
145.888498
20
11.222812
11
145.888498
21
11.222812
0
LINE
8
Layer 1
10
248.502032
20
10.693646
11
248.883897
21
10.464049
0
LINE
8
Layer 1
10
248.883897
20
10.464049
11
248.938451
21
10.300053
0
LINE
8
Layer 1
10
248.938451
20
10.300053
11
248.502039
21
10.168859
0
LINE
8
Layer 1
10
248.502039
20
10.168859
11
248.065624
21
10.300059
0
LINE
8
Layer 1
10
248.065624
20
10.300059
11
248.120173
21
10.464054
0
LINE
8
Layer 1
10
248.120173
20
10.464054
11
248.502032
21
10.693646
0
LINE
8
Layer 1
10
248.502032
20
10.693646
11
248.502032
21
10.693646
0
LINE
8
Layer 1
10
156.306303
20
10.411423
11
156.818930
21
10.013222
0
LINE
8
Layer 1
10
156.818930
20
10.013222
11
157.059837
21
9.675940
0
LINE
8
Layer 1
10
157.059837
20
9.675940
11
157.072603
21
9.397901
0
LINE
8
Layer 1
10
157.072603
20
9.397901
11
156.900807
21
9.177427
0
LINE
8
Layer 1
10
156.900807
20
9.177427
11
156.177848
21
8.902468
0
LINE
8
Layer 1
10
156.177848
20
8.902468
11
155.239593
21
8.837646
0
LINE
8
Layer 1
10
155.239593
20
8.837646
11
154.434678
21
8.969547
0
LINE
8
Layer 1
10
154.434678
20
8.969547
11
154.191171
21
9.105076
0
LINE
8
Layer 1
10
154.191171
20
9.105076
11
154.111736
21
9.284754
0
LINE
8
Layer 1
10
154.111736
20
9.284754
11
154.239953
21
9.506906
0
LINE
8
Layer 1
10
154.239953
20
9.506906
11
154.619401
21
9.769853
0
LINE
8
Layer 1
10
154.619401
20
9.769853
11
156.306308
21
10.411426
0
LINE
8
Layer 1
10
156.306308
20
10.411426
11
156.306303
21
10.411423
0
LINE
8
Layer 1
10
156.306303
20
10.411423
11
156.306303
21
10.411423
0
LINE
8
Layer 1
10
223.856378
20
10.384957
11
223.776877
21
9.490546
0
LINE
8
Layer 1
10
223.776877
20
9.490546
11
223.293567
21
8.693183
0
LINE
8
Layer 1
10
223.293567
20
8.693183
11
222.464190
21
7.988523
0
LINE
8
Layer 1
10
222.464190
20
7.988523
11
221.346489
21
7.372223
0
LINE
8
Layer 1
10
221.346489
20
7.372223
11
218.477076
21
6.387322
0
LINE
8
Layer 1
10
218.477076
20
6.387322
11
215.147265
21
5.703726
0
LINE
8
Layer 1
10
215.147265
20
5.703726
11
211.818987
21
5.286682
0
LINE
8
Layer 1
10
211.818987
20
5.286682
11
208.954178
21
5.101435
0
LINE
8
Layer 1
10
208.954178
20
5.101435
11
207.014771
21
5.113230
0
LINE
8
Layer 1
10
207.014771
20
5.113230
11
206.536448
21
5.182159
0
LINE
8
Layer 1
10
206.536448
20
5.182159
11
206.462701
21
5.287315
0
LINE
8
Layer 1
10
206.462701
20
5.287315
11
210.790147
21
5.848787
0
LINE
8
Layer 1
10
210.790147
20
5.848787
11
216.919610
21
7.066245
0
LINE
8
Layer 1
10
216.919610
20
7.066245
11
219.608420
21
7.757033
0
LINE
8
Layer 1
10
219.608420
20
7.757033
11
221.485719
21
8.415093
0
LINE
8
Layer 1
10
221.485719
20
8.415093
11
221.988593
21
8.711358
0
LINE
8
Layer 1
10
221.988593
20
8.711358
11
222.130838
21
8.974851
0
LINE
8
Layer 1
10
222.130838
20
8.974851
11
221.859869
21
9.197374
0
LINE
8
Layer 1
10
221.859869
20
9.197374
11
221.123104
21
9.370732
0
LINE
8
Layer 1
10
221.123104
20
9.370732
11
219.798318
21
9.375201
0
LINE
8
Layer 1
10
219.798318
20
9.375201
11
220.773195
21
9.682548
0
LINE
8
Layer 1
10
220.773195
20
9.682548
11
223.856378
21
10.384957
0
LINE
8
Layer 1
10
223.856378
20
10.384957
11
223.856378
21
10.384957
0
LINE
8
Layer 1
10
215.187143
20
10.314401
11
214.747356
21
10.013724
0
LINE
8
Layer 1
10
214.747356
20
10.013724
11
215.013989
21
9.866344
0
LINE
8
Layer 1
10
215.013989
20
9.866344
11
215.367200
21
9.942992
0
LINE
8
Layer 1
10
215.367200
20
9.942992
11
215.382570
21
10.087431
0
LINE
8
Layer 1
10
215.382570
20
10.087431
11
215.187143
21
10.314401
0
LINE
8
Layer 1
10
215.187143
20
10.314401
11
215.187143
21
10.314401
0
LINE
8
Layer 1
10
167.368319
20
10.129201
11
167.628318
21
9.892601
0
LINE
8
Layer 1
10
167.628318
20
9.892601
11
167.665463
21
9.723603
0
LINE
8
Layer 1
10
167.665463
20
9.723603
11
167.368327
21
9.588409
0
LINE
8
Layer 1
10
167.368327
20
9.588409
11
167.071187
21
9.723610
0
LINE
8
Layer 1
10
167.071187
20
9.723610
11
167.108327
21
9.892608
0
LINE
8
Layer 1
10
167.108327
20
9.892608
11
167.368319
21
10.129201
0
LINE
8
Layer 1
10
167.368319
20
10.129201
11
167.368319
21
10.129201
0
LINE
8
Layer 1
10
168.472680
20
10.093923
11
170.001035
21
9.848410
0
LINE
8
Layer 1
10
170.001035
20
9.848410
11
170.306831
21
9.670871
0
LINE
8
Layer 1
10
170.306831
20
9.670871
11
170.367476
21
9.473443
0
LINE
8
Layer 1
10
170.367476
20
9.473443
11
169.934624
21
9.068823
0
LINE
8
Layer 1
10
169.934624
20
9.068823
11
169.065099
21
8.734349
0
LINE
8
Layer 1
10
169.065099
20
8.734349
11
168.121521
21
8.569822
0
LINE
8
Layer 1
10
168.121521
20
8.569822
11
167.466512
21
8.675042
0
LINE
8
Layer 1
10
167.466512
20
8.675042
11
167.360539
21
8.859995
0
LINE
8
Layer 1
10
167.360539
20
8.859995
11
167.462691
21
9.149809
0
LINE
8
Layer 1
10
167.462691
20
9.149809
11
168.472680
21
10.093923
0
LINE
8
Layer 1
10
168.472680
20
10.093923
11
168.472680
21
10.093923
0
LINE
8
Layer 1
10
158.708304
20
9.943984
11
159.637847
21
9.710413
0
LINE
8
Layer 1
10
159.637847
20
9.710413
11
159.842170
21
9.399521
0
LINE
8
Layer 1
10
159.842170
20
9.399521
11
159.551091
21
9.083337
0
LINE
8
Layer 1
10
159.551091
20
9.083337
11
158.994429
21
8.833888
0
LINE
8
Layer 1
10
158.994429
20
8.833888
11
158.402001
21
8.723201
0
LINE
8
Layer 1
10
158.402001
20
8.723201
11
158.003626
21
8.823303
0
LINE
8
Layer 1
10
158.003626
20
8.823303
11
158.029121
21
9.206222
0
LINE
8
Layer 1
10
158.029121
20
9.206222
11
158.708304
21
9.943984
0
LINE
8
Layer 1
10
158.708304
20
9.943984
11
158.708304
21
9.943984
0
LINE
8
Layer 1
10
172.586441
20
9.794062
11
173.324773
21
9.428060
0
LINE
8
Layer 1
10
173.324773
20
9.428060
11
173.602157
21
9.120405
0
LINE
8
Layer 1
10
173.602157
20
9.120405
11
173.543591
21
8.894210
0
LINE
8
Layer 1
10
173.543591
20
8.894210
11
173.274072
21
8.772586
0
LINE
8
Layer 1
10
173.274072
20
8.772586
11
172.918600
21
8.778648
0
LINE
8
Layer 1
10
172.918600
20
8.778648
11
172.602172
21
8.935506
0
LINE
8
Layer 1
10
172.602172
20
8.935506
11
172.449786
21
9.266273
0
LINE
8
Layer 1
10
172.449786
20
9.266273
11
172.586441
21
9.794062
0
LINE
8
Layer 1
10
172.586441
20
9.794062
11
172.586441
21
9.794062
0
LINE
8
Layer 1
10
149.652547
20
9.617673
11
150.871416
21
9.420865
0
LINE
8
Layer 1
10
150.871416
20
9.420865
11
151.087652
21
9.315372
0
LINE
8
Layer 1
10
151.087652
20
9.315372
11
149.820994
21
9.308167
0
LINE
8
Layer 1
10
149.820994
20
9.308167
11
148.470113
21
9.455715
0
LINE
8
Layer 1
10
148.470113
20
9.455715
11
148.581069
21
9.543664
0
LINE
8
Layer 1
10
148.581069
20
9.543664
11
149.652547
21
9.617673
0
LINE
8
Layer 1
10
149.652547
20
9.617673
11
149.652547
21
9.617673
0
LINE
8
Layer 1
10
162.674783
20
9.432457
11
163.073099
21
9.126375
0
LINE
8
Layer 1
10
163.073099
20
9.126375
11
163.163205
21
8.910251
0
LINE
8
Layer 1
10
163.163205
20
8.910251
11
162.807595
21
8.742866
0
LINE
8
Layer 1
10
162.807595
20
8.742866
11
162.385579
21
8.920276
0
LINE
8
Layer 1
10
162.385579
20
8.920276
11
162.392677
21
9.135146
0
LINE
8
Layer 1
10
162.392677
20
9.135146
11
162.674783
21
9.432457
0
LINE
8
Layer 1
10
162.674783
20
9.432457
11
162.674783
21
9.432457
0
LINE
8
Layer 1
10
219.052408
20
9.247257
11
218.329372
21
8.541944
0
LINE
8
Layer 1
10
218.329372
20
8.541944
11
217.647646
21
8.160499
0
LINE
8
Layer 1
10
217.647646
20
8.160499
11
217.089865
21
8.041747
0
LINE
8
Layer 1
10
217.089865
20
8.041747
11
216.738667
21
8.124512
0
LINE
8
Layer 1
10
216.738667
20
8.124512
11
216.676686
21
8.347621
0
LINE
8
Layer 1
10
216.676686
20
8.347621
11
216.986560
21
8.649899
0
LINE
8
Layer 1
10
216.986560
20
8.649899
11
217.750924
21
8.970170
0
LINE
8
Layer 1
10
217.750924
20
8.970170
11
219.052414
21
9.247259
0
LINE
8
Layer 1
10
219.052414
20
9.247259
11
219.052408
21
9.247257
0
LINE
8
Layer 1
10
219.052408
20
9.247257
11
219.052408
21
9.247257
0
LINE
8
Layer 1
10
149.532888
20
8.038984
11
152.578448
21
7.790730
0
LINE
8
Layer 1
10
152.578448
20
7.790730
11
154.282774
21
7.532111
0
LINE
8
Layer 1
10
154.282774
20
7.532111
11
154.881402
21
7.303775
0
LINE
8
Layer 1
10
154.881402
20
7.303775
11
154.609870
21
7.146368
0
LINE
8
Layer 1
10
154.609870
20
7.146368
11
153.703716
21
7.100538
0
LINE
8
Layer 1
10
153.703716
20
7.100538
11
152.398475
21
7.206933
0
LINE
8
Layer 1
10
152.398475
20
7.206933
11
150.929687
21
7.506199
0
LINE
8
Layer 1
10
150.929687
20
7.506199
11
149.532888
21
8.038984
0
LINE
8
Layer 1
10
149.532888
20
8.038984
11
149.532888
21
8.038984
0
LINE
8
Layer 1
10
193.514080
20
6.971840
11
194.119419
21
6.537199
0
LINE
8
Layer 1
10
194.119419
20
6.537199
11
194.284864
21
6.193801
0
LINE
8
Layer 1
10
194.284864
20
6.193801
11
194.058573
21
5.930730
0
LINE
8
Layer 1
10
194.058573
20
5.930730
11
193.488706
21
5.737075
0
LINE
8
Layer 1
10
193.488706
20
5.737075
11
191.510877
21
5.514357
0
LINE
8
Layer 1
10
191.510877
20
5.514357
11
188.736650
21
5.438341
0
LINE
8
Layer 1
10
188.736650
20
5.438341
11
182.340089
21
5.377190
0
LINE
8
Layer 1
10
182.340089
20
5.377190
11
179.488298
21
5.217444
0
LINE
8
Layer 1
10
179.488298
20
5.217444
11
177.381196
21
4.855176
0
LINE
8
Layer 1
10
177.381196
20
4.855176
11
175.400169
21
5.376846
0
LINE
8
Layer 1
10
175.400169
20
5.376846
11
175.186679
21
5.564058
0
LINE
8
Layer 1
10
175.186679
20
5.564058
11
175.409334
21
5.710938
0
LINE
8
Layer 1
10
175.409334
20
5.710938
11
176.917471
21
5.909946
0
LINE
8
Layer 1
10
176.917471
20
5.909946
11
179.433360
21
6.026366
0
LINE
8
Layer 1
10
179.433360
20
6.026366
11
185.523515
21
6.221421
0
LINE
8
Layer 1
10
185.523515
20
6.221421
11
188.115340
21
6.405047
0
LINE
8
Layer 1
10
188.115340
20
6.405047
11
189.750037
21
6.716065
0
LINE
8
Layer 1
10
189.750037
20
6.716065
11
191.621351
21
6.950564
0
LINE
8
Layer 1
10
191.621351
20
6.950564
11
193.514080
21
6.971840
0
LINE
8
Layer 1
10
193.514080
20
6.971840
11
193.514080
21
6.971840
0
LINE
8
Layer 1
10
163.834363
20
6.742534
11
164.462073
21
6.523651
0
LINE
8
Layer 1
10
164.462073
20
6.523651
11
164.551748
21
6.367306
0
LINE
8
Layer 1
10
164.551748
20
6.367306
11
163.834371
21
6.242232
0
LINE
8
Layer 1
10
163.834371
20
6.242232
11
163.116990
21
6.367309
0
LINE
8
Layer 1
10
163.116990
20
6.367309
11
163.206660
21
6.523653
0
LINE
8
Layer 1
10
163.206660
20
6.523653
11
163.834363
21
6.742534
0
LINE
8
Layer 1
10
163.834363
20
6.742534
11
163.834363
21
6.742534
0
LINE
8
Layer 1
10
167.957311
20
6.742534
11
168.217310
21
6.505935
0
LINE
8
Layer 1
10
168.217310
20
6.505935
11
168.254455
21
6.336937
0
LINE
8
Layer 1
10
168.254455
20
6.336937
11
167.957319
21
6.201742
0
LINE
8
Layer 1
10
167.957319
20
6.201742
11
167.660179
21
6.336944
0
LINE
8
Layer 1
10
167.660179
20
6.336944
11
167.697319
21
6.505941
0
LINE
8
Layer 1
10
167.697319
20
6.505941
11
167.957311
21
6.742534
0
LINE
8
Layer 1
10
167.957311
20
6.742534
11
167.957311
21
6.742534
0
LINE
8
Layer 1
10
166.402018
20
6.733707
11
166.731576
21
6.442561
0
LINE
8
Layer 1
10
166.731576
20
6.442561
11
166.665649
21
6.269988
0
LINE
8
Layer 1
10
166.665649
20
6.269988
11
165.949991
21
6.209783
0
LINE
8
Layer 1
10
165.949991
20
6.209783
11
165.460346
21
6.411539
0
LINE
8
Layer 1
10
165.460346
20
6.411539
11
165.676936
21
6.566418
0
LINE
8
Layer 1
10
165.676936
20
6.566418
11
166.402018
21
6.733707
0
LINE
8
Layer 1
10
166.402018
20
6.733707
11
166.402018
21
6.733707
0
LINE
8
Layer 1
10
173.368679
20
6.336840
11
173.473959
21
6.084749
0
LINE
8
Layer 1
10
173.473959
20
6.084749
11
173.414167
21
5.904121
0
LINE
8
Layer 1
10
173.414167
20
5.904121
11
173.069353
21
5.758382
0
LINE
8
Layer 1
10
173.069353
20
5.758382
11
172.874203
21
5.901872
0
LINE
8
Layer 1
10
172.874203
20
5.901872
11
173.368685
21
6.336843
0
LINE
8
Layer 1
10
173.368685
20
6.336843
11
173.368679
21
6.336840
0
LINE
8
Layer 1
10
173.368679
20
6.336840
11
173.368679
21
6.336840
0
LINE
8
Layer 1
10
204.585279
20
4.952179
11
204.780707
21
4.725205
0
LINE
8
Layer 1
10
204.780707
20
4.725205
11
204.765336
21
4.580766
0
LINE
8
Layer 1
10
204.765336
20
4.580766
11
204.412121
21
4.504124
0
LINE
8
Layer 1
10
204.412121
20
4.504124
11
204.145485
21
4.651509
0
LINE
8
Layer 1
10
204.145485
20
4.651509
11
204.585279
21
4.952179
0
LINE
8
Layer 1
10
204.585279
20
4.952179
11
204.585279
21
4.952179
0
LINE
8
Layer 1
10
215.500046
20
4.766979
11
215.849240
21
4.374945
0
LINE
8
Layer 1
10
215.849240
20
4.374945
11
215.670872
21
4.215090
0
LINE
8
Layer 1
10
215.670872
20
4.215090
11
215.407091
21
4.331179
0
LINE
8
Layer 1
10
215.407091
20
4.331179
11
215.500046
21
4.766979
0
LINE
8
Layer 1
10
215.500046
20
4.766979
11
215.500046
21
4.766979
0
LINE
8
Layer 1
10
220.672138
20
3.885034
11
220.304910
21
3.761977
0
LINE
8
Layer 1
10
220.304910
20
3.761977
11
220.672144
21
3.720964
0
LINE
8
Layer 1
10
220.672144
20
3.720964
11
221.039375
21
3.761987
0
LINE
8
Layer 1
10
221.039375
20
3.761987
11
220.672138
21
3.885034
0
LINE
8
Layer 1
10
220.672138
20
3.885034
11
220.672138
21
3.885034
 0 
ENDSEC
 0 
EOF
