0
SECTION
2
HEADER
9
$ACADVER
1
AC1009
9
$ANGDIR
70
0
9
$EXTMIN
10
0
20
0
9
$EXTMAX
10
24.0000
20
18.0000
0
ENDSEC
0
SECTION
2
ENTITIES
0
POLYLINE
8
Layer 1
66
1
0
VERTEX
8
0
10
0.8162
20
5.4610
42
-0.0950
0
VERTEX
8
0
10
0.7893
20
5.4665
42
-0.0238
0
VERTEX
8
0
10
0.7766
20
5.4716
42
-0.0092
0
VERTEX
8
0
10
0.7702
20
5.4747
0
VERTEX
8
0
10
0.7692
20
5.4752
0
VERTEX
8
0
10
0.7714
20
5.4741
0
VERTEX
8
0
10
0.7718
20
5.4739
0
VERTEX
8
0
10
0.7686
20
5.4755
42
-0.0318
0
VERTEX
8
0
10
0.7768
20
5.5368
42
-0.0472
0
VERTEX
8
0
10
0.7864
20
5.5661
42
-0.1930
0
VERTEX
8
0
10
0.8082
20
5.5860
42
-0.3046
0
VERTEX
8
0
10
0.8309
20
5.5722
42
-0.0787
0
VERTEX
8
0
10
0.8443
20
5.5483
42
-0.1173
0
VERTEX
8
0
10
0.8526
20
5.4945
42
-0.3585
0
VERTEX
8
0
10
0.8162
20
5.4610
0
SEQEND
8
0
0
POLYLINE
8
Layer 1
66
1
0
VERTEX
8
0
10
0.9247
20
5.0752
42
-0.0784
0
VERTEX
8
0
10
0.8803
20
5.0368
42
-0.3138
0
VERTEX
8
0
10
0.8259
20
5.0461
42
-0.2377
0
VERTEX
8
0
10
0.8364
20
5.2604
42
-0.0848
0
VERTEX
8
0
10
0.9015
20
5.3495
42
-0.1388
0
VERTEX
8
0
10
0.9976
20
5.4004
42
-0.3847
0
VERTEX
8
0
10
1.0437
20
5.3596
42
-0.1192
0
VERTEX
8
0
10
1.0423
20
5.2924
42
-0.0656
0
VERTEX
8
0
10
1.0019
20
5.1638
42
0.1526
0
VERTEX
8
0
10
0.9609
20
5.1218
42
-0.0027
0
VERTEX
8
0
10
0.9247
20
5.0752
0
SEQEND
8
0
0
POLYLINE
8
Layer 1
66
1
0
VERTEX
8
0
10
1.1439
20
4.8487
0
VERTEX
8
0
10
1.1358
20
4.8721
42
-0.0679
0
VERTEX
8
0
10
1.0937
20
4.9917
42
-0.1325
0
VERTEX
8
0
10
1.1023
20
5.0538
42
-0.2738
0
VERTEX
8
0
10
1.1554
20
5.0839
42
-0.1984
0
VERTEX
8
0
10
1.2455
20
5.0531
42
-0.2323
0
VERTEX
8
0
10
1.2856
20
4.9695
42
-0.2476
0
VERTEX
8
0
10
1.2299
20
4.8930
42
-0.0719
0
VERTEX
8
0
10
1.1439
20
4.8487
0
SEQEND
8
0
0
POLYLINE
8
Layer 1
66
1
0
VERTEX
8
0
10
1.0754
20
4.4670
42
-0.1095
0
VERTEX
8
0
10
1.0127
20
4.3896
42
-0.2318
0
VERTEX
8
0
10
0.9177
20
4.3729
42
-0.1152
0
VERTEX
8
0
10
0.8808
20
4.4911
42
-0.0551
0
VERTEX
8
0
10
0.8775
20
4.6154
42
-0.0505
0
VERTEX
8
0
10
0.8986
20
4.7379
42
-0.0462
0
VERTEX
8
0
10
0.9217
20
4.7957
42
-0.1618
0
VERTEX
8
0
10
0.9665
20
4.8372
42
-0.3487
0
VERTEX
8
0
10
1.0124
20
4.8111
42
-0.0707
0
VERTEX
8
0
10
1.0396
20
4.7630
42
-0.0473
0
VERTEX
8
0
10
1.0746
20
4.6579
42
-0.2015
0
VERTEX
8
0
10
1.1016
20
4.5633
42
-0.1104
0
VERTEX
8
0
10
1.0754
20
4.4670
0
SEQEND
8
0
0
POLYLINE
8
Layer 1
66
1
0
VERTEX
8
0
10
1.3026
20
4.3576
0
VERTEX
8
0
10
1.2462
20
4.4093
42
-0.0442
0
VERTEX
8
0
10
1.1995
20
4.5104
42
-0.0885
0
VERTEX
8
0
10
1.1929
20
4.5653
42
-0.3795
0
VERTEX
8
0
10
1.2323
20
4.5967
42
-0.1943
0
VERTEX
8
0
10
1.3199
20
4.5614
42
-0.1024
0
VERTEX
8
0
10
1.3841
20
4.4915
42
-0.2722
0
VERTEX
8
0
10
1.3802
20
4.4019
42
-0.1151
0
VERTEX
8
0
10
1.3424
20
4.3732
42
-0.0307
0
VERTEX
8
0
10
1.3205
20
4.3636
42
-0.0114
0
VERTEX
8
0
10
1.3092
20
4.3597
42
-0.0051
0
VERTEX
8
0
10
1.3030
20
4.3577
0
VERTEX
8
0
10
1.3033
20
4.3578
0
VERTEX
8
0
10
1.3056
20
4.3585
0
VERTEX
8
0
10
1.3055
20
4.3585
0
VERTEX
8
0
10
1.3026
20
4.3576
0
SEQEND
8
0
0
POLYLINE
8
Layer 1
66
1
0
VERTEX
8
0
10
1.2892
20
4.0808
42
-0.1570
0
VERTEX
8
0
10
1.2638
20
4.0126
42
-0.0810
0
VERTEX
8
0
10
1.2151
20
3.9580
42
-0.1319
0
VERTEX
8
0
10
1.1486
20
3.9293
42
-0.2649
0
VERTEX
8
0
10
1.0860
20
3.9612
42
-0.0679
0
VERTEX
8
0
10
1.0296
20
4.0394
42
-0.1082
0
VERTEX
8
0
10
1.0057
20
4.1322
42
-0.1596
0
VERTEX
8
0
10
1.0351
20
4.2225
42
-0.2146
0
VERTEX
8
0
10
1.1181
20
4.2658
42
-0.2767
0
VERTEX
8
0
10
1.2318
20
4.2024
42
-0.1061
0
VERTEX
8
0
10
1.2892
20
4.0808
0
SEQEND
8
0
0
POLYLINE
8
Layer 1
66
1
0
VERTEX
8
0
10
2.4555
20
3.8933
42
0.0428
0
VERTEX
8
0
10
2.3969
20
4.0043
42
0.0832
0
VERTEX
8
0
10
2.3110
20
4.0942
42
-0.1579
0
VERTEX
8
0
10
2.4612
20
4.1535
42
-0.1243
0
VERTEX
8
0
10
2.5634
20
4.1267
42
-0.0730
0
VERTEX
8
0
10
2.6502
20
4.0653
42
-0.0703
0
VERTEX
8
0
10
2.7868
20
3.9020
42
-0.0522
0
VERTEX
8
0
10
2.9871
20
3.5257
42
-0.2183
0
VERTEX
8
0
10
3.0222
20
3.4672
42
-0.1696
0
VERTEX
8
0
10
3.0063
20
3.3997
42
-0.1511
0
VERTEX
8
0
10
2.9553
20
3.3527
42
-0.2361
0
VERTEX
8
0
10
2.8877
20
3.3574
42
-0.0887
0
VERTEX
8
0
10
2.7633
20
3.3703
42
-0.1257
0
VERTEX
8
0
10
2.6582
20
3.4368
42
-0.0853
0
VERTEX
8
0
10
2.5877
20
3.5403
42
-0.0363
0
VERTEX
8
0
10
2.5396
20
3.6564
0
VERTEX
8
0
10
2.4555
20
3.8933
0
SEQEND
8
0
0
POLYLINE
8
Layer 1
66
1
0
VERTEX
8
0
10
2.1301
20
3.6518
42
-0.1316
0
VERTEX
8
0
10
2.1329
20
3.7934
42
-0.1032
0
VERTEX
8
0
10
2.1678
20
3.8554
42
-0.1853
0
VERTEX
8
0
10
2.2312
20
3.8852
42
-0.1497
0
VERTEX
8
0
10
2.2919
20
3.8692
42
-0.0747
0
VERTEX
8
0
10
2.3425
20
3.8310
42
-0.0701
0
VERTEX
8
0
10
2.4210
20
3.7313
42
-0.0544
0
VERTEX
8
0
10
2.4788
20
3.6243
42
-0.0838
0
VERTEX
8
0
10
2.5057
20
3.5064
42
-0.1680
0
VERTEX
8
0
10
2.4840
20
3.4512
42
-0.2160
0
VERTEX
8
0
10
2.4276
20
3.4322
42
-0.0742
0
VERTEX
8
0
10
2.3674
20
3.4401
42
-0.0187
0
VERTEX
8
0
10
2.3381
20
3.4484
42
-0.0068
0
VERTEX
8
0
10
2.3238
20
3.4531
0
VERTEX
8
0
10
2.3227
20
3.4535
0
VERTEX
8
0
10
2.3304
20
3.4509
42
-0.0077
0
VERTEX
8
0
10
2.3201
20
3.4544
42
-0.2546
0
VERTEX
8
0
10
2.1301
20
3.6518
0
SEQEND
8
0
0
POLYLINE
8
Layer 1
66
1
0
VERTEX
8
0
10
1.8344
20
3.7253
42
-0.2285
0
VERTEX
8
0
10
1.8840
20
3.7461
42
-0.2239
0
VERTEX
8
0
10
1.9688
20
3.7000
42
-0.0608
0
VERTEX
8
0
10
2.0308
20
3.6237
42
-0.2187
0
VERTEX
8
0
10
2.0517
20
3.6059
42
-0.0557
0
VERTEX
8
0
10
2.0652
20
3.5816
42
-0.0627
0
VERTEX
8
0
10
2.0815
20
3.5284
42
-0.1261
0
VERTEX
8
0
10
2.0772
20
3.4740
42
-0.3781
0
VERTEX
8
0
10
2.0521
20
3.4682
42
-0.0582
0
VERTEX
8
0
10
2.0395
20
3.4741
42
-0.0228
0
VERTEX
8
0
10
2.0308
20
3.4798
42
-0.0936
0
VERTEX
8
0
10
1.9213
20
3.4980
42
-0.1508
0
VERTEX
8
0
10
1.8364
20
3.5678
42
-0.1726
0
VERTEX
8
0
10
1.8125
20
3.6747
42
-0.1301
0
VERTEX
8
0
10
1.8344
20
3.7253
0
SEQEND
8
0
0
POLYLINE
8
Layer 1
66
1
0
VERTEX
8
0
10
1.6522
20
3.8723
42
-0.2013
0
VERTEX
8
0
10
1.6984
20
3.8247
42
-0.1624
0
VERTEX
8
0
10
1.6991
20
3.7572
42
-0.0659
0
VERTEX
8
0
10
1.6751
20
3.6930
42
-0.0134
0
VERTEX
8
0
10
1.6215
20
3.6331
42
-0.1779
0
VERTEX
8
0
10
1.5845
20
3.6213
42
-0.2619
0
VERTEX
8
0
10
1.5565
20
3.6481
42
-0.0548
0
VERTEX
8
0
10
1.4695
20
3.6986
42
-0.0740
0
VERTEX
8
0
10
1.4355
20
3.7357
42
-0.1615
0
VERTEX
8
0
10
1.4245
20
3.7838
42
-0.1737
0
VERTEX
8
0
10
1.4479
20
3.8275
42
-0.0869
0
VERTEX
8
0
10
1.4886
20
3.8570
42
-0.1098
0
VERTEX
8
0
10
1.5852
20
3.8828
42
-0.1005
0
VERTEX
8
0
10
1.6522
20
3.8723
0
SEQEND
8
0
0
POLYLINE
8
Layer 1
66
1
0
VERTEX
8
0
10
1.6532
20
4.0920
42
-0.1273
0
VERTEX
8
0
10
1.5933
20
4.0181
0
VERTEX
8
0
10
1.5283
20
3.9851
0
VERTEX
8
0
10
1.4838
20
4.0224
42
-0.0288
0
VERTEX
8
0
10
1.4202
20
4.0844
42
-0.0700
0
VERTEX
8
0
10
1.3714
20
4.1580
42
-0.1158
0
VERTEX
8
0
10
1.3653
20
4.2014
42
-0.2083
0
VERTEX
8
0
10
1.3890
20
4.2376
42
-0.1977
0
VERTEX
8
0
10
1.4757
20
4.2577
42
-0.1953
0
VERTEX
8
0
10
1.6468
20
4.1833
42
-0.2777
0
VERTEX
8
0
10
1.6532
20
4.0920
0
SEQEND
8
0
0
POLYLINE
8
Layer 1
66
1
0
VERTEX
8
0
10
1.8458
20
4.1295
42
0.2169
0
VERTEX
8
0
10
1.7791
20
4.1110
42
0.2048
0
VERTEX
8
0
10
1.7563
20
4.0472
42
0.0842
0
VERTEX
8
0
10
1.8051
20
3.9163
0
VERTEX
8
0
10
1.8616
20
3.8747
0
VERTEX
8
0
10
1.9161
20
3.8632
0
VERTEX
8
0
10
1.9212
20
3.8651
0
VERTEX
8
0
10
1.9212
20
3.8651
0
VERTEX
8
0
10
1.9201
20
3.8647
0
VERTEX
8
0
10
1.9235
20
3.8660
42
0.0079
0
VERTEX
8
0
10
1.9370
20
3.8714
42
0.0197
0
VERTEX
8
0
10
1.9634
20
3.8836
42
0.0685
0
VERTEX
8
0
10
2.0120
20
3.9153
42
0.3673
0
VERTEX
8
0
10
2.0402
20
4.0189
42
0.2504
0
VERTEX
8
0
10
1.8458
20
4.1295
0
SEQEND
8
0
0
POLYLINE
8
Layer 1
66
1
0
VERTEX
8
0
10
1.8550
20
4.4648
42
-0.2991
0
VERTEX
8
0
10
1.9735
20
4.5288
42
-0.1198
0
VERTEX
8
0
10
2.1198
20
4.4992
42
-0.0834
0
VERTEX
8
0
10
2.2500
20
4.4338
42
-0.1037
0
VERTEX
8
0
10
2.2948
20
4.3766
42
-0.1590
0
VERTEX
8
0
10
2.3019
20
4.3048
42
-0.2383
0
VERTEX
8
0
10
2.2116
20
4.1945
42
-0.1403
0
VERTEX
8
0
10
2.0715
20
4.1601
42
-0.2270
0
VERTEX
8
0
10
1.8555
20
4.3274
42
-0.1973
0
VERTEX
8
0
10
1.8550
20
4.4648
0
SEQEND
8
0
0
POLYLINE
8
Layer 1
66
1
0
VERTEX
8
0
10
1.6612
20
4.5752
42
0.3491
0
VERTEX
8
0
10
1.5713
20
4.4793
42
0.1349
0
VERTEX
8
0
10
1.6139
20
4.3442
0
VERTEX
8
0
10
1.6450
20
4.3232
0
VERTEX
8
0
10
1.6560
20
4.3519
42
0.1047
0
VERTEX
8
0
10
1.7134
20
4.4730
42
0.1781
0
VERTEX
8
0
10
1.7131
20
4.5394
42
0.3105
0
VERTEX
8
0
10
1.6612
20
4.5752
0
SEQEND
8
0
0
POLYLINE
8
Layer 1
66
1
0
VERTEX
8
0
10
1.5287
20
4.7595
42
-0.2161
0
VERTEX
8
0
10
1.5052
20
4.6689
42
-0.0810
0
VERTEX
8
0
10
1.4418
20
4.5976
0
VERTEX
8
0
10
1.3920
20
4.6345
42
-0.0790
0
VERTEX
8
0
10
1.3087
20
4.7569
42
-0.2044
0
VERTEX
8
0
10
1.3142
20
4.8282
42
-0.2635
0
VERTEX
8
0
10
1.3810
20
4.8568
42
-0.1448
0
VERTEX
8
0
10
1.4727
20
4.8335
42
-0.1988
0
VERTEX
8
0
10
1.5287
20
4.7595
0
SEQEND
8
0
0
POLYLINE
8
Layer 1
66
1
0
VERTEX
8
0
10
1.7523
20
4.9784
42
-0.1072
0
VERTEX
8
0
10
1.8836
20
5.0093
42
-0.1543
0
VERTEX
8
0
10
2.0668
20
4.9581
42
-0.1759
0
VERTEX
8
0
10
2.1762
20
4.8028
42
-0.0740
0
VERTEX
8
0
10
2.2161
20
4.7461
42
-0.3493
0
VERTEX
8
0
10
2.1975
20
4.6857
42
-0.1298
0
VERTEX
8
0
10
2.1318
20
4.6639
42
-0.0361
0
VERTEX
8
0
10
2.0624
20
4.6575
42
-0.0470
0
VERTEX
8
0
10
1.7860
20
4.6732
42
-0.0775
0
VERTEX
8
0
10
1.6816
20
4.7594
42
-0.2358
0
VERTEX
8
0
10
1.6560
20
4.8865
42
-0.2190
0
VERTEX
8
0
10
1.7523
20
4.9784
0
SEQEND
8
0
0
POLYLINE
8
Layer 1
66
1
0
VERTEX
8
0
10
1.6179
20
5.2856
42
-0.1305
0
VERTEX
8
0
10
1.7200
20
5.1781
42
-0.4805
0
VERTEX
8
0
10
1.7340
20
5.1442
42
-0.1085
0
VERTEX
8
0
10
1.7052
20
5.1107
42
-0.0570
0
VERTEX
8
0
10
1.6332
20
5.0593
42
-0.0389
0
VERTEX
8
0
10
1.5536
20
5.0203
42
-0.0373
0
VERTEX
8
0
10
1.5112
20
5.0077
42
-0.0446
0
VERTEX
8
0
10
1.4891
20
5.0055
42
-0.0468
0
VERTEX
8
0
10
1.4781
20
5.0067
42
-0.0335
0
VERTEX
8
0
10
1.4729
20
5.0082
42
-0.1254
0
VERTEX
8
0
10
1.4633
20
5.0151
42
-0.0605
0
VERTEX
8
0
10
1.3652
20
5.0825
42
-0.1574
0
VERTEX
8
0
10
1.3095
20
5.1850
42
-0.2808
0
VERTEX
8
0
10
1.3629
20
5.2860
42
-0.1546
0
VERTEX
8
0
10
1.4752
20
5.3230
42
-0.1534
0
VERTEX
8
0
10
1.6179
20
5.2856
0
SEQEND
8
0
0
POLYLINE
8
Layer 1
66
1
0
VERTEX
8
0
10
3.0945
20
7.8388
42
-0.0784
0
VERTEX
8
0
10
3.1431
20
7.9586
42
-0.0639
0
VERTEX
8
0
10
3.1842
20
8.0086
42
-0.1391
0
VERTEX
8
0
10
3.2420
20
8.0364
42
-0.2487
0
VERTEX
8
0
10
3.3010
20
8.0105
42
-0.1035
0
VERTEX
8
0
10
3.3359
20
7.9539
42
-0.0728
0
VERTEX
8
0
10
3.3696
20
7.8251
42
-0.0899
0
VERTEX
8
0
10
3.2750
20
7.6669
42
-0.0601
0
VERTEX
8
0
10
3.2082
20
7.6033
42
-0.2025
0
VERTEX
8
0
10
3.1210
20
7.5860
42
-0.2010
0
VERTEX
8
0
10
3.0945
20
7.8388
0
SEQEND
8
0
0
POLYLINE
8
Layer 1
66
1
0
VERTEX
8
0
10
2.8283
20
8.0117
42
-0.2132
0
VERTEX
8
0
10
2.8594
20
8.0264
42
-0.1657
0
VERTEX
8
0
10
2.9023
20
8.0131
42
-0.0741
0
VERTEX
8
0
10
2.9372
20
7.9843
42
-0.1144
0
VERTEX
8
0
10
2.9823
20
7.9063
42
-0.3373
0
VERTEX
8
0
10
2.9221
20
7.7491
0
VERTEX
8
0
10
2.8456
20
7.7696
42
-0.0402
0
VERTEX
8
0
10
2.8125
20
7.9084
42
-0.0657
0
VERTEX
8
0
10
2.8137
20
7.9795
42
-0.1048
0
VERTEX
8
0
10
2.8283
20
8.0117
0
SEQEND
8
0
0
POLYLINE
8
Layer 1
66
1
0
VERTEX
8
0
10
2.6100
20
8.4389
42
-0.1382
0
VERTEX
8
0
10
2.5751
20
8.5208
42
-0.2154
0
VERTEX
8
0
10
2.5975
20
8.5591
42
-0.0991
0
VERTEX
8
0
10
2.6377
20
8.5801
42
-0.0695
0
VERTEX
8
0
10
2.7269
20
8.5980
42
-0.0146
0
VERTEX
8
0
10
2.7743
20
8.6016
0
VERTEX
8
0
10
2.7746
20
8.6016
0
VERTEX
8
0
10
2.7715
20
8.6014
0
VERTEX
8
0
10
2.7600
20
8.6007
0
VERTEX
8
0
10
2.7500
20
8.6001
0
VERTEX
8
0
10
2.7487
20
8.6000
0
VERTEX
8
0
10
2.7506
20
8.6002
42
-0.0074
0
VERTEX
8
0
10
2.7849
20
8.6021
42
-0.0209
0
VERTEX
8
0
10
2.7949
20
8.6030
42
-0.1612
0
VERTEX
8
0
10
2.8914
20
8.5760
42
-0.0688
0
VERTEX
8
0
10
2.9723
20
8.5151
42
-0.0900
0
VERTEX
8
0
10
3.0916
20
8.3522
42
-0.0877
0
VERTEX
8
0
10
3.1178
20
8.2550
42
-0.3516
0
VERTEX
8
0
10
3.0601
20
8.1833
42
-0.1421
0
VERTEX
8
0
10
2.9600
20
8.1938
42
-0.0232
0
VERTEX
8
0
10
2.9110
20
8.2102
0
VERTEX
8
0
10
2.9044
20
8.2127
0
VERTEX
8
0
10
2.9044
20
8.2127
0
VERTEX
8
0
10
2.9054
20
8.2123
0
VERTEX
8
0
10
2.9098
20
8.2107
0
VERTEX
8
0
10
2.9225
20
8.2061
42
-0.0025
0
VERTEX
8
0
10
2.9293
20
8.2035
42
-0.1037
0
VERTEX
8
0
10
2.8967
20
8.2157
42
-0.0159
0
VERTEX
8
0
10
2.7455
20
8.3175
42
-0.0472
0
VERTEX
8
0
10
2.6100
20
8.4389
0
SEQEND
8
0
0
POLYLINE
8
Layer 1
66
1
0
VERTEX
8
0
10
1.5140
20
7.8256
42
-0.0078
0
VERTEX
8
0
10
1.5077
20
7.8280
42
-0.0060
0
VERTEX
8
0
10
1.4972
20
7.8322
42
-0.0438
0
VERTEX
8
0
10
1.4906
20
7.8737
42
-0.2519
0
VERTEX
8
0
10
1.5078
20
7.9078
42
-0.2240
0
VERTEX
8
0
10
1.5362
20
7.8992
42
-0.0628
0
VERTEX
8
0
10
1.5598
20
7.8803
42
-0.1303
0
VERTEX
8
0
10
1.5899
20
7.8292
42
-0.4918
0
VERTEX
8
0
10
1.5687
20
7.8129
42
-0.0857
0
VERTEX
8
0
10
1.5389
20
7.8176
42
-0.0290
0
VERTEX
8
0
10
1.5102
20
7.8271
42
-0.0039
0
VERTEX
8
0
10
1.5032
20
7.8298
0
VERTEX
8
0
10
1.4993
20
7.8314
0
VERTEX
8
0
10
1.4997
20
7.8313
0
VERTEX
8
0
10
1.5056
20
7.8290
42
-0.0022
0
VERTEX
8
0
10
1.5140
20
7.8256
0
SEQEND
8
0
0
POLYLINE
8
Layer 1
66
1
0
VERTEX
8
0
10
1.4818
20
7.6848
42
-0.0486
0
VERTEX
8
0
10
1.4589
20
7.6959
42
-0.0139
0
VERTEX
8
0
10
1.4481
20
7.7026
42
-0.0059
0
VERTEX
8
0
10
1.4424
20
7.7064
0
VERTEX
8
0
10
1.4426
20
7.7063
0
VERTEX
8
0
10
1.4435
20
7.7056
0
VERTEX
8
0
10
1.4458
20
7.7041
0
VERTEX
8
0
10
1.4460
20
7.7039
0
VERTEX
8
0
10
1.4454
20
7.7044
0
VERTEX
8
0
10
1.4422
20
7.7065
42
-0.0449
0
VERTEX
8
0
10
1.4566
20
7.7480
42
-0.1883
0
VERTEX
8
0
10
1.4877
20
7.7763
42
-0.2537
0
VERTEX
8
0
10
1.5098
20
7.7652
42
-0.0954
0
VERTEX
8
0
10
1.5233
20
7.7437
42
-0.1675
0
VERTEX
8
0
10
1.5268
20
7.6941
42
-0.5004
0
VERTEX
8
0
10
1.4818
20
7.6848
0
SEQEND
8
0
0
POLYLINE
8
Layer 1
66
1
0
VERTEX
8
0
10
1.5088
20
7.5433
42
-0.0341
0
VERTEX
8
0
10
1.4797
20
7.5519
42
-0.0056
0
VERTEX
8
0
10
1.4726
20
7.5545
0
VERTEX
8
0
10
1.4688
20
7.5560
0
VERTEX
8
0
10
1.4679
20
7.5564
0
VERTEX
8
0
10
1.4729
20
7.5545
0
VERTEX
8
0
10
1.4827
20
7.5509
42
-0.0448
0
VERTEX
8
0
10
1.4769
20
7.5530
42
-0.0064
0
VERTEX
8
0
10
1.4666
20
7.5568
42
-0.0346
0
VERTEX
8
0
10
1.4527
20
7.6055
42
-0.0649
0
VERTEX
8
0
10
1.4516
20
7.6307
42
-0.3360
0
VERTEX
8
0
10
1.4681
20
7.6463
42
-0.1816
0
VERTEX
8
0
10
1.4957
20
7.6345
42
-0.0502
0
VERTEX
8
0
10
1.5188
20
7.6149
42
-0.0999
0
VERTEX
8
0
10
1.5516
20
7.5646
42
-0.3872
0
VERTEX
8
0
10
1.5389
20
7.5415
42
-0.1392
0
VERTEX
8
0
10
1.5088
20
7.5433
0
SEQEND
8
0
0
POLYLINE
8
Layer 1
66
1
0
VERTEX
8
0
10
1.5094
20
7.4264
42
-0.0263
0
VERTEX
8
0
10
1.5038
20
7.4401
0
VERTEX
8
0
10
1.5039
20
7.4399
0
VERTEX
8
0
10
1.5058
20
7.4351
0
VERTEX
8
0
10
1.5070
20
7.4319
42
-0.0123
0
VERTEX
8
0
10
1.5030
20
7.4426
42
-0.1126
0
VERTEX
8
0
10
1.5221
20
7.4732
42
-0.4396
0
VERTEX
8
0
10
1.5291
20
7.4613
42
-0.0490
0
VERTEX
8
0
10
1.5307
20
7.4469
42
-0.0753
0
VERTEX
8
0
10
1.5275
20
7.4183
42
-0.4400
0
VERTEX
8
0
10
1.5170
20
7.4141
42
-0.1187
0
VERTEX
8
0
10
1.5094
20
7.4264
0
SEQEND
8
0
0
POLYLINE
8
Layer 1
66
1
0
VERTEX
8
0
10
1.2626
20
7.3086
42
-0.0896
0
VERTEX
8
0
10
1.2254
20
7.4252
42
-0.0619
0
VERTEX
8
0
10
1.2212
20
7.5476
42
-0.0433
0
VERTEX
8
0
10
1.2322
20
7.6080
42
-0.0489
0
VERTEX
8
0
10
1.2437
20
7.6363
42
-0.1758
0
VERTEX
8
0
10
1.2672
20
7.6563
42
-0.2897
0
VERTEX
8
0
10
1.2897
20
7.6448
42
-0.0718
0
VERTEX
8
0
10
1.3043
20
7.6231
42
-0.0505
0
VERTEX
8
0
10
1.3242
20
7.5747
42
-0.0352
0
VERTEX
8
0
10
1.3500
20
7.4732
42
0.1637
0
VERTEX
8
0
10
1.3791
20
7.3923
42
0.1207
0
VERTEX
8
0
10
1.4479
20
7.3392
42
0.0885
0
VERTEX
8
0
10
1.6149
20
7.2883
42
-0.0082
0
VERTEX
8
0
10
1.7005
20
7.2702
42
-0.1783
0
VERTEX
8
0
10
1.7166
20
7.2575
42
-0.3637
0
VERTEX
8
0
10
1.7098
20
7.2495
42
-0.0201
0
VERTEX
8
0
10
1.7003
20
7.2440
42
-0.0462
0
VERTEX
8
0
10
1.6597
20
7.2276
42
-0.0162
0
VERTEX
8
0
10
1.5756
20
7.2012
0
VERTEX
8
0
10
1.5687
20
7.1992
0
VERTEX
8
0
10
1.5679
20
7.1990
0
VERTEX
8
0
10
1.5702
20
7.1997
0
VERTEX
8
0
10
1.6008
20
7.2090
0
VERTEX
8
0
10
1.6186
20
7.2144
0
VERTEX
8
0
10
1.6301
20
7.2178
0
VERTEX
8
0
10
1.6302
20
7.2178
42
-0.0026
0
VERTEX
8
0
10
1.6220
20
7.2152
42
-0.0051
0
VERTEX
8
0
10
1.5637
20
7.1978
42
0.0437
0
VERTEX
8
0
10
1.5056
20
7.1820
42
-0.0359
0
VERTEX
8
0
10
1.4471
20
7.1683
42
-0.2953
0
VERTEX
8
0
10
1.3461
20
7.2212
42
-0.1661
0
VERTEX
8
0
10
1.2626
20
7.3086
0
SEQEND
8
0
0
POLYLINE
8
Layer 1
66
1
0
VERTEX
8
0
10
0.8394
20
7.2210
42
-0.1305
0
VERTEX
8
0
10
0.8409
20
7.2726
42
-0.2142
0
VERTEX
8
0
10
0.8778
20
7.3079
42
-0.0907
0
VERTEX
8
0
10
0.9285
20
7.3203
42
-0.0223
0
VERTEX
8
0
10
0.9552
20
7.3220
0
VERTEX
8
0
10
0.9627
20
7.3221
0
VERTEX
8
0
10
0.9626
20
7.3221
0
VERTEX
8
0
10
0.9602
20
7.3221
0
VERTEX
8
0
10
0.9590
20
7.3221
0
VERTEX
8
0
10
0.9610
20
7.3221
0
VERTEX
8
0
10
0.9722
20
7.3221
42
-0.0168
0
VERTEX
8
0
10
1.0114
20
7.3202
42
-0.0781
0
VERTEX
8
0
10
1.2033
20
7.2186
42
-0.0225
0
VERTEX
8
0
10
1.3755
20
7.0852
42
0.0495
0
VERTEX
8
0
10
1.5598
20
6.9702
42
0.0958
0
VERTEX
8
0
10
1.7707
20
6.9224
42
-0.0380
0
VERTEX
8
0
10
1.8803
20
6.9022
42
-0.0494
0
VERTEX
8
0
10
1.9058
20
6.8908
42
-0.2223
0
VERTEX
8
0
10
1.9199
20
6.8686
42
-0.2499
0
VERTEX
8
0
10
1.9038
20
6.8465
42
-0.0521
0
VERTEX
8
0
10
1.8804
20
6.8315
42
-0.0627
0
VERTEX
8
0
10
1.7765
20
6.7913
42
-0.0213
0
VERTEX
8
0
10
1.6684
20
6.7636
42
-0.0328
0
VERTEX
8
0
10
1.4480
20
6.7306
42
-0.0325
0
VERTEX
8
0
10
1.3365
20
6.7296
42
-0.0511
0
VERTEX
8
0
10
1.2818
20
6.7398
42
-0.1019
0
VERTEX
8
0
10
1.2565
20
6.7553
0
VERTEX
8
0
10
1.2559
20
6.7562
42
-0.0111
0
VERTEX
8
0
10
1.2608
20
6.7510
0
VERTEX
8
0
10
1.2606
20
6.7511
0
VERTEX
8
0
10
1.2598
20
6.7519
0
VERTEX
8
0
10
1.2573
20
6.7542
0
VERTEX
8
0
10
1.2543
20
6.7579
42
-0.0559
0
VERTEX
8
0
10
0.9484
20
7.0438
42
-0.0266
0
VERTEX
8
0
10
0.8847
20
7.1270
42
-0.0684
0
VERTEX
8
0
10
0.8394
20
7.2210
0
SEQEND
8
0
0
POLYLINE
8
Layer 1
66
1
0
VERTEX
8
0
10
0.5213
20
7.2269
42
-0.0565
0
VERTEX
8
0
10
0.5706
20
7.1935
42
-0.0875
0
VERTEX
8
0
10
0.6201
20
7.0390
42
-0.0436
0
VERTEX
8
0
10
0.6360
20
6.8772
42
-0.0482
0
VERTEX
8
0
10
0.6229
20
6.7153
42
-0.0452
0
VERTEX
8
0
10
0.5999
20
6.6373
42
-0.0999
0
VERTEX
8
0
10
0.5543
20
6.5704
42
-0.1514
0
VERTEX
8
0
10
0.4874
20
6.6363
42
-0.0537
0
VERTEX
8
0
10
0.4433
20
6.7201
42
-0.0572
0
VERTEX
8
0
10
0.3901
20
6.9018
42
-0.0549
0
VERTEX
8
0
10
0.3761
20
7.0905
42
-0.0648
0
VERTEX
8
0
10
0.3942
20
7.1833
42
-0.0897
0
VERTEX
8
0
10
0.4191
20
7.2232
42
-0.1889
0
VERTEX
8
0
10
0.4645
20
7.2427
42
-0.1497
0
VERTEX
8
0
10
0.5213
20
7.2269
0
SEQEND
8
0
0
POLYLINE
8
Layer 1
66
1
0
VERTEX
8
0
10
0.6242
20
7.4072
42
0.1328
0
VERTEX
8
0
10
0.6024
20
7.3880
42
0.0247
0
VERTEX
8
0
10
0.5878
20
7.3618
42
0.0079
0
VERTEX
8
0
10
0.5904
20
7.3548
0
VERTEX
8
0
10
0.5922
20
7.3503
0
VERTEX
8
0
10
0.5914
20
7.3524
42
0.0028
0
VERTEX
8
0
10
0.5886
20
7.3596
0
VERTEX
8
0
10
0.5886
20
7.3596
42
0.0045
0
VERTEX
8
0
10
0.5907
20
7.3540
42
0.0414
0
VERTEX
8
0
10
0.5994
20
7.3354
42
0.7441
0
VERTEX
8
0
10
0.6283
20
7.3308
42
0.0867
0
VERTEX
8
0
10
0.6364
20
7.3709
42
0.0622
0
VERTEX
8
0
10
0.6350
20
7.3913
42
0.4861
0
VERTEX
8
0
10
0.6242
20
7.4072
0
SEQEND
8
0
0
POLYLINE
8
Layer 1
66
1
0
VERTEX
8
0
10
0.3382
20
7.7663
42
0.1112
0
VERTEX
8
0
10
0.3095
20
7.7256
42
0.0073
0
VERTEX
8
0
10
0.3128
20
7.7192
0
VERTEX
8
0
10
0.3128
20
7.7192
0
VERTEX
8
0
10
0.3135
20
7.7179
0
VERTEX
8
0
10
0.3109
20
7.7229
0
VERTEX
8
0
10
0.3109
20
7.7229
0
VERTEX
8
0
10
0.3132
20
7.7184
42
0.0460
0
VERTEX
8
0
10
0.3223
20
7.7038
42
0.6858
0
VERTEX
8
0
10
0.3475
20
7.7036
42
0.0912
0
VERTEX
8
0
10
0.3516
20
7.7374
42
0.0692
0
VERTEX
8
0
10
0.3489
20
7.7543
42
0.4718
0
VERTEX
8
0
10
0.3382
20
7.7663
0
SEQEND
8
0
0
POLYLINE
8
Layer 1
66
1
0
VERTEX
8
0
10
0.4093
20
8.1041
42
-0.0514
0
VERTEX
8
0
10
0.4259
20
8.0890
42
-0.0933
0
VERTEX
8
0
10
0.4498
20
8.0513
42
-0.4799
0
VERTEX
8
0
10
0.4386
20
8.0367
42
-0.1089
0
VERTEX
8
0
10
0.4168
20
8.0419
42
-0.0273
0
VERTEX
8
0
10
0.3961
20
8.0510
0
VERTEX
8
0
10
0.3919
20
8.0531
42
-0.0069
0
VERTEX
8
0
10
0.4054
20
8.0466
42
-0.0285
0
VERTEX
8
0
10
0.3899
20
8.0541
42
-0.0310
0
VERTEX
8
0
10
0.3816
20
8.0848
42
-0.2185
0
VERTEX
8
0
10
0.3889
20
8.1124
42
-0.2576
0
VERTEX
8
0
10
0.4093
20
8.1041
0
SEQEND
8
0
0
POLYLINE
8
Layer 1
66
1
0
VERTEX
8
0
10
0.4982
20
8.2069
42
-0.0910
0
VERTEX
8
0
10
0.5195
20
8.1625
42
-0.5371
0
VERTEX
8
0
10
0.5045
20
8.1498
42
-0.0936
0
VERTEX
8
0
10
0.4817
20
8.1594
42
-0.0259
0
VERTEX
8
0
10
0.4607
20
8.1726
42
-0.0038
0
VERTEX
8
0
10
0.4552
20
8.1764
0
VERTEX
8
0
10
0.4555
20
8.1762
0
VERTEX
8
0
10
0.4595
20
8.1736
0
VERTEX
8
0
10
0.4684
20
8.1675
0
VERTEX
8
0
10
0.4686
20
8.1674
0
VERTEX
8
0
10
0.4660
20
8.1690
0
VERTEX
8
0
10
0.4621
20
8.1717
42
-0.0054
0
VERTEX
8
0
10
0.4544
20
8.1770
42
-0.0335
0
VERTEX
8
0
10
0.4494
20
8.2104
42
-0.0543
0
VERTEX
8
0
10
0.4503
20
8.2273
42
-0.2848
0
VERTEX
8
0
10
0.4611
20
8.2382
42
-0.2416
0
VERTEX
8
0
10
0.4820
20
8.2257
42
-0.0478
0
VERTEX
8
0
10
0.4982
20
8.2069
0
SEQEND
8
0
0
POLYLINE
8
Layer 1
66
1
0
VERTEX
8
0
10
0.6178
20
8.2977
42
-0.1489
0
VERTEX
8
0
10
0.6145
20
8.2641
42
-0.2863
0
VERTEX
8
0
10
0.5871
20
8.2467
42
-0.1448
0
VERTEX
8
0
10
0.5548
20
8.2559
42
-0.0352
0
VERTEX
8
0
10
0.5699
20
8.2943
42
-0.1573
0
VERTEX
8
0
10
0.5979
20
8.3223
42
-0.4957
0
VERTEX
8
0
10
0.6178
20
8.2977
0
SEQEND
8
0
0
POLYLINE
8
Layer 1
66
1
0
VERTEX
8
0
10
0.6987
20
8.3478
42
-0.1356
0
VERTEX
8
0
10
0.6832
20
8.3327
42
-0.4399
0
VERTEX
8
0
10
0.6461
20
8.3453
42
-0.0919
0
VERTEX
8
0
10
0.6959
20
8.3659
42
-0.7213
0
VERTEX
8
0
10
0.6987
20
8.3478
0
SEQEND
8
0
0
POLYLINE
8
Layer 1
66
1
0
VERTEX
8
0
10
1.0746
20
8.3702
42
0.0539
0
VERTEX
8
0
10
0.9906
20
8.2917
42
0.0181
0
VERTEX
8
0
10
0.9156
20
8.2043
42
0.0033
0
VERTEX
8
0
10
0.7713
20
8.0248
42
-0.0363
0
VERTEX
8
0
10
0.6119
20
7.8591
42
-0.0628
0
VERTEX
8
0
10
0.5147
20
7.7982
42
-0.1434
0
VERTEX
8
0
10
0.4013
20
7.7859
42
0.3940
0
VERTEX
8
0
10
0.3676
20
7.9414
42
-0.0393
0
VERTEX
8
0
10
0.3532
20
7.9578
42
-0.7387
0
VERTEX
8
0
10
0.3605
20
7.9634
42
-0.0416
0
VERTEX
8
0
10
0.3715
20
7.9634
42
-0.0278
0
VERTEX
8
0
10
0.4151
20
7.9591
42
-0.0034
0
VERTEX
8
0
10
0.4585
20
7.9533
0
VERTEX
8
0
10
0.4619
20
7.9528
0
VERTEX
8
0
10
0.4619
20
7.9528
0
VERTEX
8
0
10
0.4609
20
7.9530
0
VERTEX
8
0
10
0.4558
20
7.9536
0
VERTEX
8
0
10
0.4233
20
7.9580
0
VERTEX
8
0
10
0.4192
20
7.9586
0
VERTEX
8
0
10
0.4239
20
7.9580
0
VERTEX
8
0
10
0.4310
20
7.9570
42
-0.0023
0
VERTEX
8
0
10
0.4625
20
7.9527
42
-0.0715
0
VERTEX
8
0
10
0.5064
20
8.0398
42
-0.0240
0
VERTEX
8
0
10
0.5618
20
8.1201
42
-0.0296
0
VERTEX
8
0
10
0.6880
20
8.2691
42
-0.0320
0
VERTEX
8
0
10
0.8309
20
8.4019
42
-0.0324
0
VERTEX
8
0
10
0.9112
20
8.4574
42
-0.0914
0
VERTEX
8
0
10
1.0028
20
8.4897
42
-0.3186
0
VERTEX
8
0
10
1.0645
20
8.4486
42
-0.1290
0
VERTEX
8
0
10
1.0746
20
8.3702
0
SEQEND
8
0
0
POLYLINE
8
Layer 1
66
1
0
VERTEX
8
0
10
1.5967
20
8.4524
42
0.0493
0
VERTEX
8
0
10
1.4317
20
8.4098
42
0.0170
0
VERTEX
8
0
10
1.1863
20
8.2593
42
0.0433
0
VERTEX
8
0
10
0.9564
20
8.0849
42
0.0425
0
VERTEX
8
0
10
0.8564
20
7.9808
42
0.0834
0
VERTEX
8
0
10
0.7813
20
7.8581
42
0.1488
0
VERTEX
8
0
10
0.7633
20
7.7167
42
0.1220
0
VERTEX
8
0
10
0.8259
20
7.5884
42
0.2022
0
VERTEX
8
0
10
0.9494
20
7.5415
42
0.1693
0
VERTEX
8
0
10
1.0666
20
7.6026
42
0.0581
0
VERTEX
8
0
10
1.1423
20
7.7148
42
0.0221
0
VERTEX
8
0
10
1.1970
20
7.8389
42
-0.0129
0
VERTEX
8
0
10
1.2060
20
7.8588
42
-0.0223
0
VERTEX
8
0
10
1.2126
20
7.8709
42
-0.0134
0
VERTEX
8
0
10
1.2256
20
7.8917
42
-0.0147
0
VERTEX
8
0
10
1.2545
20
7.9317
42
-0.0118
0
VERTEX
8
0
10
1.3172
20
8.0079
0
VERTEX
8
0
10
1.4487
20
8.1552
42
0.0244
0
VERTEX
8
0
10
1.5771
20
8.3051
42
0.0690
0
VERTEX
8
0
10
1.6313
20
8.3873
42
0.2911
0
VERTEX
8
0
10
1.6397
20
8.4347
42
0.2137
0
VERTEX
8
0
10
1.5967
20
8.4524
0
SEQEND
8
0
0
POLYLINE
8
Layer 1
66
1
0
VERTEX
8
0
10
1.6725
20
8.6764
42
-0.2967
0
VERTEX
8
0
10
1.6581
20
8.6435
42
-0.0570
0
VERTEX
8
0
10
1.6307
20
8.6187
42
-0.0659
0
VERTEX
8
0
10
1.5020
20
8.5442
42
0.0690
0
VERTEX
8
0
10
1.4410
20
8.5226
42
-0.0058
0
VERTEX
8
0
10
1.3814
20
8.4973
42
-0.0671
0
VERTEX
8
0
10
1.3185
20
8.4830
42
-0.1714
0
VERTEX
8
0
10
1.2582
20
8.5026
42
-0.1203
0
VERTEX
8
0
10
1.3180
20
8.5892
42
-0.0760
0
VERTEX
8
0
10
1.4050
20
8.6496
42
-0.1103
0
VERTEX
8
0
10
1.6086
20
8.7029
42
-0.0525
0
VERTEX
8
0
10
1.6453
20
8.6985
42
-0.2105
0
VERTEX
8
0
10
1.6725
20
8.6764
0
SEQEND
8
0
0
POLYLINE
8
Layer 1
66
1
0
VERTEX
8
0
10
2.1113
20
8.6088
42
-0.0683
0
VERTEX
8
0
10
1.9502
20
8.6440
42
-0.1050
0
VERTEX
8
0
10
1.8824
20
8.6892
42
-0.4371
0
VERTEX
8
0
10
1.8936
20
8.7245
42
-0.1006
0
VERTEX
8
0
10
1.9315
20
8.7407
42
-0.0529
0
VERTEX
8
0
10
2.0129
20
8.7550
42
-0.0060
0
VERTEX
8
0
10
2.0331
20
8.7569
42
-0.0029
0
VERTEX
8
0
10
2.0452
20
8.7578
0
VERTEX
8
0
10
2.0506
20
8.7582
0
VERTEX
8
0
10
2.0502
20
8.7581
0
VERTEX
8
0
10
2.0471
20
8.7579
0
VERTEX
8
0
10
2.0241
20
8.7560
42
-0.0024
0
VERTEX
8
0
10
2.0186
20
8.7556
0
VERTEX
8
0
10
2.0199
20
8.7557
0
VERTEX
8
0
10
2.0231
20
8.7560
42
-0.0057
0
VERTEX
8
0
10
2.0543
20
8.7584
42
-0.0922
0
VERTEX
8
0
10
2.1360
20
8.7684
42
-0.1141
0
VERTEX
8
0
10
2.4420
20
8.6979
42
-0.0658
0
VERTEX
8
0
10
2.4738
20
8.6747
42
-0.4933
0
VERTEX
8
0
10
2.4672
20
8.6424
42
-0.1440
0
VERTEX
8
0
10
2.3906
20
8.6248
42
-0.0240
0
VERTEX
8
0
10
2.3116
20
8.6208
42
-0.0032
0
VERTEX
8
0
10
2.2923
20
8.6207
0
VERTEX
8
0
10
2.2801
20
8.6207
0
VERTEX
8
0
10
2.2802
20
8.6207
0
VERTEX
8
0
10
2.2830
20
8.6207
0
VERTEX
8
0
10
2.2936
20
8.6208
0
VERTEX
8
0
10
2.3150
20
8.6209
0
VERTEX
8
0
10
2.3147
20
8.6208
0
VERTEX
8
0
10
2.3070
20
8.6208
42
-0.0039
0
VERTEX
8
0
10
2.2756
20
8.6207
42
-0.0928
0
VERTEX
8
0
10
2.1113
20
8.6088
0
SEQEND
8
0
0
POLYLINE
8
Layer 1
66
1
0
VERTEX
8
0
10
2.1463
20
8.4002
0
VERTEX
8
0
10
1.9574
20
8.4562
42
-0.0162
0
VERTEX
8
0
10
1.9111
20
8.4732
42
-0.1179
0
VERTEX
8
0
10
1.8727
20
8.5015
42
-0.4504
0
VERTEX
8
0
10
1.8903
20
8.5170
42
-0.0441
0
VERTEX
8
0
10
1.9139
20
8.5241
42
-0.0279
0
VERTEX
8
0
10
1.9623
20
8.5328
42
-0.0179
0
VERTEX
8
0
10
2.0627
20
8.5434
0
VERTEX
8
0
10
2.0624
20
8.5433
42
-0.0025
0
VERTEX
8
0
10
2.0471
20
8.5417
0
VERTEX
8
0
10
2.0014
20
8.5373
0
VERTEX
8
0
10
1.9872
20
8.5360
0
VERTEX
8
0
10
1.9858
20
8.5359
0
VERTEX
8
0
10
1.9882
20
8.5362
42
-0.0034
0
VERTEX
8
0
10
2.0082
20
8.5384
42
-0.0080
0
VERTEX
8
0
10
2.0734
20
8.5442
42
-0.1207
0
VERTEX
8
0
10
2.1461
20
8.5600
42
-0.0855
0
VERTEX
8
0
10
2.2485
20
8.5438
42
-0.0455
0
VERTEX
8
0
10
2.3450
20
8.5051
42
-0.0709
0
VERTEX
8
0
10
2.5159
20
8.3876
42
-0.0415
0
VERTEX
8
0
10
2.5499
20
8.3484
42
-0.1789
0
VERTEX
8
0
10
2.5621
20
8.3002
42
-0.2599
0
VERTEX
8
0
10
2.5405
20
8.2871
42
-0.0714
0
VERTEX
8
0
10
2.5146
20
8.2852
42
-0.0512
0
VERTEX
8
0
10
2.4631
20
8.2920
42
-0.0353
0
VERTEX
8
0
10
2.3628
20
8.3202
42
-0.0025
0
VERTEX
8
0
10
2.3511
20
8.3242
0
VERTEX
8
0
10
2.3425
20
8.3272
0
VERTEX
8
0
10
2.3404
20
8.3280
42
-0.0052
0
VERTEX
8
0
10
2.3537
20
8.3237
0
VERTEX
8
0
10
2.3747
20
8.3168
0
VERTEX
8
0
10
2.3934
20
8.3106
42
-0.0059
0
VERTEX
8
0
10
2.3998
20
8.3084
42
-0.0343
0
VERTEX
8
0
10
2.3306
20
8.3314
42
0.0553
0
VERTEX
8
0
10
2.2402
20
8.3702
42
0.0144
0
VERTEX
8
0
10
2.1463
20
8.4002
0
SEQEND
8
0
0
POLYLINE
8
Layer 1
66
1
0
VERTEX
8
0
10
2.1150
20
8.2841
42
-0.0780
0
VERTEX
8
0
10
2.1332
20
8.3300
42
-0.4558
0
VERTEX
8
0
10
2.1401
20
8.3110
42
-0.0286
0
VERTEX
8
0
10
2.1416
20
8.2902
42
-0.0473
0
VERTEX
8
0
10
2.1386
20
8.2486
42
-0.0859
0
VERTEX
8
0
10
2.1347
20
8.2390
42
-0.7709
0
VERTEX
8
0
10
2.1272
20
8.2439
42
-0.0681
0
VERTEX
8
0
10
2.1201
20
8.2635
42
-0.0148
0
VERTEX
8
0
10
2.1150
20
8.2839
42
-0.0258
0
VERTEX
8
0
10
2.1195
20
8.2662
0
VERTEX
8
0
10
2.1197
20
8.2649
0
VERTEX
8
0
10
2.1185
20
8.2693
42
-0.0093
0
VERTEX
8
0
10
2.1150
20
8.2841
0
SEQEND
8
0
0
POLYLINE
8
Layer 1
66
1
0
VERTEX
8
0
10
1.9978
20
8.2922
42
-0.0419
0
VERTEX
8
0
10
1.9996
20
8.3111
42
-0.2208
0
VERTEX
8
0
10
2.0103
20
8.3252
42
-0.2803
0
VERTEX
8
0
10
2.0250
20
8.3170
42
-0.0620
0
VERTEX
8
0
10
2.0354
20
8.3033
42
-0.1282
0
VERTEX
8
0
10
2.0453
20
8.2709
42
-0.6312
0
VERTEX
8
0
10
2.0302
20
8.2691
42
-0.0593
0
VERTEX
8
0
10
2.0155
20
8.2781
42
-0.0216
0
VERTEX
8
0
10
2.0019
20
8.2887
0
VERTEX
8
0
10
2.0006
20
8.2899
42
-0.0029
0
VERTEX
8
0
10
2.0085
20
8.2833
42
-0.0230
0
VERTEX
8
0
10
1.9978
20
8.2922
0
SEQEND
8
0
0
LINE
8
Layer 1
10
1.9008
20
8.3003
11
1.9008
21
8.3003
0
POLYLINE
8
Layer 1
66
1
0
VERTEX
8
0
10
1.7879
20
8.2473
42
-0.0242
0
VERTEX
8
0
10
1.7724
20
8.2815
42
-0.0423
0
VERTEX
8
0
10
1.7673
20
8.2995
42
-0.3375
0
VERTEX
8
0
10
1.7750
20
8.3133
42
-0.2049
0
VERTEX
8
0
10
1.8021
20
8.2996
42
-0.0358
0
VERTEX
8
0
10
1.8254
20
8.2795
42
-0.0679
0
VERTEX
8
0
10
1.8632
20
8.2315
42
-0.7745
0
VERTEX
8
0
10
1.8466
20
8.2189
42
-0.0579
0
VERTEX
8
0
10
1.8183
20
8.2306
42
-0.0161
0
VERTEX
8
0
10
1.7914
20
8.2452
0
VERTEX
8
0
10
1.7912
20
8.2454
0
VERTEX
8
0
10
1.8075
20
8.2365
0
VERTEX
8
0
10
1.8135
20
8.2331
0
VERTEX
8
0
10
1.8133
20
8.2332
42
-0.0022
0
VERTEX
8
0
10
1.8078
20
8.2361
42
-0.0104
0
VERTEX
8
0
10
1.7879
20
8.2473
0
SEQEND
8
0
0
POLYLINE
8
Layer 1
66
1
0
VERTEX
8
0
10
1.7283
20
8.1572
42
-0.0164
0
VERTEX
8
0
10
1.7009
20
8.1703
42
-0.0030
0
VERTEX
8
0
10
1.7190
20
8.1618
0
VERTEX
8
0
10
1.7275
20
8.1577
0
VERTEX
8
0
10
1.7296
20
8.1566
42
-0.0102
0
VERTEX
8
0
10
1.7191
20
8.1614
42
-0.0098
0
VERTEX
8
0
10
1.6980
20
8.1717
42
-0.0140
0
VERTEX
8
0
10
1.6713
20
8.2069
42
-0.0225
0
VERTEX
8
0
10
1.6595
20
8.2255
42
-0.2119
0
VERTEX
8
0
10
1.6579
20
8.2444
42
-0.2451
0
VERTEX
8
0
10
1.6871
20
8.2311
42
-0.0265
0
VERTEX
8
0
10
1.7133
20
8.2119
42
-0.0420
0
VERTEX
8
0
10
1.7604
20
8.1673
42
-0.0603
0
VERTEX
8
0
10
1.7690
20
8.1537
42
-0.7496
0
VERTEX
8
0
10
1.7589
20
8.1466
42
-0.0849
0
VERTEX
8
0
10
1.7283
20
8.1572
0
SEQEND
8
0
0
POLYLINE
8
Layer 1
66
1
0
VERTEX
8
0
10
1.6821
20
8.0551
42
-0.0543
0
VERTEX
8
0
10
1.6535
20
8.0660
42
-0.0189
0
VERTEX
8
0
10
1.6263
20
8.0800
42
-0.0026
0
VERTEX
8
0
10
1.6191
20
8.0840
0
VERTEX
8
0
10
1.6189
20
8.0841
0
VERTEX
8
0
10
1.6205
20
8.0833
0
VERTEX
8
0
10
1.6272
20
8.0796
0
VERTEX
8
0
10
1.6393
20
8.0731
0
VERTEX
8
0
10
1.6389
20
8.0732
0
VERTEX
8
0
10
1.6374
20
8.0740
0
VERTEX
8
0
10
1.6340
20
8.0758
0
VERTEX
8
0
10
1.6292
20
8.0784
42
-0.0047
0
VERTEX
8
0
10
1.6187
20
8.0842
42
-0.0386
0
VERTEX
8
0
10
1.6128
20
8.1160
42
-0.2297
0
VERTEX
8
0
10
1.6239
20
8.1435
42
-0.2831
0
VERTEX
8
0
10
1.6523
20
8.1339
42
-0.0554
0
VERTEX
8
0
10
1.6756
20
8.1142
42
-0.1144
0
VERTEX
8
0
10
1.7071
20
8.0629
42
-0.4084
0
VERTEX
8
0
10
1.6973
20
8.0533
42
-0.1086
0
VERTEX
8
0
10
1.6821
20
8.0551
0
SEQEND
8
0
0
POLYLINE
8
Layer 1
66
1
0
VERTEX
8
0
10
1.6487
20
7.9546
42
-0.3683
0
VERTEX
8
0
10
1.6279
20
7.9329
42
-0.1043
0
VERTEX
8
0
10
1.5956
20
7.9317
42
-0.0359
0
VERTEX
8
0
10
1.5635
20
7.9371
42
-0.0101
0
VERTEX
8
0
10
1.5479
20
7.9410
0
VERTEX
8
0
10
1.5454
20
7.9417
0
VERTEX
8
0
10
1.5454
20
7.9417
0
VERTEX
8
0
10
1.5460
20
7.9416
0
VERTEX
8
0
10
1.5484
20
7.9409
0
VERTEX
8
0
10
1.5563
20
7.9388
42
-0.0079
0
VERTEX
8
0
10
1.5436
20
7.9422
42
-0.0496
0
VERTEX
8
0
10
1.5355
20
7.9970
42
-0.0868
0
VERTEX
8
0
10
1.5403
20
8.0242
42
-0.2694
0
VERTEX
8
0
10
1.5618
20
8.0393
42
-0.2687
0
VERTEX
8
0
10
1.6182
20
8.0102
42
-0.1511
0
VERTEX
8
0
10
1.6487
20
7.9546
0
SEQEND
8
0
0
POLYLINE
8
Layer 1
66
1
0
VERTEX
8
0
10
1.7899
20
7.9389
42
-0.0656
0
VERTEX
8
0
10
1.9728
20
8.0995
42
-0.0419
0
VERTEX
8
0
10
2.0797
20
8.1581
42
-0.0801
0
VERTEX
8
0
10
2.1977
20
8.1875
42
-0.1027
0
VERTEX
8
0
10
2.2527
20
8.1770
42
0.2847
0
VERTEX
8
0
10
1.6407
20
7.4120
0
VERTEX
8
0
10
1.6254
20
7.4952
42
-0.1466
0
VERTEX
8
0
10
1.6593
20
7.7339
42
-0.0883
0
VERTEX
8
0
10
1.7899
20
7.9389
0
SEQEND
8
0
0
POLYLINE
8
Layer 1
66
1
0
VERTEX
8
0
10
2.0311
20
7.6989
42
0.3343
0
VERTEX
8
0
10
2.0447
20
7.7192
42
0.0310
0
VERTEX
8
0
10
2.0523
20
7.7430
0
VERTEX
8
0
10
2.0532
20
7.7464
0
VERTEX
8
0
10
2.0534
20
7.7471
0
VERTEX
8
0
10
2.0523
20
7.7433
0
VERTEX
8
0
10
2.0488
20
7.7312
0
VERTEX
8
0
10
2.0487
20
7.7307
42
0.0116
0
VERTEX
8
0
10
2.0538
20
7.7486
42
0.0167
0
VERTEX
8
0
10
2.0411
20
7.7829
42
0.1035
0
VERTEX
8
0
10
2.0208
20
7.8122
42
0.4901
0
VERTEX
8
0
10
2.0132
20
7.8034
42
0.0544
0
VERTEX
8
0
10
2.0108
20
7.7911
42
0.0390
0
VERTEX
8
0
10
2.0100
20
7.7661
42
0.0555
0
VERTEX
8
0
10
2.0168
20
7.7166
42
0.1986
0
VERTEX
8
0
10
2.0311
20
7.6989
0
SEQEND
8
0
0
POLYLINE
8
Layer 1
66
1
0
VERTEX
8
0
10
2.1805
20
7.5342
42
-0.0874
0
VERTEX
8
0
10
2.0004
20
7.4018
42
-0.1320
0
VERTEX
8
0
10
1.8907
20
7.3875
42
-0.2509
0
VERTEX
8
0
10
1.8090
20
7.4607
0
VERTEX
8
0
10
1.8090
20
7.4799
42
-0.1269
0
VERTEX
8
0
10
1.8043
20
7.5733
42
-0.0713
0
VERTEX
8
0
10
1.8323
20
7.6631
42
-0.0796
0
VERTEX
8
0
10
1.9355
20
7.8205
42
-0.0601
0
VERTEX
8
0
10
2.0750
20
7.9470
42
-0.0438
0
VERTEX
8
0
10
2.1569
20
7.9937
42
-0.0841
0
VERTEX
8
0
10
2.2484
20
8.0168
42
-0.3481
0
VERTEX
8
0
10
2.3598
20
7.9322
42
-0.1183
0
VERTEX
8
0
10
2.3522
20
7.8208
42
-0.0599
0
VERTEX
8
0
10
2.3114
20
7.7162
42
-0.0750
0
VERTEX
8
0
10
2.1805
20
7.5342
0
SEQEND
8
0
0
POLYLINE
8
Layer 1
66
1
0
VERTEX
8
0
10
2.3446
20
7.3466
42
-0.1380
0
VERTEX
8
0
10
2.1379
20
7.2437
42
0.0040
0
VERTEX
8
0
10
1.9771
20
7.1857
42
-0.1284
0
VERTEX
8
0
10
1.8090
20
7.1825
42
0.1517
0
VERTEX
8
0
10
2.2853
20
7.4819
42
0.0693
0
VERTEX
8
0
10
2.4376
20
7.7229
42
0.0557
0
VERTEX
8
0
10
2.5281
20
7.9934
42
-0.1014
0
VERTEX
8
0
10
2.5411
20
7.7610
42
-0.0766
0
VERTEX
8
0
10
2.4791
20
7.5362
42
-0.0954
0
VERTEX
8
0
10
2.3446
20
7.3466
0
SEQEND
8
0
0
POLYLINE
8
Layer 1
66
1
0
VERTEX
8
0
10
2.5866
20
7.0679
42
-0.3274
0
VERTEX
8
0
10
2.5780
20
7.0113
42
-0.1058
0
VERTEX
8
0
10
2.5313
20
6.9725
42
-0.0621
0
VERTEX
8
0
10
2.4205
20
6.9224
42
-0.0232
0
VERTEX
8
0
10
2.3096
20
6.8905
42
-0.0719
0
VERTEX
8
0
10
2.2522
20
6.8893
42
-0.2163
0
VERTEX
8
0
10
2.2068
20
6.9214
42
-0.0780
0
VERTEX
8
0
10
2.1644
20
7.0069
42
-0.2356
0
VERTEX
8
0
10
2.1850
20
7.0962
42
-0.1744
0
VERTEX
8
0
10
2.2695
20
7.1387
42
-0.0670
0
VERTEX
8
0
10
2.3646
20
7.1476
42
-0.0625
0
VERTEX
8
0
10
2.4850
20
7.1300
42
-0.0477
0
VERTEX
8
0
10
2.5416
20
7.1078
42
-0.1175
0
VERTEX
8
0
10
2.5866
20
7.0679
0
SEQEND
8
0
0
POLYLINE
8
Layer 1
66
1
0
VERTEX
8
0
10
2.8121
20
7.3068
42
0.0234
0
VERTEX
8
0
10
2.7036
20
7.2863
42
-0.0646
0
VERTEX
8
0
10
2.6485
20
7.2874
42
-0.1999
0
VERTEX
8
0
10
2.6046
20
7.3178
42
-0.1029
0
VERTEX
8
0
10
2.6586
20
7.4963
42
-0.0984
0
VERTEX
8
0
10
2.7227
20
7.5643
42
-0.1481
0
VERTEX
8
0
10
2.8112
20
7.5913
42
-0.2300
0
VERTEX
8
0
10
2.8874
20
7.5496
42
-0.2181
0
VERTEX
8
0
10
2.8998
20
7.4624
42
-0.0975
0
VERTEX
8
0
10
2.8659
20
7.3793
42
-0.0493
0
VERTEX
8
0
10
2.8121
20
7.3068
0
SEQEND
8
0
0
POLYLINE
8
Layer 1
66
1
0
VERTEX
8
0
10
3.0001
20
7.1084
42
-0.5003
0
VERTEX
8
0
10
3.0011
20
7.0520
42
-0.0853
0
VERTEX
8
0
10
2.9563
20
7.0067
42
-0.0290
0
VERTEX
8
0
10
2.9030
20
6.9683
42
-0.3429
0
VERTEX
8
0
10
2.8980
20
6.9571
42
-0.0405
0
VERTEX
8
0
10
2.8894
20
6.9479
42
-0.0530
0
VERTEX
8
0
10
2.8693
20
6.9327
42
-0.0958
0
VERTEX
8
0
10
2.8458
20
6.9244
42
-0.3370
0
VERTEX
8
0
10
2.8265
20
6.9377
42
-0.0924
0
VERTEX
8
0
10
2.7694
20
6.9979
42
-0.3421
0
VERTEX
8
0
10
2.7846
20
7.0737
42
-0.1384
0
VERTEX
8
0
10
2.8583
20
7.1118
42
-0.0709
0
VERTEX
8
0
10
2.9388
20
7.1232
42
-0.1126
0
VERTEX
8
0
10
3.0001
20
7.1084
0
SEQEND
8
0
0
POLYLINE
8
Layer 1
66
1
0
VERTEX
8
0
10
3.2113
20
7.1674
42
-0.2739
0
VERTEX
8
0
10
3.1679
20
7.1818
42
-0.1622
0
VERTEX
8
0
10
3.1554
20
7.2260
42
-0.1161
0
VERTEX
8
0
10
3.1841
20
7.3423
42
-0.0664
0
VERTEX
8
0
10
3.2485
20
7.4440
42
-0.0559
0
VERTEX
8
0
10
3.3345
20
7.5283
42
-0.1076
0
VERTEX
8
0
10
3.4423
20
7.5793
42
-0.3798
0
VERTEX
8
0
10
3.4890
20
7.5417
42
-0.1303
0
VERTEX
8
0
10
3.4839
20
7.4756
42
-0.0629
0
VERTEX
8
0
10
3.4370
20
7.3512
42
0.0217
0
VERTEX
8
0
10
3.3684
20
7.2814
42
-0.0224
0
VERTEX
8
0
10
3.2957
20
7.2157
42
-0.0771
0
VERTEX
8
0
10
3.2113
20
7.1674
0
SEQEND
8
0
0
POLYLINE
8
Layer 1
66
1
0
VERTEX
8
0
10
3.9815
20
5.8725
42
0.1898
0
VERTEX
8
0
10
3.5977
20
6.0091
42
0.0785
0
VERTEX
8
0
10
3.3940
20
5.9732
42
0.1054
0
VERTEX
8
0
10
3.1760
20
5.9253
42
0.0140
0
VERTEX
8
0
10
2.9696
20
5.8371
42
-0.0455
0
VERTEX
8
0
10
2.8614
20
5.8078
42
-0.0797
0
VERTEX
8
0
10
2.7497
20
5.8090
42
-0.1452
0
VERTEX
8
0
10
2.5525
20
5.9087
42
-0.1122
0
VERTEX
8
0
10
2.3750
20
5.8755
42
-0.0454
0
VERTEX
8
0
10
2.1942
20
5.8942
42
0.0672
0
VERTEX
8
0
10
2.0133
20
5.8931
42
0.1667
0
VERTEX
8
0
10
1.8630
20
5.7973
42
0.0930
0
VERTEX
8
0
10
1.7006
20
5.8995
42
0.1831
0
VERTEX
8
0
10
1.5114
20
5.8873
42
0.0417
0
VERTEX
8
0
10
1.3367
20
5.8045
42
-0.0536
0
VERTEX
8
0
10
1.1558
20
5.7409
42
-0.0525
0
VERTEX
8
0
10
1.0534
20
5.6081
42
-0.1325
0
VERTEX
8
0
10
1.0156
20
5.5916
42
-0.3244
0
VERTEX
8
0
10
0.9840
20
5.6164
42
-0.1094
0
VERTEX
8
0
10
0.9612
20
5.6971
42
-0.0150
0
VERTEX
8
0
10
0.9382
20
5.8638
42
0.0529
0
VERTEX
8
0
10
0.9153
20
5.9445
42
0.1741
0
VERTEX
8
0
10
0.8857
20
5.9719
42
0.1229
0
VERTEX
8
0
10
0.8730
20
5.9717
0
VERTEX
8
0
10
0.8691
20
5.9710
0
VERTEX
8
0
10
0.8739
20
5.9716
42
0.0109
0
VERTEX
8
0
10
0.8791
20
5.9724
0
VERTEX
8
0
10
0.8784
20
5.9724
0
VERTEX
8
0
10
0.8760
20
5.9722
42
0.0491
0
VERTEX
8
0
10
0.8670
20
5.9704
42
0.0915
0
VERTEX
8
0
10
0.7273
20
5.5590
42
0.0640
0
VERTEX
8
0
10
0.7147
20
5.1234
42
0.0289
0
VERTEX
8
0
10
0.7722
20
4.6906
0
VERTEX
8
0
10
0.8451
20
4.2601
42
0.0868
0
VERTEX
8
0
10
1.0101
20
3.9531
42
0.0655
0
VERTEX
8
0
10
1.2575
20
3.7064
42
0.0424
0
VERTEX
8
0
10
1.5491
20
3.5131
42
0.0259
0
VERTEX
8
0
10
1.8625
20
3.3574
42
-0.0730
0
VERTEX
8
0
10
2.1528
20
3.3573
42
-0.0374
0
VERTEX
8
0
10
2.4378
20
3.2988
42
0.0062
0
VERTEX
8
0
10
2.7208
20
3.2306
42
0.0519
0
VERTEX
8
0
10
3.0101
20
3.2044
42
0.2426
0
VERTEX
8
0
10
3.1248
20
3.3898
42
0.0758
0
VERTEX
8
0
10
3.1175
20
3.5028
42
0.0416
0
VERTEX
8
0
10
3.0871
20
3.6122
42
0.0434
0
VERTEX
8
0
10
2.9930
20
3.8187
42
0.0152
0
VERTEX
8
0
10
2.8800
20
4.0153
42
0.1011
0
VERTEX
8
0
10
2.7462
20
4.1678
42
0.0252
0
VERTEX
8
0
10
2.5858
20
4.2935
42
-0.0372
0
VERTEX
8
0
10
2.4330
20
4.4277
42
-0.0668
0
VERTEX
8
0
10
2.4073
20
4.4715
42
-0.1434
0
VERTEX
8
0
10
2.4038
20
4.5215
42
-0.2269
0
VERTEX
8
0
10
2.4669
20
4.5967
42
0.0692
0
VERTEX
8
0
10
2.2765
20
4.8673
42
0.0491
0
VERTEX
8
0
10
2.0298
20
5.0887
42
0.0249
0
VERTEX
8
0
10
1.7560
20
5.2760
42
0.0030
0
VERTEX
8
0
10
1.4748
20
5.4521
42
-0.0755
0
VERTEX
8
0
10
1.3378
20
5.3802
42
-0.1306
0
VERTEX
8
0
10
1.1855
20
5.3710
42
-0.2134
0
VERTEX
8
0
10
1.1314
20
5.4229
42
-0.1635
0
VERTEX
8
0
10
1.1299
20
5.4996
42
-0.1036
0
VERTEX
8
0
10
1.1927
20
5.6400
42
-0.1378
0
VERTEX
8
0
10
1.2593
20
5.7083
42
-0.2154
0
VERTEX
8
0
10
1.3541
20
5.7080
42
-0.0820
0
VERTEX
8
0
10
1.4393
20
5.6618
42
-0.0312
0
VERTEX
8
0
10
1.5150
20
5.6010
42
-0.0090
0
VERTEX
8
0
10
1.5868
20
5.5355
42
0.0537
0
VERTEX
8
0
10
1.6644
20
5.4783
42
0.4686
0
VERTEX
8
0
10
1.6800
20
5.4930
42
0.0812
0
VERTEX
8
0
10
1.6798
20
5.5172
42
0.0379
0
VERTEX
8
0
10
1.6710
20
5.5648
42
0.0129
0
VERTEX
8
0
10
1.6580
20
5.6140
0
VERTEX
8
0
10
1.6575
20
5.6157
42
0.0022
0
VERTEX
8
0
10
1.6604
20
5.6052
0
VERTEX
8
0
10
1.6641
20
5.5918
42
0.0025
0
VERTEX
8
0
10
1.6655
20
5.5866
42
0.0127
0
VERTEX
8
0
10
1.6565
20
5.6194
42
-0.1415
0
VERTEX
8
0
10
1.8757
20
5.7057
42
-0.0824
0
VERTEX
8
0
10
2.1133
20
5.6936
42
-0.0201
0
VERTEX
8
0
10
2.3469
20
5.6447
42
0.0272
0
VERTEX
8
0
10
2.5821
20
5.6065
42
-0.0625
0
VERTEX
8
0
10
2.6038
20
5.6628
42
-0.1573
0
VERTEX
8
0
10
2.6481
20
5.7019
42
-0.1711
0
VERTEX
8
0
10
2.7077
20
5.7019
42
-0.0650
0
VERTEX
8
0
10
2.7636
20
5.6794
42
-0.0445
0
VERTEX
8
0
10
2.8655
20
5.6145
42
-0.0089
0
VERTEX
8
0
10
2.9625
20
5.5423
42
0.0224
0
VERTEX
8
0
10
3.1616
20
5.4056
42
0.0473
0
VERTEX
8
0
10
3.2718
20
5.3564
42
0.1072
0
VERTEX
8
0
10
3.3926
20
5.3464
42
-0.0520
0
VERTEX
8
0
10
3.5364
20
5.3225
42
-0.0102
0
VERTEX
8
0
10
3.6780
20
5.2869
42
0.0131
0
VERTEX
8
0
10
3.9622
20
5.2205
42
0.0433
0
VERTEX
8
0
10
4.1074
20
5.2087
42
0.0702
0
VERTEX
8
0
10
4.1787
20
5.2226
42
0.1735
0
VERTEX
8
0
10
4.2319
20
5.2700
42
0.1586
0
VERTEX
8
0
10
4.2412
20
5.3415
42
0.0627
0
VERTEX
8
0
10
4.2248
20
5.4124
42
0.0296
0
VERTEX
8
0
10
4.1980
20
5.4790
42
0.0067
0
VERTEX
8
0
10
4.1879
20
5.5001
0
VERTEX
8
0
10
4.1855
20
5.5050
42
0.0063
0
VERTEX
8
0
10
4.1889
20
5.4980
0
VERTEX
8
0
10
4.1937
20
5.4880
0
VERTEX
8
0
10
4.1942
20
5.4870
0
VERTEX
8
0
10
4.1892
20
5.4970
0
VERTEX
8
0
10
4.1805
20
5.5147
42
0.1561
0
VERTEX
8
0
10
3.9815
20
5.8725
0
SEQEND
8
0
0
POLYLINE
8
Layer 1
66
1
0
VERTEX
8
0
10
4.3997
20
6.6009
42
-0.0839
0
VERTEX
8
0
10
4.2523
20
6.5408
42
0.1099
0
VERTEX
8
0
10
4.2016
20
6.4938
42
-0.0106
0
VERTEX
8
0
10
4.1521
20
6.4453
42
-0.0615
0
VERTEX
8
0
10
4.0955
20
6.4058
42
-0.4555
0
VERTEX
8
0
10
4.0428
20
6.4327
42
-0.1822
0
VERTEX
8
0
10
3.9988
20
6.5814
42
-0.1372
0
VERTEX
8
0
10
4.0503
20
6.7294
42
-0.1022
0
VERTEX
8
0
10
4.1604
20
6.8418
42
-0.1277
0
VERTEX
8
0
10
4.3082
20
6.8932
42
-0.0439
0
VERTEX
8
0
10
4.3484
20
6.8913
42
-0.0976
0
VERTEX
8
0
10
4.5040
20
6.8524
42
-0.2240
0
VERTEX
8
0
10
4.5439
20
6.7856
42
-0.1789
0
VERTEX
8
0
10
4.5181
20
6.7099
42
-0.1242
0
VERTEX
8
0
10
4.3997
20
6.6009
0
SEQEND
8
0
0
POLYLINE
8
Layer 1
66
1
0
VERTEX
8
0
10
4.7153
20
6.1612
42
-0.0549
0
VERTEX
8
0
10
4.6251
20
6.1286
42
-0.0335
0
VERTEX
8
0
10
4.4369
20
6.0908
42
0.0134
0
VERTEX
8
0
10
4.3429
20
6.0714
42
0.0756
0
VERTEX
8
0
10
4.2570
20
6.0349
42
-0.1833
0
VERTEX
8
0
10
4.1939
20
6.2062
42
-0.1708
0
VERTEX
8
0
10
4.2638
20
6.3768
42
-0.2092
0
VERTEX
8
0
10
4.5836
20
6.5484
42
-0.3256
0
VERTEX
8
0
10
4.7926
20
6.4021
42
-0.0780
0
VERTEX
8
0
10
4.8167
20
6.3097
42
-0.1669
0
VERTEX
8
0
10
4.7905
20
6.2194
42
-0.1359
0
VERTEX
8
0
10
4.7153
20
6.1612
0
SEQEND
8
0
0
POLYLINE
8
Layer 1
66
1
0
VERTEX
8
0
10
4.9743
20
5.6742
42
-0.0932
0
VERTEX
8
0
10
4.8900
20
5.6245
42
-0.0602
0
VERTEX
8
0
10
4.7010
20
5.5711
42
0.0218
0
VERTEX
8
0
10
4.5133
20
5.5219
42
-0.1260
0
VERTEX
8
0
10
4.4140
20
5.6787
42
-0.1978
0
VERTEX
8
0
10
4.4401
20
5.8604
42
-0.1429
0
VERTEX
8
0
10
4.5729
20
5.9905
42
-0.1226
0
VERTEX
8
0
10
4.7514
20
6.0411
42
-0.2178
0
VERTEX
8
0
10
4.9762
20
5.9431
42
-0.0499
0
VERTEX
8
0
10
5.0167
20
5.8537
42
-0.1101
0
VERTEX
8
0
10
5.0244
20
5.7567
42
-0.1734
0
VERTEX
8
0
10
4.9743
20
5.6742
0
SEQEND
8
0
0
POLYLINE
8
Layer 1
66
1
0
VERTEX
8
0
10
5.2138
20
5.3238
42
-0.0594
0
VERTEX
8
0
10
5.1933
20
5.2905
42
-0.0474
0
VERTEX
8
0
10
5.1407
20
5.2326
42
-0.0362
0
VERTEX
8
0
10
5.0202
20
5.1326
42
-0.0203
0
VERTEX
8
0
10
4.8907
20
5.0445
42
-0.0439
0
VERTEX
8
0
10
4.7505
20
4.9735
42
-0.1217
0
VERTEX
8
0
10
4.6564
20
5.1325
42
-0.1739
0
VERTEX
8
0
10
4.6749
20
5.3149
42
-0.2848
0
VERTEX
8
0
10
4.9719
20
5.5099
42
-0.2808
0
VERTEX
8
0
10
5.2210
20
5.3617
42
-0.1764
0
VERTEX
8
0
10
5.2138
20
5.3238
0
SEQEND
8
0
0
POLYLINE
8
Layer 1
66
1
0
VERTEX
8
0
10
5.4619
20
5.1547
42
-0.2138
0
VERTEX
8
0
10
5.3291
20
5.3925
42
-0.1313
0
VERTEX
8
0
10
5.3539
20
5.5288
42
-0.2687
0
VERTEX
8
0
10
5.4672
20
5.5979
42
-0.1401
0
VERTEX
8
0
10
5.5573
20
5.5688
42
-0.0631
0
VERTEX
8
0
10
5.6331
20
5.5109
42
-0.1157
0
VERTEX
8
0
10
5.7418
20
5.3855
42
-0.1909
0
VERTEX
8
0
10
5.7528
20
5.2229
42
-0.2797
0
VERTEX
8
0
10
5.6250
20
5.1271
42
-0.1562
0
VERTEX
8
0
10
5.4619
20
5.1547
0
SEQEND
8
0
0
POLYLINE
8
Layer 1
66
1
0
VERTEX
8
0
10
5.4181
20
4.8423
42
-0.1051
0
VERTEX
8
0
10
5.3394
20
4.7368
42
-0.0578
0
VERTEX
8
0
10
5.2352
20
4.6558
42
-0.0418
0
VERTEX
8
0
10
5.1759
20
4.6266
42
-0.1099
0
VERTEX
8
0
10
5.1100
20
4.6177
42
-0.3271
0
VERTEX
8
0
10
5.0375
20
4.9103
42
-0.1101
0
VERTEX
8
0
10
5.1213
20
5.0463
42
-0.1674
0
VERTEX
8
0
10
5.2616
20
5.1164
42
-0.2434
0
VERTEX
8
0
10
5.3577
20
5.0655
42
-0.1168
0
VERTEX
8
0
10
5.4046
20
4.9639
42
-0.2003
0
VERTEX
8
0
10
5.4328
20
4.9061
42
-0.1390
0
VERTEX
8
0
10
5.4181
20
4.8423
0
SEQEND
8
0
0
POLYLINE
8
Layer 1
66
1
0
VERTEX
8
0
10
5.6582
20
4.6867
42
-0.3608
0
VERTEX
8
0
10
5.6675
20
4.6162
42
-0.0925
0
VERTEX
8
0
10
5.6283
20
4.5515
42
-0.0348
0
VERTEX
8
0
10
5.5767
20
4.4949
42
0.1453
0
VERTEX
8
0
10
5.5133
20
4.4431
42
0.0161
0
VERTEX
8
0
10
5.4601
20
4.3801
42
-0.0439
0
VERTEX
8
0
10
5.4016
20
4.3223
42
-0.2463
0
VERTEX
8
0
10
5.3242
20
4.3117
42
-0.1301
0
VERTEX
8
0
10
5.2584
20
4.4495
42
-0.2265
0
VERTEX
8
0
10
5.3104
20
4.5907
42
-0.1192
0
VERTEX
8
0
10
5.4377
20
4.6773
42
-0.0954
0
VERTEX
8
0
10
5.5872
20
4.7091
42
-0.1366
0
VERTEX
8
0
10
5.6582
20
4.6867
0
SEQEND
8
0
0
POLYLINE
8
Layer 1
66
1
0
VERTEX
8
0
10
5.9674
20
4.8428
42
-0.1439
0
VERTEX
8
0
10
5.8790
20
4.7478
42
-0.1101
0
VERTEX
8
0
10
5.7565
20
4.7038
42
-0.3357
0
VERTEX
8
0
10
5.6210
20
4.9389
42
-0.1335
0
VERTEX
8
0
10
5.6730
20
5.0736
42
-0.2046
0
VERTEX
8
0
10
5.7957
20
5.1432
42
-0.2234
0
VERTEX
8
0
10
5.9248
20
5.0863
42
-0.1114
0
VERTEX
8
0
10
5.9839
20
4.9705
42
-0.1684
0
VERTEX
8
0
10
5.9674
20
4.8428
0
SEQEND
8
0
0
POLYLINE
8
Layer 1
66
1
0
VERTEX
8
0
10
6.1663
20
4.7124
42
-0.1718
0
VERTEX
8
0
10
6.1844
20
4.6153
42
-0.3812
0
VERTEX
8
0
10
6.1174
20
4.5386
42
-0.1705
0
VERTEX
8
0
10
6.0089
20
4.5508
42
-0.1130
0
VERTEX
8
0
10
5.9137
20
4.5741
42
-0.2770
0
VERTEX
8
0
10
5.8978
20
4.6185
42
-0.1405
0
VERTEX
8
0
10
5.9196
20
4.6628
42
-0.1097
0
VERTEX
8
0
10
5.9956
20
4.7262
42
-0.0486
0
VERTEX
8
0
10
6.0412
20
4.7461
42
-0.0323
0
VERTEX
8
0
10
6.0653
20
4.7521
42
-0.0193
0
VERTEX
8
0
10
6.0776
20
4.7537
0
VERTEX
8
0
10
6.0810
20
4.7540
0
VERTEX
8
0
10
6.0804
20
4.7539
0
VERTEX
8
0
10
6.0789
20
4.7538
0
VERTEX
8
0
10
6.0760
20
4.7535
0
VERTEX
8
0
10
6.0759
20
4.7535
0
VERTEX
8
0
10
6.0767
20
4.7536
0
VERTEX
8
0
10
6.0787
20
4.7538
0
VERTEX
8
0
10
6.0816
20
4.7540
42
-0.2663
0
VERTEX
8
0
10
6.1663
20
4.7124
0
SEQEND
8
0
0
POLYLINE
8
Layer 1
66
1
0
VERTEX
8
0
10
6.3977
20
4.9849
42
0.3321
0
VERTEX
8
0
10
6.2339
20
4.8413
42
0.1556
0
VERTEX
8
0
10
6.2469
20
4.7264
42
0.1004
0
VERTEX
8
0
10
6.3188
20
4.6345
42
0.3298
0
VERTEX
8
0
10
6.3887
20
4.6063
42
0.0897
0
VERTEX
8
0
10
6.4592
20
4.6469
42
0.0535
0
VERTEX
8
0
10
6.5154
20
4.7065
42
0.1469
0
VERTEX
8
0
10
6.5535
20
4.7784
42
0.1173
0
VERTEX
8
0
10
6.5107
20
4.9116
42
0.2820
0
VERTEX
8
0
10
6.3977
20
4.9849
0
SEQEND
8
0
0
POLYLINE
8
Layer 1
66
1
0
VERTEX
8
0
10
6.5419
20
5.1893
42
-0.1496
0
VERTEX
8
0
10
6.6030
20
5.3187
42
-0.1868
0
VERTEX
8
0
10
6.7300
20
5.3808
42
-0.1821
0
VERTEX
8
0
10
6.8173
20
5.3492
42
-0.1314
0
VERTEX
8
0
10
6.8713
20
5.2722
42
-0.1145
0
VERTEX
8
0
10
6.9040
20
5.0863
42
-0.1839
0
VERTEX
8
0
10
6.9196
20
4.9780
42
-0.2170
0
VERTEX
8
0
10
6.8465
20
4.8963
42
-0.1487
0
VERTEX
8
0
10
6.7375
20
4.8760
42
-0.1813
0
VERTEX
8
0
10
6.6401
20
4.9261
42
-0.0839
0
VERTEX
8
0
10
6.5607
20
5.0469
42
-0.1274
0
VERTEX
8
0
10
6.5419
20
5.1893
0
SEQEND
8
0
0
POLYLINE
8
Layer 1
66
1
0
VERTEX
8
0
10
6.2009
20
5.3774
42
-0.1079
0
VERTEX
8
0
10
6.2329
20
5.3263
42
-0.0806
0
VERTEX
8
0
10
6.2614
20
5.2087
42
-0.1902
0
VERTEX
8
0
10
6.2789
20
5.1681
42
-0.0864
0
VERTEX
8
0
10
6.2764
20
5.1233
42
-0.0931
0
VERTEX
8
0
10
6.2433
20
5.0400
42
-0.1131
0
VERTEX
8
0
10
6.1812
20
4.9761
42
-0.4137
0
VERTEX
8
0
10
6.1046
20
5.0017
42
-0.2628
0
VERTEX
8
0
10
6.0123
20
5.2169
42
-0.1123
0
VERTEX
8
0
10
6.0515
20
5.3320
42
-0.0752
0
VERTEX
8
0
10
6.0914
20
5.3782
42
-0.1439
0
VERTEX
8
0
10
6.1471
20
5.4014
42
-0.2247
0
VERTEX
8
0
10
6.2009
20
5.3774
0
SEQEND
8
0
0
POLYLINE
8
Layer 1
66
1
0
VERTEX
8
0
10
6.2578
20
5.5597
42
-0.3014
0
VERTEX
8
0
10
6.2947
20
5.5874
42
-0.1451
0
VERTEX
8
0
10
6.3469
20
5.5737
42
-0.0425
0
VERTEX
8
0
10
6.3934
20
5.5468
42
-0.0372
0
VERTEX
8
0
10
6.4780
20
5.4803
42
-0.1193
0
VERTEX
8
0
10
6.4877
20
5.4365
42
-0.0236
0
VERTEX
8
0
10
6.4909
20
5.3916
42
-0.0411
0
VERTEX
8
0
10
6.4862
20
5.3017
42
-0.1285
0
VERTEX
8
0
10
6.4515
20
5.2209
42
-0.3318
0
VERTEX
8
0
10
6.4091
20
5.2228
42
-0.0550
0
VERTEX
8
0
10
6.3909
20
5.2361
42
-0.0168
0
VERTEX
8
0
10
6.3828
20
5.2437
0
VERTEX
8
0
10
6.3804
20
5.2460
0
VERTEX
8
0
10
6.3807
20
5.2458
0
VERTEX
8
0
10
6.3815
20
5.2450
0
VERTEX
8
0
10
6.3836
20
5.2429
0
VERTEX
8
0
10
6.3841
20
5.2424
0
VERTEX
8
0
10
6.3825
20
5.2439
0
VERTEX
8
0
10
6.3800
20
5.2465
42
-0.0810
0
VERTEX
8
0
10
6.2797
20
5.4158
42
-0.0575
0
VERTEX
8
0
10
6.2541
20
5.5108
42
-0.0888
0
VERTEX
8
0
10
6.2578
20
5.5597
0
SEQEND
8
0
0
POLYLINE
8
Layer 1
66
1
0
VERTEX
8
0
10
6.0164
20
5.7534
42
-0.1460
0
VERTEX
8
0
10
6.0013
20
5.6065
42
0.0098
0
VERTEX
8
0
10
5.9694
20
5.5374
42
-0.0573
0
VERTEX
8
0
10
5.9289
20
5.4735
42
-0.2583
0
VERTEX
8
0
10
5.8602
20
5.4522
42
-0.1465
0
VERTEX
8
0
10
5.7986
20
5.4913
42
-0.1035
0
VERTEX
8
0
10
5.7233
20
5.5867
42
-0.1948
0
VERTEX
8
0
10
5.7219
20
5.7062
42
-0.2988
0
VERTEX
8
0
10
5.9124
20
5.8399
42
-0.3692
0
VERTEX
8
0
10
6.0164
20
5.7534
0
SEQEND
8
0
0
POLYLINE
8
Layer 1
66
1
0
VERTEX
8
0
10
6.1862
20
5.9438
42
-0.1102
0
VERTEX
8
0
10
6.2438
20
5.9645
42
-0.0392
0
VERTEX
8
0
10
6.3051
20
5.9718
42
-0.0066
0
VERTEX
8
0
10
6.3219
20
5.9725
0
VERTEX
8
0
10
6.3260
20
5.9726
42
-0.0035
0
VERTEX
8
0
10
6.3124
20
5.9720
0
VERTEX
8
0
10
6.3030
20
5.9717
42
-0.0285
0
VERTEX
8
0
10
6.3123
20
5.9721
42
-0.0068
0
VERTEX
8
0
10
6.3326
20
5.9728
42
-0.0144
0
VERTEX
8
0
10
6.3848
20
5.9723
42
-0.0982
0
VERTEX
8
0
10
6.4737
20
5.9608
42
-0.0473
0
VERTEX
8
0
10
6.5576
20
5.9282
42
-0.0669
0
VERTEX
8
0
10
6.7074
20
5.8288
42
-0.0992
0
VERTEX
8
0
10
6.8160
20
5.6870
42
-0.1503
0
VERTEX
8
0
10
6.8217
20
5.5988
42
-0.1878
0
VERTEX
8
0
10
6.7663
20
5.5300
42
-0.1158
0
VERTEX
8
0
10
6.6451
20
5.5477
42
-0.0365
0
VERTEX
8
0
10
6.5298
20
5.5909
42
-0.0480
0
VERTEX
8
0
10
6.3155
20
5.7118
42
-0.0364
0
VERTEX
8
0
10
6.2204
20
5.7899
42
-0.0406
0
VERTEX
8
0
10
6.1804
20
5.8366
42
-0.1079
0
VERTEX
8
0
10
6.1574
20
5.8929
42
-0.2939
0
VERTEX
8
0
10
6.1862
20
5.9438
0
SEQEND
8
0
0
POLYLINE
8
Layer 1
66
1
0
VERTEX
8
0
10
6.0066
20
6.3158
42
-0.1613
0
VERTEX
8
0
10
5.9982
20
6.4325
42
-0.2544
0
VERTEX
8
0
10
6.0864
20
6.5076
42
-0.0530
0
VERTEX
8
0
10
6.1448
20
6.5207
42
-0.0175
0
VERTEX
8
0
10
6.1746
20
6.5236
42
-0.0025
0
VERTEX
8
0
10
6.1839
20
6.5242
0
VERTEX
8
0
10
6.1842
20
6.5242
0
VERTEX
8
0
10
6.1809
20
6.5240
0
VERTEX
8
0
10
6.1802
20
6.5239
0
VERTEX
8
0
10
6.1935
20
6.5245
42
-0.1274
0
VERTEX
8
0
10
6.2485
20
6.5346
42
-0.1235
0
VERTEX
8
0
10
6.3198
20
6.5115
42
-0.0640
0
VERTEX
8
0
10
6.3803
20
6.4666
42
-0.0732
0
VERTEX
8
0
10
6.4750
20
6.3494
42
-0.0660
0
VERTEX
8
0
10
6.5364
20
6.2119
42
-0.0772
0
VERTEX
8
0
10
6.5442
20
6.1372
42
-0.1103
0
VERTEX
8
0
10
6.5317
20
6.1019
42
-0.1942
0
VERTEX
8
0
10
6.4986
20
6.0808
42
-0.2261
0
VERTEX
8
0
10
6.2656
20
6.0791
42
-0.1262
0
VERTEX
8
0
10
6.0712
20
6.2154
42
-0.0745
0
VERTEX
8
0
10
6.0066
20
6.3158
0
SEQEND
8
0
0
POLYLINE
8
Layer 1
66
1
0
VERTEX
8
0
10
5.7520
20
6.2000
42
-0.1878
0
VERTEX
8
0
10
5.7321
20
6.2733
42
-0.2177
0
VERTEX
8
0
10
5.7604
20
6.2997
42
-0.1102
0
VERTEX
8
0
10
5.8000
20
6.3070
42
-0.2981
0
VERTEX
8
0
10
5.9267
20
6.2244
42
-0.1531
0
VERTEX
8
0
10
5.9300
20
6.1450
42
-0.0800
0
VERTEX
8
0
10
5.9009
20
6.0703
0
VERTEX
8
0
10
5.8712
20
6.0961
42
-0.0635
0
VERTEX
8
0
10
5.7520
20
6.2000
0
SEQEND
8
0
0
POLYLINE
8
Layer 1
66
1
0
VERTEX
8
0
10
5.4286
20
6.0165
42
-0.2973
0
VERTEX
8
0
10
5.4529
20
6.0973
42
-0.1868
0
VERTEX
8
0
10
5.5404
20
6.1205
42
-0.1920
0
VERTEX
8
0
10
5.7003
20
6.0564
42
-0.1843
0
VERTEX
8
0
10
5.7304
20
5.9753
42
-0.1369
0
VERTEX
8
0
10
5.7053
20
5.8915
42
0.1671
0
VERTEX
8
0
10
5.6590
20
5.8632
42
-0.0189
0
VERTEX
8
0
10
5.6161
20
5.8292
42
-0.3047
0
VERTEX
8
0
10
5.5658
20
5.8326
42
-0.0839
0
VERTEX
8
0
10
5.5491
20
5.8542
42
-0.0199
0
VERTEX
8
0
10
5.5425
20
5.8662
42
-0.0104
0
VERTEX
8
0
10
5.5384
20
5.8748
42
-0.0339
0
VERTEX
8
0
10
5.4745
20
5.9389
42
-0.0822
0
VERTEX
8
0
10
5.4286
20
6.0165
0
SEQEND
8
0
0
POLYLINE
8
Layer 1
66
1
0
VERTEX
8
0
10
5.2707
20
6.0708
42
0.2044
0
VERTEX
8
0
10
5.1755
20
6.0265
42
0.1560
0
VERTEX
8
0
10
5.1334
20
5.9284
42
0.1285
0
VERTEX
8
0
10
5.1530
20
5.8230
42
0.0829
0
VERTEX
8
0
10
5.2171
20
5.7361
42
0.2160
0
VERTEX
8
0
10
5.2931
20
5.7105
42
0.1197
0
VERTEX
8
0
10
5.3710
20
5.7390
42
0.1999
0
VERTEX
8
0
10
5.4224
20
5.8032
42
0.2138
0
VERTEX
8
0
10
5.4046
20
5.8819
42
0.1080
0
VERTEX
8
0
10
5.3682
20
6.0012
42
0.2955
0
VERTEX
8
0
10
5.2707
20
6.0708
0
SEQEND
8
0
0
POLYLINE
8
Layer 1
66
1
0
VERTEX
8
0
10
5.2824
20
6.5408
42
-0.1897
0
VERTEX
8
0
10
5.3202
20
6.6783
42
-0.2029
0
VERTEX
8
0
10
5.4409
20
6.7512
42
-0.2730
0
VERTEX
8
0
10
5.5686
20
6.6875
42
-0.1111
0
VERTEX
8
0
10
5.6341
20
6.5551
42
-0.2448
0
VERTEX
8
0
10
5.6834
20
6.4783
42
-0.2100
0
VERTEX
8
0
10
5.6425
20
6.3932
42
-0.1051
0
VERTEX
8
0
10
5.5646
20
6.3375
42
-0.0815
0
VERTEX
8
0
10
5.5180
20
6.3263
42
-0.1756
0
VERTEX
8
0
10
5.4734
20
6.3409
42
-0.0879
0
VERTEX
8
0
10
5.3486
20
6.4144
42
-0.1688
0
VERTEX
8
0
10
5.2824
20
6.5408
0
SEQEND
8
0
0
POLYLINE
8
Layer 1
66
1
0
VERTEX
8
0
10
5.0947
20
6.5752
42
0.2312
0
VERTEX
8
0
10
4.9948
20
6.5112
42
0.1763
0
VERTEX
8
0
10
4.9740
20
6.3923
42
0.1206
0
VERTEX
8
0
10
5.0278
20
6.2828
42
0.0701
0
VERTEX
8
0
10
5.1215
20
6.2032
42
0.1579
0
VERTEX
8
0
10
5.1870
20
6.1882
42
0.0786
0
VERTEX
8
0
10
5.2540
20
6.2054
42
0.1798
0
VERTEX
8
0
10
5.3091
20
6.2461
42
0.3249
0
VERTEX
8
0
10
5.2975
20
6.3079
42
0.0978
0
VERTEX
8
0
10
5.2379
20
6.4788
42
0.1101
0
VERTEX
8
0
10
5.1793
20
6.5476
42
0.1913
0
VERTEX
8
0
10
5.0947
20
6.5752
0
SEQEND
8
0
0
POLYLINE
8
Layer 1
66
1
0
VERTEX
8
0
10
4.9609
20
6.7990
42
0.0579
0
VERTEX
8
0
10
4.9211
20
6.7531
42
-0.0256
0
VERTEX
8
0
10
4.8802
20
6.7083
42
-0.1131
0
VERTEX
8
0
10
4.8281
20
6.6788
42
-0.2611
0
VERTEX
8
0
10
4.7734
20
6.6986
42
-0.1021
0
VERTEX
8
0
10
4.6892
20
6.8294
42
-0.1586
0
VERTEX
8
0
10
4.6928
20
6.9062
42
-0.2767
0
VERTEX
8
0
10
4.7562
20
6.9463
42
-0.1341
0
VERTEX
8
0
10
4.8204
20
6.9342
42
-0.0764
0
VERTEX
8
0
10
4.8763
20
6.8995
42
-0.0925
0
VERTEX
8
0
10
4.9609
20
6.7990
0
SEQEND
8
0
0
POLYLINE
8
Layer 1
66
1
0
VERTEX
8
0
10
5.1540
20
7.0250
42
-0.1403
0
VERTEX
8
0
10
5.2452
20
6.9527
42
-0.2292
0
VERTEX
8
0
10
5.2453
20
6.8955
42
-0.1379
0
VERTEX
8
0
10
5.2061
20
6.8515
42
-0.0528
0
VERTEX
8
0
10
5.1554
20
6.8209
42
-0.0146
0
VERTEX
8
0
10
5.1284
20
6.8085
42
-0.0067
0
VERTEX
8
0
10
5.1147
20
6.8028
0
VERTEX
8
0
10
5.1111
20
6.8014
0
VERTEX
8
0
10
5.1097
20
6.8009
0
VERTEX
8
0
10
5.1132
20
6.8022
0
VERTEX
8
0
10
5.1140
20
6.8026
0
VERTEX
8
0
10
5.1086
20
6.8004
0
VERTEX
8
0
10
5.0641
20
6.8377
42
-0.0629
0
VERTEX
8
0
10
4.9796
20
6.9508
42
-0.1856
0
VERTEX
8
0
10
4.9757
20
7.0188
42
-0.3058
0
VERTEX
8
0
10
5.0383
20
7.0471
42
-0.1260
0
VERTEX
8
0
10
5.1540
20
7.0250
0
SEQEND
8
0
0
POLYLINE
8
Layer 1
66
1
0
VERTEX
8
0
10
5.3338
20
7.2704
42
0.2747
0
VERTEX
8
0
10
5.2980
20
7.2382
42
0.0780
0
VERTEX
8
0
10
5.2943
20
7.1879
42
0.0555
0
VERTEX
8
0
10
5.3176
20
7.0893
42
0.0927
0
VERTEX
8
0
10
5.4161
20
6.9128
42
0.2478
0
VERTEX
8
0
10
5.4563
20
6.8997
42
0.1502
0
VERTEX
8
0
10
5.4910
20
6.9230
42
0.0869
0
VERTEX
8
0
10
5.5262
20
7.0004
42
0.0683
0
VERTEX
8
0
10
5.5369
20
7.0851
42
0.0639
0
VERTEX
8
0
10
5.5320
20
7.1276
42
0.2123
0
VERTEX
8
0
10
5.5117
20
7.1643
42
0.0389
0
VERTEX
8
0
10
5.4301
20
7.2315
42
0.0473
0
VERTEX
8
0
10
5.3847
20
7.2584
42
0.1702
0
VERTEX
8
0
10
5.3338
20
7.2704
0
SEQEND
8
0
0
POLYLINE
8
Layer 1
66
1
0
VERTEX
8
0
10
5.1438
20
7.4701
42
-0.0464
0
VERTEX
8
0
10
5.1363
20
7.5041
42
-0.2967
0
VERTEX
8
0
10
5.1512
20
7.5310
42
-0.2490
0
VERTEX
8
0
10
5.1986
20
7.5113
42
-0.0422
0
VERTEX
8
0
10
5.2390
20
7.4781
42
-0.0774
0
VERTEX
8
0
10
5.3026
20
7.3960
42
-0.1748
0
VERTEX
8
0
10
5.3034
20
7.3709
42
-0.3541
0
VERTEX
8
0
10
5.2792
20
7.3648
42
-0.0885
0
VERTEX
8
0
10
5.2290
20
7.3790
42
-0.0229
0
VERTEX
8
0
10
5.1813
20
7.4003
0
VERTEX
8
0
10
5.1755
20
7.4032
0
VERTEX
8
0
10
5.1721
20
7.4049
0
VERTEX
8
0
10
5.1717
20
7.4051
0
VERTEX
8
0
10
5.1726
20
7.4046
42
-0.0023
0
VERTEX
8
0
10
5.1783
20
7.4020
0
VERTEX
8
0
10
5.1972
20
7.3931
0
VERTEX
8
0
10
5.2117
20
7.3863
0
VERTEX
8
0
10
5.2121
20
7.3860
0
VERTEX
8
0
10
5.2092
20
7.3873
0
VERTEX
8
0
10
5.2050
20
7.3891
42
-0.0125
0
VERTEX
8
0
10
5.1703
20
7.4058
42
-0.0263
0
VERTEX
8
0
10
5.1438
20
7.4701
0
SEQEND
8
0
0
POLYLINE
8
Layer 1
66
1
0
VERTEX
8
0
10
4.8643
20
7.3553
42
-0.2661
0
VERTEX
8
0
10
4.8985
20
7.3909
42
-0.0688
0
VERTEX
8
0
10
4.9236
20
7.3964
42
-0.0211
0
VERTEX
8
0
10
4.9364
20
7.3972
42
-0.0108
0
VERTEX
8
0
10
4.9446
20
7.3971
42
-0.0773
0
VERTEX
8
0
10
5.0335
20
7.3809
42
-0.2637
0
VERTEX
8
0
10
5.1173
20
7.3360
42
-0.1056
0
VERTEX
8
0
10
5.1656
20
7.2515
42
-0.0712
0
VERTEX
8
0
10
5.1739
20
7.2035
42
-0.1787
0
VERTEX
8
0
10
5.1570
20
7.1591
42
-0.2503
0
VERTEX
8
0
10
5.1106
20
7.1486
42
-0.0449
0
VERTEX
8
0
10
5.0868
20
7.1537
42
-0.0152
0
VERTEX
8
0
10
5.0751
20
7.1575
0
VERTEX
8
0
10
5.0718
20
7.1587
0
VERTEX
8
0
10
5.0720
20
7.1586
0
VERTEX
8
0
10
5.0751
20
7.1575
0
VERTEX
8
0
10
5.0766
20
7.1569
0
VERTEX
8
0
10
5.0747
20
7.1576
0
VERTEX
8
0
10
5.0708
20
7.1590
42
-0.1810
0
VERTEX
8
0
10
4.8968
20
7.2610
42
-0.1693
0
VERTEX
8
0
10
4.8643
20
7.3553
0
SEQEND
8
0
0
POLYLINE
8
Layer 1
66
1
0
VERTEX
8
0
10
4.6587
20
7.3187
42
0.2646
0
VERTEX
8
0
10
4.6318
20
7.3022
42
0.0986
0
VERTEX
8
0
10
4.6250
20
7.2699
42
0.0526
0
VERTEX
8
0
10
4.6353
20
7.2042
42
0.0309
0
VERTEX
8
0
10
4.6816
20
7.0792
0
VERTEX
8
0
10
4.6989
20
7.0755
0
VERTEX
8
0
10
4.7019
20
7.0749
0
VERTEX
8
0
10
4.6996
20
7.0754
0
VERTEX
8
0
10
4.6878
20
7.0778
0
VERTEX
8
0
10
4.6900
20
7.0773
42
0.0160
0
VERTEX
8
0
10
4.7237
20
7.0711
42
0.0648
0
VERTEX
8
0
10
4.7883
20
7.0673
42
0.2850
0
VERTEX
8
0
10
4.8461
20
7.0918
42
0.1915
0
VERTEX
8
0
10
4.8466
20
7.1541
42
0.0933
0
VERTEX
8
0
10
4.7703
20
7.2580
42
0.0541
0
VERTEX
8
0
10
4.7192
20
7.2978
42
0.1880
0
VERTEX
8
0
10
4.6587
20
7.3187
0
SEQEND
8
0
0
POLYLINE
8
Layer 1
66
1
0
VERTEX
8
0
10
4.5412
20
7.6202
42
-0.1693
0
VERTEX
8
0
10
4.5168
20
7.7193
42
-0.3940
0
VERTEX
8
0
10
4.5965
20
7.7720
42
-0.1290
0
VERTEX
8
0
10
4.6847
20
7.7453
42
-0.0545
0
VERTEX
8
0
10
4.7620
20
7.6941
42
-0.0746
0
VERTEX
8
0
10
4.8838
20
7.6506
42
-0.1033
0
VERTEX
8
0
10
4.9304
20
7.6062
42
-0.2186
0
VERTEX
8
0
10
4.9372
20
7.5438
42
-0.1899
0
VERTEX
8
0
10
4.8943
20
7.4965
42
-0.1069
0
VERTEX
8
0
10
4.8330
20
7.4764
42
-0.1377
0
VERTEX
8
0
10
4.7055
20
7.4947
42
-0.1245
0
VERTEX
8
0
10
4.5412
20
7.6202
0
SEQEND
8
0
0
POLYLINE
8
Layer 1
66
1
0
VERTEX
8
0
10
4.3793
20
7.5032
42
-0.0875
0
VERTEX
8
0
10
4.4132
20
7.5477
42
-0.1812
0
VERTEX
8
0
10
4.4650
20
7.5664
42
-0.1769
0
VERTEX
8
0
10
4.5092
20
7.5458
42
-0.0816
0
VERTEX
8
0
10
4.5409
20
7.5080
42
-0.0702
0
VERTEX
8
0
10
4.5822
20
7.4182
42
0.0246
0
VERTEX
8
0
10
4.5264
20
7.2792
42
-0.0369
0
VERTEX
8
0
10
4.4906
20
7.2135
42
-0.0762
0
VERTEX
8
0
10
4.4647
20
7.1868
42
-0.3355
0
VERTEX
8
0
10
4.4292
20
7.1901
42
-0.2175
0
VERTEX
8
0
10
4.3521
20
7.3948
42
-0.1024
0
VERTEX
8
0
10
4.3793
20
7.5032
0
SEQEND
8
0
0
POLYLINE
8
Layer 1
66
1
0
VERTEX
8
0
10
4.0122
20
7.6109
42
-0.0281
0
VERTEX
8
0
10
4.1061
20
7.5920
42
-0.0776
0
VERTEX
8
0
10
4.1926
20
7.5525
42
-0.3478
0
VERTEX
8
0
10
4.2116
20
7.4672
42
-0.1282
0
VERTEX
8
0
10
4.1501
20
7.3946
42
-0.0634
0
VERTEX
8
0
10
3.9907
20
7.2891
42
-0.0149
0
VERTEX
8
0
10
3.9053
20
7.2459
42
-0.0076
0
VERTEX
8
0
10
3.8618
20
7.2262
42
-0.0033
0
VERTEX
8
0
10
3.8496
20
7.2210
0
VERTEX
8
0
10
3.8439
20
7.2186
0
VERTEX
8
0
10
3.8439
20
7.2186
0
VERTEX
8
0
10
3.8447
20
7.2189
0
VERTEX
8
0
10
3.8478
20
7.2202
0
VERTEX
8
0
10
3.8525
20
7.2222
42
-0.0049
0
VERTEX
8
0
10
3.8475
20
7.2201
42
-0.0024
0
VERTEX
8
0
10
3.8363
20
7.2155
42
0.0912
0
VERTEX
8
0
10
3.8323
20
7.1745
42
0.2739
0
VERTEX
8
0
10
3.8579
20
7.1447
42
0.1791
0
VERTEX
8
0
10
3.9400
20
7.1451
42
0.0318
0
VERTEX
8
0
10
4.1010
20
7.1841
42
-0.0218
0
VERTEX
8
0
10
4.1822
20
7.2001
42
-0.0937
0
VERTEX
8
0
10
4.2640
20
7.1953
42
-0.3807
0
VERTEX
8
0
10
4.2967
20
7.1261
42
-0.0902
0
VERTEX
8
0
10
4.2733
20
7.0448
42
0.1477
0
VERTEX
8
0
10
4.0458
20
6.9477
42
0.1753
0
VERTEX
8
0
10
3.9327
20
6.7278
42
0.1084
0
VERTEX
8
0
10
3.9431
20
6.4780
42
0.0893
0
VERTEX
8
0
10
4.0428
20
6.2491
42
-0.0172
0
VERTEX
8
0
10
4.4139
20
5.5176
42
-0.0335
0
VERTEX
8
0
10
4.7008
20
4.7497
42
0.0720
0
VERTEX
8
0
10
4.7372
20
4.6579
42
0.0211
0
VERTEX
8
0
10
4.7850
20
4.5713
42
0.0275
0
VERTEX
8
0
10
4.8958
20
4.4073
42
0.0238
0
VERTEX
8
0
10
4.9595
20
4.3315
42
0.0427
0
VERTEX
8
0
10
4.9967
20
4.2991
42
0.1613
0
VERTEX
8
0
10
5.0199
20
4.2932
42
0.4217
0
VERTEX
8
0
10
5.0270
20
4.3158
42
0.1061
0
VERTEX
8
0
10
5.0031
20
4.4116
42
0.0048
0
VERTEX
8
0
10
4.9941
20
4.4367
0
VERTEX
8
0
10
4.9943
20
4.4361
0
VERTEX
8
0
10
4.9957
20
4.4318
0
VERTEX
8
0
10
5.0013
20
4.4156
0
VERTEX
8
0
10
5.0076
20
4.3975
42
0.0022
0
VERTEX
8
0
10
5.0113
20
4.3869
0
VERTEX
8
0
10
5.0113
20
4.3870
0
VERTEX
8
0
10
5.0103
20
4.3902
0
VERTEX
8
0
10
5.0070
20
4.4001
42
0.0033
0
VERTEX
8
0
10
5.0023
20
4.4140
42
0.0057
0
VERTEX
8
0
10
4.9915
20
4.4437
42
-0.0599
0
VERTEX
8
0
10
4.9907
20
4.5410
42
-0.6139
0
VERTEX
8
0
10
5.0290
20
4.5474
42
-0.0706
0
VERTEX
8
0
10
5.0635
20
4.5129
42
-0.0451
0
VERTEX
8
0
10
5.1758
20
4.3527
42
-0.0025
0
VERTEX
8
0
10
5.2806
20
4.1875
42
0.0086
0
VERTEX
8
0
10
5.3351
20
4.1062
42
0.0143
0
VERTEX
8
0
10
5.3644
20
4.0672
42
0.0187
0
VERTEX
8
0
10
5.3806
20
4.0488
42
0.0080
0
VERTEX
8
0
10
5.3865
20
4.0432
0
VERTEX
8
0
10
5.3875
20
4.0422
0
VERTEX
8
0
10
5.3850
20
4.0445
0
VERTEX
8
0
10
5.3893
20
4.0406
42
0.0063
0
VERTEX
8
0
10
5.5772
20
3.8020
42
0.0222
0
VERTEX
8
0
10
5.7807
20
3.5766
42
0.0421
0
VERTEX
8
0
10
6.0134
20
3.3821
42
0.0667
0
VERTEX
8
0
10
6.2843
20
3.2469
42
0.1485
0
VERTEX
8
0
10
6.7596
20
2.8869
42
0.1366
0
VERTEX
8
0
10
7.3554
20
2.8371
42
0.0958
0
VERTEX
8
0
10
7.4481
20
2.8914
42
0.1307
0
VERTEX
8
0
10
7.5043
20
2.9824
42
0.0815
0
VERTEX
8
0
10
7.5204
20
3.0890
42
0.0344
0
VERTEX
8
0
10
7.5158
20
3.1970
42
0.0051
0
VERTEX
8
0
10
7.4938
20
3.4122
42
-0.0833
0
VERTEX
8
0
10
7.5160
20
3.6251
42
0.1289
0
VERTEX
8
0
10
7.4251
20
4.1886
42
0.0973
0
VERTEX
8
0
10
7.1029
20
4.6632
42
-0.1727
0
VERTEX
8
0
10
6.9901
20
4.8881
42
-0.0516
0
VERTEX
8
0
10
6.9852
20
5.0161
42
-0.0197
0
VERTEX
8
0
10
6.9955
20
5.1440
42
0.0284
0
VERTEX
8
0
10
7.0073
20
5.3999
42
0.1376
0
VERTEX
8
0
10
6.9193
20
5.6366
42
-0.0848
0
VERTEX
8
0
10
6.7670
20
5.8585
42
-0.0322
0
VERTEX
8
0
10
6.6622
20
6.1074
42
0.0259
0
VERTEX
8
0
10
6.5509
20
6.3534
42
0.0811
0
VERTEX
8
0
10
6.3824
20
6.5628
42
0.0172
0
VERTEX
8
0
10
6.2152
20
6.7244
42
0.0398
0
VERTEX
8
0
10
6.1671
20
6.7571
42
0.0805
0
VERTEX
8
0
10
6.1396
20
6.7659
42
0.2831
0
VERTEX
8
0
10
6.1155
20
6.7531
42
0.2021
0
VERTEX
8
0
10
6.1089
20
6.6960
42
0.0203
0
VERTEX
8
0
10
6.1123
20
6.6671
42
0.0029
0
VERTEX
8
0
10
6.1135
20
6.6600
0
VERTEX
8
0
10
6.1138
20
6.6578
0
VERTEX
8
0
10
6.1138
20
6.6578
0
VERTEX
8
0
10
6.1137
20
6.6584
0
VERTEX
8
0
10
6.1134
20
6.6606
0
VERTEX
8
0
10
6.1116
20
6.6721
0
VERTEX
8
0
10
6.1115
20
6.6724
0
VERTEX
8
0
10
6.1117
20
6.6713
0
VERTEX
8
0
10
6.1121
20
6.6686
0
VERTEX
8
0
10
6.1127
20
6.6646
42
0.0039
0
VERTEX
8
0
10
6.1141
20
6.6560
42
-0.0463
0
VERTEX
8
0
10
5.9982
20
6.6009
42
-0.1083
0
VERTEX
8
0
10
5.8717
20
6.5871
42
-0.1861
0
VERTEX
8
0
10
5.7642
20
6.6525
42
-0.0921
0
VERTEX
8
0
10
5.7011
20
6.7639
42
-0.0469
0
VERTEX
8
0
10
5.6271
20
7.0099
42
0.0119
0
VERTEX
8
0
10
5.5909
20
7.1333
42
0.0173
0
VERTEX
8
0
10
5.5684
20
7.1935
42
0.0133
0
VERTEX
8
0
10
5.5550
20
7.2228
42
0.0128
0
VERTEX
8
0
10
5.5423
20
7.2470
42
0.0715
0
VERTEX
8
0
10
5.3266
20
7.4984
42
0.0587
0
VERTEX
8
0
10
5.0553
20
7.6889
42
0.1150
0
VERTEX
8
0
10
4.4210
20
7.8648
42
0.0636
0
VERTEX
8
0
10
4.3263
20
7.7860
42
-0.0073
0
VERTEX
8
0
10
4.2366
20
7.7013
42
-0.1584
0
VERTEX
8
0
10
4.0122
20
7.6109
0
SEQEND
8
0
0
POLYLINE
8
Layer 1
66
1
0
VERTEX
8
0
10
3.7662
20
7.8736
42
-0.4140
0
VERTEX
8
0
10
3.7208
20
7.8122
42
-0.0712
0
VERTEX
8
0
10
3.6784
20
7.8078
42
-0.0187
0
VERTEX
8
0
10
3.6570
20
7.8087
42
-0.0075
0
VERTEX
8
0
10
3.6460
20
7.8097
0
VERTEX
8
0
10
3.6454
20
7.8097
0
VERTEX
8
0
10
3.6480
20
7.8095
0
VERTEX
8
0
10
3.6530
20
7.8090
42
-0.0207
0
VERTEX
8
0
10
3.6450
20
7.8098
42
-0.0370
0
VERTEX
8
0
10
3.6226
20
7.9060
42
-0.0624
0
VERTEX
8
0
10
3.6229
20
7.9552
42
-0.2832
0
VERTEX
8
0
10
3.6536
20
7.9886
42
-0.1932
0
VERTEX
8
0
10
3.6935
20
7.9753
42
-0.0681
0
VERTEX
8
0
10
3.7260
20
7.9477
42
-0.1256
0
VERTEX
8
0
10
3.7662
20
7.8736
0
SEQEND
8
0
0
POLYLINE
8
Layer 1
66
1
0
VERTEX
8
0
10
3.9484
20
7.9770
42
0.1528
0
VERTEX
8
0
10
3.6610
20
8.1173
42
-0.0253
0
VERTEX
8
0
10
3.5048
20
8.1605
42
-0.1123
0
VERTEX
8
0
10
3.3744
20
8.2540
42
-0.0809
0
VERTEX
8
0
10
3.2894
20
8.2776
42
-0.2276
0
VERTEX
8
0
10
3.2402
20
8.3473
42
-0.1144
0
VERTEX
8
0
10
3.2462
20
8.4354
42
-0.0025
0
VERTEX
8
0
10
3.2640
20
8.5223
42
0.1130
0
VERTEX
8
0
10
3.2578
20
8.6094
42
0.2547
0
VERTEX
8
0
10
3.1880
20
8.6593
42
0.0770
0
VERTEX
8
0
10
3.1000
20
8.6686
42
0.0090
0
VERTEX
8
0
10
3.0778
20
8.6682
42
0.0041
0
VERTEX
8
0
10
3.0668
20
8.6677
0
VERTEX
8
0
10
3.0591
20
8.6673
0
VERTEX
8
0
10
3.0577
20
8.6672
42
0.0054
0
VERTEX
8
0
10
3.0802
20
8.6681
0
VERTEX
8
0
10
3.0877
20
8.6685
0
VERTEX
8
0
10
3.0878
20
8.6685
0
VERTEX
8
0
10
3.0871
20
8.6685
0
VERTEX
8
0
10
3.0839
20
8.6684
42
0.0089
0
VERTEX
8
0
10
3.0488
20
8.6666
42
0.0878
0
VERTEX
8
0
10
2.0834
20
8.8636
42
0.0683
0
VERTEX
8
0
10
1.4953
20
8.7890
42
0.0380
0
VERTEX
8
0
10
0.9353
20
8.5756
42
0.0595
0
VERTEX
8
0
10
0.4319
20
8.2521
42
0.0746
0
VERTEX
8
0
10
0.3164
20
7.9892
42
0.0258
0
VERTEX
8
0
10
0.2904
20
7.8473
42
-0.0564
0
VERTEX
8
0
10
0.2483
20
7.7098
42
0.0428
0
VERTEX
8
0
10
0.2435
20
7.5870
42
0.0386
0
VERTEX
8
0
10
0.2540
20
7.4942
42
0.0459
0
VERTEX
8
0
10
0.2678
20
7.4496
42
0.2109
0
VERTEX
8
0
10
0.3004
20
7.4204
42
0.3099
0
VERTEX
8
0
10
0.3353
20
7.4495
42
0.0478
0
VERTEX
8
0
10
0.3573
20
7.4907
42
0.0204
0
VERTEX
8
0
10
0.3747
20
7.5340
42
0.0066
0
VERTEX
8
0
10
0.3824
20
7.5560
42
0.0026
0
VERTEX
8
0
10
0.3861
20
7.5672
0
VERTEX
8
0
10
0.3878
20
7.5726
42
0.0032
0
VERTEX
8
0
10
0.3913
20
7.5836
42
-0.1122
0
VERTEX
8
0
10
0.4744
20
7.6597
42
-0.2419
0
VERTEX
8
0
10
0.5842
20
7.6559
42
-0.2416
0
VERTEX
8
0
10
0.6425
20
7.5620
42
-0.2581
0
VERTEX
8
0
10
0.5965
20
7.4620
42
-0.1356
0
VERTEX
8
0
10
0.4931
20
7.4158
42
0.1044
0
VERTEX
8
0
10
0.3903
20
7.3780
42
0.1411
0
VERTEX
8
0
10
0.3209
20
7.2939
42
0.0914
0
VERTEX
8
0
10
0.2937
20
7.1873
42
0.0474
0
VERTEX
8
0
10
0.2928
20
7.0770
42
0.0468
0
VERTEX
8
0
10
0.3284
20
6.8592
42
0.0173
0
VERTEX
8
0
10
0.3860
20
6.6469
42
0.0728
0
VERTEX
8
0
10
0.4478
20
6.5258
42
0.1404
0
VERTEX
8
0
10
0.5562
20
6.4461
42
0.1214
0
VERTEX
8
0
10
0.6911
20
6.4338
42
0.0498
0
VERTEX
8
0
10
0.8249
20
6.4602
42
0.0122
0
VERTEX
8
0
10
1.0866
20
6.5382
42
-0.0351
0
VERTEX
8
0
10
1.2207
20
6.5630
42
-0.0759
0
VERTEX
8
0
10
1.3538
20
6.5547
42
0.0493
0
VERTEX
8
0
10
2.1277
20
6.6409
42
0.0184
0
VERTEX
8
0
10
2.8877
20
6.8153
42
-0.1646
0
VERTEX
8
0
10
3.1488
20
6.9170
42
-0.0885
0
VERTEX
8
0
10
3.1832
20
6.9080
42
-0.2586
0
VERTEX
8
0
10
3.2010
20
6.8790
42
-0.1610
0
VERTEX
8
0
10
3.1899
20
6.8455
42
-0.0531
0
VERTEX
8
0
10
3.1686
20
6.8168
42
-0.0730
0
VERTEX
8
0
10
3.0617
20
6.7258
42
-0.0396
0
VERTEX
8
0
10
2.6802
20
6.5980
42
-0.0252
0
VERTEX
8
0
10
2.2859
20
6.5168
42
-0.0102
0
VERTEX
8
0
10
1.8873
20
6.4596
42
0.0044
0
VERTEX
8
0
10
1.4886
20
6.4031
42
0.1111
0
VERTEX
8
0
10
1.3108
20
6.4214
42
0.0900
0
VERTEX
8
0
10
1.1384
20
6.3732
42
0.0441
0
VERTEX
8
0
10
1.1006
20
6.3490
42
0.1316
0
VERTEX
8
0
10
1.0747
20
6.3133
42
0.4596
0
VERTEX
8
0
10
1.1021
20
6.2824
42
0.0761
0
VERTEX
8
0
10
1.1463
20
6.2741
42
0.0473
0
VERTEX
8
0
10
1.2362
20
6.2751
42
0.0057
0
VERTEX
8
0
10
1.2587
20
6.2771
42
0.0025
0
VERTEX
8
0
10
1.2696
20
6.2783
0
VERTEX
8
0
10
1.2776
20
6.2791
0
VERTEX
8
0
10
1.2800
20
6.2795
42
0.0057
0
VERTEX
8
0
10
1.2569
20
6.2771
0
VERTEX
8
0
10
1.2469
20
6.2760
0
VERTEX
8
0
10
1.2462
20
6.2759
0
VERTEX
8
0
10
1.2484
20
6.2761
42
0.0062
0
VERTEX
8
0
10
1.2825
20
6.2797
42
0.0518
0
VERTEX
8
0
10
1.6218
20
6.2827
42
0.0122
0
VERTEX
8
0
10
1.9594
20
6.3201
42
-0.0272
0
VERTEX
8
0
10
2.2983
20
6.3387
42
-0.0676
0
VERTEX
8
0
10
2.6323
20
6.2840
42
-0.0075
0
VERTEX
8
0
10
2.9587
20
6.2517
42
0.0555
0
VERTEX
8
0
10
3.2855
20
6.2644
42
0.1230
0
VERTEX
8
0
10
3.5606
20
6.3228
42
0.1991
0
VERTEX
8
0
10
3.7298
20
6.5433
42
0.1276
0
VERTEX
8
0
10
3.7405
20
6.8255
42
0.0853
0
VERTEX
8
0
10
3.6450
20
7.0916
42
-0.1092
0
VERTEX
8
0
10
3.6692
20
7.3204
42
-0.0508
0
VERTEX
8
0
10
3.7548
20
7.5351
42
-0.0162
0
VERTEX
8
0
10
3.8632
20
7.7396
42
0.0346
0
VERTEX
8
0
10
3.9594
20
7.9498
42
0.0128
0
VERTEX
8
0
10
3.9625
20
7.9633
42
0.0082
0
VERTEX
8
0
10
3.9484
20
7.9770
0
SEQEND
8
0
0
POLYLINE
8
Layer 1
66
1
0
VERTEX
8
0
10
4.3186
20
8.5551
42
-0.2250
0
VERTEX
8
0
10
4.2865
20
8.5338
42
-0.0742
0
VERTEX
8
0
10
4.2100
20
8.5181
42
-0.0427
0
VERTEX
8
0
10
4.0537
20
8.5138
42
-0.0188
0
VERTEX
8
0
10
3.9757
20
8.5200
42
-0.0225
0
VERTEX
8
0
10
3.9350
20
8.5271
0
VERTEX
8
0
10
3.9349
20
8.5272
42
-0.0029
0
VERTEX
8
0
10
3.9416
20
8.5257
0
VERTEX
8
0
10
3.9470
20
8.5245
0
VERTEX
8
0
10
3.9467
20
8.5246
0
VERTEX
8
0
10
3.9446
20
8.5250
42
-0.0156
0
VERTEX
8
0
10
3.9281
20
8.5289
42
-0.0409
0
VERTEX
8
0
10
3.7899
20
8.5576
42
-0.0671
0
VERTEX
8
0
10
3.7268
20
8.5888
42
-0.2688
0
VERTEX
8
0
10
3.7020
20
8.6499
42
-0.2076
0
VERTEX
8
0
10
3.7478
20
8.7022
42
-0.0665
0
VERTEX
8
0
10
3.8108
20
8.7336
42
-0.0849
0
VERTEX
8
0
10
3.9491
20
8.7594
42
-0.0876
0
VERTEX
8
0
10
4.0730
20
8.7397
42
-0.1346
0
VERTEX
8
0
10
4.1738
20
8.6666
42
-0.0603
0
VERTEX
8
0
10
4.3095
20
8.5902
42
-0.2520
0
VERTEX
8
0
10
4.3186
20
8.5551
0
SEQEND
8
0
0
POLYLINE
8
Layer 1
66
1
0
VERTEX
8
0
10
4.8271
20
8.3534
42
-0.2215
0
VERTEX
8
0
10
4.8600
20
8.4047
42
-0.0932
0
VERTEX
8
0
10
4.9158
20
8.4323
42
-0.0392
0
VERTEX
8
0
10
4.9767
20
8.4475
42
-0.0065
0
VERTEX
8
0
10
4.9930
20
8.4503
42
-0.0033
0
VERTEX
8
0
10
4.9992
20
8.4513
42
-0.0077
0
VERTEX
8
0
10
4.9871
20
8.4493
0
VERTEX
8
0
10
4.9772
20
8.4476
42
-0.0925
0
VERTEX
8
0
10
4.9861
20
8.4492
42
-0.0071
0
VERTEX
8
0
10
5.0068
20
8.4524
42
-0.1375
0
VERTEX
8
0
10
5.1228
20
8.4274
42
-0.0391
0
VERTEX
8
0
10
5.2305
20
8.3755
42
-0.0517
0
VERTEX
8
0
10
5.4254
20
8.2374
42
-0.0381
0
VERTEX
8
0
10
5.5085
20
8.1516
42
-0.0943
0
VERTEX
8
0
10
5.5640
20
8.0470
42
-0.3526
0
VERTEX
8
0
10
5.5119
20
7.9499
42
-0.0720
0
VERTEX
8
0
10
5.4554
20
7.9310
42
-0.0196
0
VERTEX
8
0
10
5.4260
20
7.9257
42
-0.0025
0
VERTEX
8
0
10
5.4168
20
7.9245
0
VERTEX
8
0
10
5.4166
20
7.9245
0
VERTEX
8
0
10
5.4200
20
7.9249
0
VERTEX
8
0
10
5.4212
20
7.9251
0
VERTEX
8
0
10
5.4084
20
7.9236
42
-0.0566
0
VERTEX
8
0
10
5.2912
20
7.9669
42
-0.0200
0
VERTEX
8
0
10
5.1791
20
8.0225
42
-0.0372
0
VERTEX
8
0
10
4.9686
20
8.1577
42
-0.0407
0
VERTEX
8
0
10
4.8766
20
8.2423
42
-0.0511
0
VERTEX
8
0
10
4.8406
20
8.2934
42
-0.1298
0
VERTEX
8
0
10
4.8271
20
8.3534
0
SEQEND
8
0
0
POLYLINE
8
Layer 1
66
1
0
VERTEX
8
0
10
4.5858
20
8.4365
42
-0.0774
0
VERTEX
8
0
10
4.6830
20
8.3320
42
-0.1105
0
VERTEX
8
0
10
4.7064
20
8.2652
42
-0.3864
0
VERTEX
8
0
10
4.6607
20
8.2177
42
-0.1005
0
VERTEX
8
0
10
4.5894
20
8.2155
42
-0.0188
0
VERTEX
8
0
10
4.5539
20
8.2204
42
-0.0024
0
VERTEX
8
0
10
4.5438
20
8.2222
0
VERTEX
8
0
10
4.5443
20
8.2221
0
VERTEX
8
0
10
4.5464
20
8.2217
0
VERTEX
8
0
10
4.5530
20
8.2206
0
VERTEX
8
0
10
4.5581
20
8.2197
0
VERTEX
8
0
10
4.5583
20
8.2196
0
VERTEX
8
0
10
4.5570
20
8.2199
0
VERTEX
8
0
10
4.5401
20
8.2229
42
-0.0745
0
VERTEX
8
0
10
4.3728
20
8.2538
42
-0.1254
0
VERTEX
8
0
10
4.2335
20
8.3482
42
-0.2451
0
VERTEX
8
0
10
4.2242
20
8.4285
42
-0.2205
0
VERTEX
8
0
10
4.2917
20
8.4780
42
-0.1076
0
VERTEX
8
0
10
4.4593
20
8.5012
42
-0.1531
0
VERTEX
8
0
10
4.5858
20
8.4365
0
SEQEND
8
0
0
POLYLINE
8
Layer 1
66
1
0
VERTEX
8
0
10
4.7148
20
8.5975
42
-0.0295
0
VERTEX
8
0
10
4.4018
20
8.6879
42
-0.0551
0
VERTEX
8
0
10
4.1117
20
8.8349
42
0.1485
0
VERTEX
8
0
10
3.9023
20
8.8789
42
0.0922
0
VERTEX
8
0
10
3.6944
20
8.8319
42
0.0502
0
VERTEX
8
0
10
3.6006
20
8.7806
42
0.0851
0
VERTEX
8
0
10
3.5252
20
8.7055
42
0.2250
0
VERTEX
8
0
10
3.5132
20
8.6036
42
0.1939
0
VERTEX
8
0
10
3.5892
20
8.5307
42
0.0631
0
VERTEX
8
0
10
3.6884
20
8.4911
42
0.0297
0
VERTEX
8
0
10
3.7904
20
8.4677
42
-0.0169
0
VERTEX
8
0
10
4.0548
20
8.3211
42
0.0083
0
VERTEX
8
0
10
4.3192
20
8.1744
42
0.0342
0
VERTEX
8
0
10
4.5968
20
8.0556
42
0.0561
0
VERTEX
8
0
10
4.8920
20
7.9934
42
-0.0802
0
VERTEX
8
0
10
5.3659
20
7.8056
42
-0.0665
0
VERTEX
8
0
10
5.5603
20
7.6399
42
-0.0814
0
VERTEX
8
0
10
5.6953
20
7.4234
42
0.0676
0
VERTEX
8
0
10
5.8884
20
7.2012
42
0.0347
0
VERTEX
8
0
10
6.1194
20
7.0177
0
VERTEX
8
0
10
6.3591
20
6.8454
42
-0.0322
0
VERTEX
8
0
10
6.5832
20
6.6536
42
-0.0248
0
VERTEX
8
0
10
6.8772
20
6.4795
42
0.0030
0
VERTEX
8
0
10
7.1670
20
6.2982
42
0.0306
0
VERTEX
8
0
10
7.4709
20
6.1423
42
0.0598
0
VERTEX
8
0
10
7.7991
20
6.0502
42
-0.0145
0
VERTEX
8
0
10
8.1833
20
5.9666
0
VERTEX
8
0
10
8.5662
20
5.8768
42
0.0164
0
VERTEX
8
0
10
8.9526
20
5.8043
42
0.0336
0
VERTEX
8
0
10
9.3444
20
5.7748
42
0.0594
0
VERTEX
8
0
10
9.5852
20
5.7858
42
0.0213
0
VERTEX
8
0
10
9.8234
20
5.8237
42
0.0252
0
VERTEX
8
0
10
10.0572
20
5.8830
42
0.0309
0
VERTEX
8
0
10
10.1694
20
5.9272
42
0.0467
0
VERTEX
8
0
10
10.2205
20
5.9591
42
0.0719
0
VERTEX
8
0
10
10.2405
20
5.9815
42
0.2178
0
VERTEX
8
0
10
10.2438
20
6.0144
42
-0.0669
0
VERTEX
8
0
10
9.1234
20
6.0783
42
-0.0803
0
VERTEX
8
0
10
8.0740
20
6.4715
42
-0.0297
0
VERTEX
8
0
10
7.1894
20
6.9501
42
-0.0605
0
VERTEX
8
0
10
6.4192
20
7.5937
42
0.0172
0
VERTEX
8
0
10
6.1494
20
7.8064
42
0.0029
0
VERTEX
8
0
10
5.8732
20
8.0107
42
-0.0117
0
VERTEX
8
0
10
5.6026
20
8.2225
42
-0.0259
0
VERTEX
8
0
10
5.3510
20
8.4562
42
0.0283
0
VERTEX
8
0
10
5.0342
20
8.5324
0
VERTEX
8
0
10
4.7148
20
8.5975
0
SEQEND
8
0
0
POLYLINE
8
Layer 1
66
1
0
VERTEX
8
0
10
4.9851
20
9.1238
42
0.0108
0
VERTEX
8
0
10
4.7578
20
9.1232
42
0.0374
0
VERTEX
8
0
10
4.5323
20
9.0979
42
0.0667
0
VERTEX
8
0
10
4.4264
20
9.0580
42
0.2271
0
VERTEX
8
0
10
4.3670
20
8.9650
0
VERTEX
8
0
10
4.5589
20
8.8643
42
0.0261
0
VERTEX
8
0
10
4.7573
20
8.7776
42
0.0555
0
VERTEX
8
0
10
4.9677
20
8.7282
42
0.0836
0
VERTEX
8
0
10
5.1827
20
8.7431
42
0.1112
0
VERTEX
8
0
10
5.3566
20
8.7895
42
0.1431
0
VERTEX
8
0
10
5.4834
20
8.9154
42
0.1264
0
VERTEX
8
0
10
5.5013
20
9.0032
42
0.1951
0
VERTEX
8
0
10
5.4601
20
9.0815
42
0.1369
0
VERTEX
8
0
10
5.3786
20
9.1194
42
0.0653
0
VERTEX
8
0
10
5.2903
20
9.1275
42
0.0329
0
VERTEX
8
0
10
5.2124
20
9.1213
42
-0.0204
0
VERTEX
8
0
10
4.9851
20
9.1238
0
SEQEND
8
0
0
POLYLINE
8
Layer 1
66
1
0
VERTEX
8
0
10
4.9695
20
9.2126
42
-0.0413
0
VERTEX
8
0
10
5.4681
20
9.1713
42
-0.0059
0
VERTEX
8
0
10
5.9630
20
9.0950
42
-0.0701
0
VERTEX
8
0
10
7.0847
20
8.7661
42
-0.0501
0
VERTEX
8
0
10
8.1051
20
8.1923
42
-0.0498
0
VERTEX
8
0
10
8.3529
20
8.0154
42
-0.0226
0
VERTEX
8
0
10
8.5763
20
7.8080
42
0.0069
0
VERTEX
8
0
10
8.7973
20
7.5980
42
0.0350
0
VERTEX
8
0
10
9.0384
20
7.4120
42
-0.0777
0
VERTEX
8
0
10
9.2580
20
7.2069
42
-0.0319
0
VERTEX
8
0
10
9.4360
20
6.9637
42
0.0057
0
VERTEX
8
0
10
9.6077
20
6.7159
42
0.0420
0
VERTEX
8
0
10
9.8073
20
6.4906
42
0.1096
0
VERTEX
8
0
10
9.9245
20
6.3460
42
0.0371
0
VERTEX
8
0
10
10.0731
20
6.2320
42
-0.0134
0
VERTEX
8
0
10
10.2232
20
6.1202
42
-0.0458
0
VERTEX
8
0
10
10.2880
20
6.0528
42
-0.1088
0
VERTEX
8
0
10
10.3265
20
5.9680
42
-0.0040
0
VERTEX
8
0
10
10.0969
20
5.8531
42
-0.0202
0
VERTEX
8
0
10
9.8611
20
5.7518
42
-0.0791
0
VERTEX
8
0
10
9.3597
20
5.6524
42
0.0862
0
VERTEX
8
0
10
9.1685
20
5.6296
42
0.0346
0
VERTEX
8
0
10
8.9849
20
5.5692
42
0.0038
0
VERTEX
8
0
10
8.8048
20
5.4989
42
-0.0179
0
VERTEX
8
0
10
8.7130
20
5.4685
42
-0.0567
0
VERTEX
8
0
10
8.6177
20
5.4535
42
0.0957
0
VERTEX
8
0
10
8.7012
20
5.5374
42
0.3629
0
VERTEX
8
0
10
8.6761
20
5.6444
42
0.1197
0
VERTEX
8
0
10
8.5717
20
5.7011
42
0.0468
0
VERTEX
8
0
10
8.4558
20
5.7299
42
0.0684
0
VERTEX
8
0
10
8.2176
20
5.7363
42
0.0535
0
VERTEX
8
0
10
8.1014
20
5.7094
42
0.1189
0
VERTEX
8
0
10
8.0056
20
5.6443
42
-0.0280
0
VERTEX
8
0
10
7.9151
20
5.5828
42
-0.0831
0
VERTEX
8
0
10
7.8638
20
5.5650
42
-0.3294
0
VERTEX
8
0
10
7.8440
20
5.5806
42
-0.1258
0
VERTEX
8
0
10
7.8436
20
5.6078
42
-0.0791
0
VERTEX
8
0
10
7.8753
20
5.7124
0
VERTEX
8
0
10
7.8946
20
5.7637
42
0.0038
0
VERTEX
8
0
10
7.9039
20
5.7894
42
0.0033
0
VERTEX
8
0
10
7.9080
20
5.8012
0
VERTEX
8
0
10
7.9054
20
5.7936
0
VERTEX
8
0
10
7.9054
20
5.7936
0
VERTEX
8
0
10
7.9058
20
5.7947
0
VERTEX
8
0
10
7.9064
20
5.7966
0
VERTEX
8
0
10
7.9086
20
5.8030
42
-0.0954
0
VERTEX
8
0
10
7.7837
20
5.8161
42
-0.0421
0
VERTEX
8
0
10
7.6647
20
5.8575
42
-0.0259
0
VERTEX
8
0
10
7.4376
20
5.9675
42
0.0368
0
VERTEX
8
0
10
7.2049
20
6.0638
42
0.1189
0
VERTEX
8
0
10
7.0805
20
6.0636
42
0.2347
0
VERTEX
8
0
10
6.9958
20
5.9737
42
-0.0213
0
VERTEX
8
0
10
7.0720
20
5.7621
0
VERTEX
8
0
10
7.1428
20
5.5486
42
0.0227
0
VERTEX
8
0
10
7.2263
20
5.3399
42
0.0494
0
VERTEX
8
0
10
7.3420
20
5.1475
42
0.1551
0
VERTEX
8
0
10
7.5026
20
5.0582
42
0.0892
0
VERTEX
8
0
10
7.6883
20
5.0501
42
0.0216
0
VERTEX
8
0
10
7.8734
20
5.0732
42
-0.0319
0
VERTEX
8
0
10
8.0592
20
5.0863
42
0.0080
0
VERTEX
8
0
10
8.5339
20
5.1541
42
0.0190
0
VERTEX
8
0
10
9.0034
20
5.2509
42
0.0310
0
VERTEX
8
0
10
9.4596
20
5.3975
42
0.0431
0
VERTEX
8
0
10
9.8871
20
5.6132
42
-0.0590
0
VERTEX
8
0
10
10.1573
20
5.5893
42
-0.0201
0
VERTEX
8
0
10
10.4225
20
5.5304
42
0.0126
0
VERTEX
8
0
10
10.6881
20
5.4734
42
0.0457
0
VERTEX
8
0
10
10.9586
20
5.4535
42
0.0293
0
VERTEX
8
0
10
11.3117
20
5.5005
42
0.0119
0
VERTEX
8
0
10
11.3552
20
5.5103
42
0.0211
0
VERTEX
8
0
10
11.3765
20
5.5168
42
0.1342
0
VERTEX
8
0
10
11.3854
20
5.5222
42
0.4493
0
VERTEX
8
0
10
11.3788
20
5.5291
42
0.0775
0
VERTEX
8
0
10
11.2896
20
5.5319
42
0.0081
0
VERTEX
8
0
10
11.2000
20
5.5290
0
VERTEX
8
0
10
11.1926
20
5.5287
0
VERTEX
8
0
10
11.1916
20
5.5287
0
VERTEX
8
0
10
11.1941
20
5.5287
0
VERTEX
8
0
10
11.2076
20
5.5292
0
VERTEX
8
0
10
11.2273
20
5.5299
0
VERTEX
8
0
10
11.2469
20
5.5307
0
VERTEX
8
0
10
11.2600
20
5.5312
0
VERTEX
8
0
10
11.2610
20
5.5313
0
VERTEX
8
0
10
11.2524
20
5.5310
42
0.0032
0
VERTEX
8
0
10
11.1900
20
5.5286
42
-0.2408
0
VERTEX
8
0
10
11.2366
20
5.6179
42
-0.1482
0
VERTEX
8
0
10
11.3379
20
5.6443
42
-0.0444
0
VERTEX
8
0
10
11.5486
20
5.6419
0
VERTEX
8
0
10
11.5018
20
5.6615
42
-0.2820
0
VERTEX
8
0
10
11.5617
20
5.7755
42
-0.1953
0
VERTEX
8
0
10
11.6931
20
5.7957
42
-0.1160
0
VERTEX
8
0
10
11.7225
20
5.7794
42
-0.3005
0
VERTEX
8
0
10
11.7272
20
5.7477
42
-0.1937
0
VERTEX
8
0
10
11.6807
20
5.6993
42
-0.0418
0
VERTEX
8
0
10
11.6216
20
5.6655
42
-0.0063
0
VERTEX
8
0
10
11.6042
20
5.6572
0
VERTEX
8
0
10
11.6029
20
5.6567
0
VERTEX
8
0
10
11.6079
20
5.6591
0
VERTEX
8
0
10
11.6255
20
5.6676
0
VERTEX
8
0
10
11.6311
20
5.6703
0
VERTEX
8
0
10
11.6316
20
5.6705
0
VERTEX
8
0
10
11.6305
20
5.6699
42
-0.0053
0
VERTEX
8
0
10
11.6172
20
5.6634
42
-0.0090
0
VERTEX
8
0
10
11.5936
20
5.6524
0
VERTEX
8
0
10
11.5639
20
5.6414
42
0.0305
0
VERTEX
8
0
10
11.6503
20
5.6464
42
0.0938
0
VERTEX
8
0
10
11.7315
20
5.6743
42
0.2249
0
VERTEX
8
0
10
11.7730
20
5.7471
42
0.1097
0
VERTEX
8
0
10
11.7638
20
5.8327
42
-0.1732
0
VERTEX
8
0
10
11.7721
20
5.7282
42
-0.1292
0
VERTEX
8
0
10
11.7224
20
5.6349
42
-0.1675
0
VERTEX
8
0
10
11.5400
20
5.5300
42
-0.0682
0
VERTEX
8
0
10
11.1463
20
5.4369
42
-0.0534
0
VERTEX
8
0
10
10.7412
20
5.4383
42
-0.0338
0
VERTEX
8
0
10
10.3411
20
5.5046
42
-0.0164
0
VERTEX
8
0
10
9.9483
20
5.6060
42
-0.0429
0
VERTEX
8
0
10
9.5364
20
5.3880
42
-0.0338
0
VERTEX
8
0
10
9.0968
20
5.2328
42
-0.0246
0
VERTEX
8
0
10
8.6426
20
5.1269
42
-0.0162
0
VERTEX
8
0
10
8.1816
20
5.0557
42
-0.0099
0
VERTEX
8
0
10
7.6840
20
5.0043
42
-0.0281
0
VERTEX
8
0
10
7.4339
20
5.0059
42
-0.0536
0
VERTEX
8
0
10
7.1885
20
5.0514
42
0.0820
0
VERTEX
8
0
10
7.0802
20
4.9898
42
0.2142
0
VERTEX
8
0
10
7.0331
20
4.8782
42
0.1369
0
VERTEX
8
0
10
7.0721
20
4.7602
42
0.0439
0
VERTEX
8
0
10
7.1419
20
4.6563
42
0.0210
0
VERTEX
8
0
10
7.3027
20
4.4641
42
-0.0158
0
VERTEX
8
0
10
7.3804
20
4.3657
42
-0.0220
0
VERTEX
8
0
10
7.4145
20
4.3131
42
-0.0194
0
VERTEX
8
0
10
7.4291
20
4.2853
42
-0.0216
0
VERTEX
8
0
10
7.4395
20
4.2601
42
-0.0619
0
VERTEX
8
0
10
7.5221
20
3.9940
42
-0.0407
0
VERTEX
8
0
10
7.5525
20
3.7167
42
-0.0197
0
VERTEX
8
0
10
7.5533
20
3.4376
0
VERTEX
8
0
10
7.5466
20
3.1585
42
-0.0553
0
VERTEX
8
0
10
7.5730
20
3.0348
42
-0.1241
0
VERTEX
8
0
10
7.5507
20
2.9119
42
-0.1753
0
VERTEX
8
0
10
7.4582
20
2.8288
42
-0.0859
0
VERTEX
8
0
10
7.3364
20
2.7955
42
-0.0610
0
VERTEX
8
0
10
7.0836
20
2.7913
42
-0.0057
0
VERTEX
8
0
10
6.9573
20
2.8000
42
0.0030
0
VERTEX
8
0
10
6.8941
20
2.8042
42
0.0041
0
VERTEX
8
0
10
6.8624
20
2.8058
42
0.0050
0
VERTEX
8
0
10
6.8352
20
2.8065
42
-0.0381
0
VERTEX
8
0
10
6.2703
20
3.1558
42
-0.0188
0
VERTEX
8
0
10
5.7436
20
3.5610
42
-0.0616
0
VERTEX
8
0
10
5.6409
20
3.6523
42
-0.0314
0
VERTEX
8
0
10
5.5544
20
3.7593
42
-0.0132
0
VERTEX
8
0
10
5.3976
20
3.9855
42
0.0222
0
VERTEX
8
0
10
5.3125
20
4.0937
42
0.0538
0
VERTEX
8
0
10
5.2108
20
4.1860
42
0.2284
0
VERTEX
8
0
10
4.9489
20
4.2252
42
-0.0546
0
VERTEX
8
0
10
4.7120
20
4.6098
42
-0.0261
0
VERTEX
8
0
10
4.5324
20
5.0251
42
0.1406
0
VERTEX
8
0
10
4.2738
20
5.1480
42
0.0463
0
VERTEX
8
0
10
3.9876
20
5.1884
42
-0.0089
0
VERTEX
8
0
10
3.7000
20
5.2196
42
-0.0635
0
VERTEX
8
0
10
3.4232
20
5.3005
42
-0.1559
0
VERTEX
8
0
10
3.2051
20
5.3451
42
-0.0517
0
VERTEX
8
0
10
3.0113
20
5.4596
42
0.0127
0
VERTEX
8
0
10
2.8214
20
5.5807
42
0.0773
0
VERTEX
8
0
10
2.7153
20
5.6163
42
0.2338
0
VERTEX
8
0
10
2.6127
20
5.5759
42
-0.0629
0
VERTEX
8
0
10
2.4986
20
5.5776
42
-0.0249
0
VERTEX
8
0
10
2.3856
20
5.5955
42
-0.0070
0
VERTEX
8
0
10
2.1618
20
5.6426
42
0.0518
0
VERTEX
8
0
10
1.9345
20
5.6622
42
0.0944
0
VERTEX
8
0
10
1.8255
20
5.6308
42
0.1491
0
VERTEX
8
0
10
1.7478
20
5.5487
42
0.1285
0
VERTEX
8
0
10
1.7265
20
5.4148
42
0.1606
0
VERTEX
8
0
10
1.7883
20
5.2943
42
0.0680
0
VERTEX
8
0
10
1.8928
20
5.2056
42
0.0214
0
VERTEX
8
0
10
2.0088
20
5.1320
42
-0.0158
0
VERTEX
8
0
10
2.2397
20
4.9834
42
-0.0480
0
VERTEX
8
0
10
2.3396
20
4.8896
42
-0.0877
0
VERTEX
8
0
10
2.4076
20
4.7712
42
-0.1252
0
VERTEX
8
0
10
2.5039
20
4.6475
42
-0.1034
0
VERTEX
8
0
10
2.5123
20
4.5689
42
-0.0406
0
VERTEX
8
0
10
2.5002
20
4.4903
42
0.0750
0
VERTEX
8
0
10
2.4983
20
4.4113
42
0.1896
0
VERTEX
8
0
10
2.5434
20
4.3478
42
0.0793
0
VERTEX
8
0
10
2.6135
20
4.3106
42
0.0177
0
VERTEX
8
0
10
2.6506
20
4.2975
42
0.0054
0
VERTEX
8
0
10
2.6621
20
4.2940
0
VERTEX
8
0
10
2.6663
20
4.2928
0
VERTEX
8
0
10
2.6662
20
4.2928
0
VERTEX
8
0
10
2.6656
20
4.2930
0
VERTEX
8
0
10
2.6631
20
4.2937
0
VERTEX
8
0
10
2.6563
20
4.2958
0
VERTEX
8
0
10
2.6734
20
4.2907
42
-0.0713
0
VERTEX
8
0
10
2.8131
20
4.1722
42
-0.0426
0
VERTEX
8
0
10
2.9256
20
4.0271
42
-0.0329
0
VERTEX
8
0
10
3.1095
20
3.7093
42
-0.0599
0
VERTEX
8
0
10
3.1790
20
3.5906
42
-0.0882
0
VERTEX
8
0
10
3.2086
20
3.4568
42
-0.2340
0
VERTEX
8
0
10
3.0956
20
3.2160
42
-0.1884
0
VERTEX
8
0
10
2.8387
20
3.1334
42
-0.1477
0
VERTEX
8
0
10
2.5816
20
3.2197
42
0.0468
0
VERTEX
8
0
10
2.2699
20
3.2714
42
-0.0037
0
VERTEX
8
0
10
1.9555
20
3.3071
42
-0.0554
0
VERTEX
8
0
10
1.6510
20
3.3894
42
-0.0994
0
VERTEX
8
0
10
1.3935
20
3.5692
42
-0.0839
0
VERTEX
8
0
10
0.9742
20
3.9420
42
-0.1355
0
VERTEX
8
0
10
0.7686
20
4.4590
0
VERTEX
8
0
10
0.7067
20
4.8970
42
-0.0273
0
VERTEX
8
0
10
0.6757
20
5.3381
42
-0.0618
0
VERTEX
8
0
10
0.7324
20
5.7754
42
-0.0958
0
VERTEX
8
0
10
0.9311
20
6.1674
42
0.1399
0
VERTEX
8
0
10
0.9177
20
6.2756
42
0.1978
0
VERTEX
8
0
10
0.8329
20
6.3438
42
0.0573
0
VERTEX
8
0
10
0.7263
20
6.3746
42
0.0035
0
VERTEX
8
0
10
0.6177
20
6.3973
42
-0.0298
0
VERTEX
8
0
10
0.5111
20
6.4281
42
-0.0737
0
VERTEX
8
0
10
0.4148
20
6.4825
42
-0.2250
0
VERTEX
8
0
10
0.3248
20
6.6775
42
-0.0184
0
VERTEX
8
0
10
0.2345
20
7.3138
42
-0.0523
0
VERTEX
8
0
10
0.2483
20
7.9551
42
-0.1198
0
VERTEX
8
0
10
0.3890
20
8.2503
42
-0.0904
0
VERTEX
8
0
10
0.6378
20
8.4650
42
-0.0437
0
VERTEX
8
0
10
0.9305
20
8.6169
42
-0.0109
0
VERTEX
8
0
10
1.2352
20
8.7431
42
-0.0961
0
VERTEX
8
0
10
2.0506
20
8.9069
42
-0.0868
0
VERTEX
8
0
10
2.8724
20
8.7737
42
-0.0297
0
VERTEX
8
0
10
3.0339
20
8.7221
42
0.0205
0
VERTEX
8
0
10
3.1960
20
8.6723
42
0.0543
0
VERTEX
8
0
10
3.2802
20
8.6640
42
0.1119
0
VERTEX
8
0
10
3.3612
20
8.6863
42
0.1235
0
VERTEX
8
0
10
3.4216
20
8.7448
42
0.0685
0
VERTEX
8
0
10
3.4581
20
8.8196
42
0.0063
0
VERTEX
8
0
10
3.9590
20
8.9628
42
0.0234
0
VERTEX
8
0
10
4.4483
20
9.1409
42
-0.0799
0
VERTEX
8
0
10
4.9695
20
9.2126
0
SEQEND
8
0
0
POLYLINE
8
Layer 1
66
1
0
VERTEX
8
0
10
4.9456
20
9.4378
42
-0.0065
0
VERTEX
8
0
10
5.0235
20
9.4374
42
-0.0262
0
VERTEX
8
0
10
5.5120
20
9.3934
42
0.0063
0
VERTEX
8
0
10
5.9970
20
9.3183
0
VERTEX
8
0
10
5.9970
20
9.3183
42
-0.0634
0
VERTEX
8
0
10
7.1689
20
8.9761
42
-0.0443
0
VERTEX
8
0
10
8.2342
20
8.3783
42
-0.0357
0
VERTEX
8
0
10
8.4828
20
8.2050
42
-0.0185
0
VERTEX
8
0
10
8.7085
20
8.0026
42
0.0097
0
VERTEX
8
0
10
8.9262
20
7.7915
42
0.0531
0
VERTEX
8
0
10
9.1623
20
7.6018
0
VERTEX
8
0
10
9.1666
20
7.5984
42
-0.0535
0
VERTEX
8
0
10
9.4005
20
7.3966
42
-0.0313
0
VERTEX
8
0
10
9.5931
20
7.1546
42
0.0035
0
VERTEX
8
0
10
9.7652
20
6.8973
42
0.0210
0
VERTEX
8
0
10
9.8558
20
6.7719
42
0.0461
0
VERTEX
8
0
10
9.9603
20
6.6579
42
-0.0936
0
VERTEX
8
0
10
10.0105
20
6.5915
42
0.0541
0
VERTEX
8
0
10
10.1125
20
6.4871
42
0.0168
0
VERTEX
8
0
10
10.2295
20
6.3988
42
-0.0512
0
VERTEX
8
0
10
10.4073
20
6.2587
42
-0.1306
0
VERTEX
8
0
10
10.5340
20
6.0655
42
-0.0766
0
VERTEX
8
0
10
10.7468
20
6.1076
42
-0.0632
0
VERTEX
8
0
10
10.8783
20
6.0995
42
-0.0529
0
VERTEX
8
0
10
10.9510
20
6.0847
42
-0.0740
0
VERTEX
8
0
10
11.0667
20
6.0957
42
-0.0424
0
VERTEX
8
0
10
11.1355
20
6.0861
42
-0.1084
0
VERTEX
8
0
10
11.2422
20
6.1425
42
-0.1856
0
VERTEX
8
0
10
11.4516
20
6.1143
42
-0.1350
0
VERTEX
8
0
10
11.6897
20
6.1382
42
-0.1534
0
VERTEX
8
0
10
11.8972
20
6.0306
42
-0.1552
0
VERTEX
8
0
10
11.9751
20
5.9192
42
-0.0126
0
VERTEX
8
0
10
11.9834
20
5.8911
42
0.0044
0
VERTEX
8
0
10
11.9852
20
5.8840
0
VERTEX
8
0
10
11.9855
20
5.8807
0
VERTEX
8
0
10
11.9842
20
5.8842
42
-0.0083
0
VERTEX
8
0
10
11.9800
20
5.8982
42
-0.0159
0
VERTEX
8
0
10
11.9833
20
5.8843
42
-0.1241
0
VERTEX
8
0
10
11.9927
20
5.7015
42
-0.1009
0
VERTEX
8
0
10
11.9190
20
5.5333
42
-0.1505
0
VERTEX
8
0
10
11.6425
20
5.3290
42
-0.0618
0
VERTEX
8
0
10
11.2192
20
5.2194
42
-0.0470
0
VERTEX
8
0
10
10.8022
20
5.2083
42
-0.0309
0
VERTEX
8
0
10
10.3888
20
5.2667
42
-0.0140
0
VERTEX
8
0
10
9.9832
20
5.3665
42
-0.0614
0
VERTEX
8
0
10
9.1261
20
5.0090
42
-0.0319
0
VERTEX
8
0
10
8.2073
20
4.8332
42
-0.0205
0
VERTEX
8
0
10
7.7687
20
4.7829
42
-0.0627
0
VERTEX
8
0
10
7.3243
20
4.7937
42
0.0047
0
VERTEX
8
0
10
7.4778
20
4.6086
42
-0.0315
0
VERTEX
8
0
10
7.5734
20
4.4884
42
-0.0612
0
VERTEX
8
0
10
7.6461
20
4.3532
42
-0.0053
0
VERTEX
8
0
10
7.6504
20
4.3438
42
-0.0367
0
VERTEX
8
0
10
7.6553
20
4.3307
42
-0.0477
0
VERTEX
8
0
10
7.7417
20
4.0570
42
-0.0352
0
VERTEX
8
0
10
7.7796
20
3.7669
42
-0.0179
0
VERTEX
8
0
10
7.7830
20
3.4741
42
0.0064
0
VERTEX
8
0
10
7.7742
20
3.1814
42
-0.0908
0
VERTEX
8
0
10
7.7965
20
2.9718
42
-0.1370
0
VERTEX
8
0
10
7.7307
20
2.7731
42
-0.1191
0
VERTEX
8
0
10
7.5834
20
2.6400
42
-0.0745
0
VERTEX
8
0
10
7.3936
20
2.5780
42
-0.0455
0
VERTEX
8
0
10
7.1140
20
2.5635
42
-0.0099
0
VERTEX
8
0
10
6.9740
20
2.5728
42
0.0287
0
VERTEX
8
0
10
6.8342
20
2.5833
42
-0.1163
0
VERTEX
8
0
10
6.7343
20
2.6081
42
-0.0323
0
VERTEX
8
0
10
6.1497
20
2.9686
42
-0.0119
0
VERTEX
8
0
10
5.6049
20
3.3875
42
-0.0696
0
VERTEX
8
0
10
5.3807
20
3.6142
42
-0.0125
0
VERTEX
8
0
10
5.2901
20
3.7461
42
0.0230
0
VERTEX
8
0
10
5.2009
20
3.8790
42
0.0275
0
VERTEX
8
0
10
5.1448
20
3.9476
42
0.0982
0
VERTEX
8
0
10
5.0790
20
4.0067
42
0.2386
0
VERTEX
8
0
10
5.0492
20
4.0195
42
0.0248
0
VERTEX
8
0
10
5.0173
20
4.0115
42
-0.3113
0
VERTEX
8
0
10
4.7744
20
4.0884
42
-0.0439
0
VERTEX
8
0
10
4.5352
20
4.4680
42
-0.0191
0
VERTEX
8
0
10
4.3527
20
4.8783
42
0.0638
0
VERTEX
8
0
10
4.1754
20
4.9381
42
0.0220
0
VERTEX
8
0
10
3.9893
20
4.9639
42
-0.0255
0
VERTEX
8
0
10
3.6800
20
4.9956
42
-0.0669
0
VERTEX
8
0
10
3.3806
20
5.0767
42
-0.1064
0
VERTEX
8
0
10
3.0908
20
5.1480
42
-0.0294
0
VERTEX
8
0
10
2.9607
20
5.2235
42
0.0044
0
VERTEX
8
0
10
2.8370
20
5.3091
42
0.0382
0
VERTEX
8
0
10
2.7203
20
5.3789
42
-0.0945
0
VERTEX
8
0
10
2.6400
20
5.3541
42
-0.0672
0
VERTEX
8
0
10
2.3650
20
5.3676
42
-0.0110
0
VERTEX
8
0
10
2.2301
20
5.3977
42
0.0242
0
VERTEX
8
0
10
2.0954
20
5.4282
42
0.0645
0
VERTEX
8
0
10
1.9672
20
5.4387
42
0.0423
0
VERTEX
8
0
10
2.0935
20
5.3455
42
-0.0046
0
VERTEX
8
0
10
2.2411
20
5.2606
42
-0.0366
0
VERTEX
8
0
10
2.3828
20
5.1663
42
-0.1290
0
VERTEX
8
0
10
2.5960
20
4.9051
42
-0.0678
0
VERTEX
8
0
10
2.6830
20
4.7941
42
-0.0953
0
VERTEX
8
0
10
2.7332
20
4.6627
42
-0.0853
0
VERTEX
8
0
10
2.7336
20
4.5083
42
-0.0754
0
VERTEX
8
0
10
2.7954
20
4.4815
42
-0.0916
0
VERTEX
8
0
10
3.0965
20
4.1859
42
-0.0225
0
VERTEX
8
0
10
3.2081
20
4.0052
42
0.0028
0
VERTEX
8
0
10
3.3100
20
3.8162
42
-0.0755
0
VERTEX
8
0
10
3.4061
20
3.6259
42
-0.1014
0
VERTEX
8
0
10
3.4342
20
3.4133
42
-0.2010
0
VERTEX
8
0
10
3.2472
20
3.0490
42
-0.1622
0
VERTEX
8
0
10
2.8840
20
2.9121
42
-0.1373
0
VERTEX
8
0
10
2.5056
20
3.0078
42
0.0212
0
VERTEX
8
0
10
2.2168
20
3.0509
42
-0.0164
0
VERTEX
8
0
10
1.9266
20
3.0858
42
-0.0711
0
VERTEX
8
0
10
1.5657
20
3.1858
42
-0.0939
0
VERTEX
8
0
10
1.2558
20
3.3942
42
-0.0997
0
VERTEX
8
0
10
0.7806
20
3.8312
42
-0.1381
0
VERTEX
8
0
10
0.5498
20
4.4221
42
-0.0078
0
VERTEX
8
0
10
0.4850
20
4.8676
42
-0.0351
0
VERTEX
8
0
10
0.4514
20
5.3091
42
-0.0617
0
VERTEX
8
0
10
0.4953
20
5.7489
42
-0.0808
0
VERTEX
8
0
10
0.6571
20
6.1592
42
0.0206
0
VERTEX
8
0
10
0.6151
20
6.1698
42
-0.0426
0
VERTEX
8
0
10
0.4597
20
6.2088
42
-0.0651
0
VERTEX
8
0
10
0.3162
20
6.2793
42
-0.1868
0
VERTEX
8
0
10
0.1143
20
6.6005
42
-0.0323
0
VERTEX
8
0
10
0.0114
20
7.3116
42
-0.0622
0
VERTEX
8
0
10
0.0289
20
7.9896
42
-0.0147
0
VERTEX
8
0
10
0.0313
20
8.0020
42
-0.1116
0
VERTEX
8
0
10
0.2062
20
8.3764
42
-0.0802
0
VERTEX
8
0
10
0.5156
20
8.6527
42
-0.0330
0
VERTEX
8
0
10
0.8265
20
8.8169
0
VERTEX
8
0
10
1.1519
20
8.9517
42
-0.0920
0
VERTEX
8
0
10
2.0372
20
9.1318
42
-0.0840
0
VERTEX
8
0
10
2.9302
20
8.9922
42
-0.0149
0
VERTEX
8
0
10
2.9474
20
8.9870
42
-0.0130
0
VERTEX
8
0
10
3.0979
20
8.9413
0
VERTEX
8
0
10
3.1724
20
8.9160
42
0.0459
0
VERTEX
8
0
10
3.2479
20
8.8932
42
-0.2492
0
VERTEX
8
0
10
3.4017
20
9.0372
42
0.0115
0
VERTEX
8
0
10
3.8872
20
9.1758
42
0.0296
0
VERTEX
8
0
10
4.3618
20
9.3479
42
-0.0272
0
VERTEX
8
0
10
4.3852
20
9.3566
42
-0.0674
0
VERTEX
8
0
10
4.9456
20
9.4378
0
SEQEND
8
0
0
POLYLINE
8
Layer 1
66
1
0
VERTEX
8
0
10
5.5315
20
8.6860
42
-0.1719
0
VERTEX
8
0
10
5.5891
20
8.7342
42
-0.0787
0
VERTEX
8
0
10
5.6647
20
8.7455
42
-0.0600
0
VERTEX
8
0
10
5.8222
20
8.7170
42
-0.0329
0
VERTEX
8
0
10
5.9715
20
8.6584
42
-0.0318
0
VERTEX
8
0
10
6.1123
20
8.5816
42
-0.0799
0
VERTEX
8
0
10
6.2384
20
8.4830
42
-0.1002
0
VERTEX
8
0
10
6.7779
20
8.0493
42
-0.1389
0
VERTEX
8
0
10
7.0723
20
7.4273
42
-0.0071
0
VERTEX
8
0
10
7.0735
20
7.4212
0
VERTEX
8
0
10
7.0730
20
7.4236
0
VERTEX
8
0
10
7.0726
20
7.4257
0
VERTEX
8
0
10
7.0726
20
7.4257
42
-0.0123
0
VERTEX
8
0
10
7.0742
20
7.4169
42
-0.0340
0
VERTEX
8
0
10
7.0759
20
7.3992
42
-0.1920
0
VERTEX
8
0
10
7.0679
20
7.3653
42
-0.2068
0
VERTEX
8
0
10
7.0371
20
7.3505
42
-0.0704
0
VERTEX
8
0
10
7.0022
20
7.3560
42
-0.0579
0
VERTEX
8
0
10
6.9383
20
7.3864
42
-0.1082
0
VERTEX
8
0
10
6.8835
20
7.4311
42
0.0315
0
VERTEX
8
0
10
6.5690
20
7.7352
42
0.0142
0
VERTEX
8
0
10
6.2248
20
8.0054
42
-0.0033
0
VERTEX
8
0
10
5.8717
20
8.2641
42
-0.0209
0
VERTEX
8
0
10
5.5284
20
8.5356
42
-0.0650
0
VERTEX
8
0
10
5.5164
20
8.6116
42
-0.1495
0
VERTEX
8
0
10
5.5315
20
8.6860
0
SEQEND
8
0
0
POLYLINE
8
Layer 1
66
1
0
VERTEX
8
0
10
5.9022
20
8.8832
42
-0.2599
0
VERTEX
8
0
10
5.9178
20
8.9297
42
-0.0902
0
VERTEX
8
0
10
5.9633
20
8.9533
42
-0.0606
0
VERTEX
8
0
10
6.0654
20
8.9669
42
-0.1088
0
VERTEX
8
0
10
6.2843
20
8.9267
42
-0.0043
0
VERTEX
8
0
10
6.2960
20
8.9257
42
-0.0063
0
VERTEX
8
0
10
6.3150
20
8.9238
42
-0.0074
0
VERTEX
8
0
10
6.3499
20
8.9190
42
-0.0104
0
VERTEX
8
0
10
6.4198
20
8.9067
42
-0.0157
0
VERTEX
8
0
10
6.5582
20
8.8745
42
-0.0416
0
VERTEX
8
0
10
6.8268
20
8.7830
42
-0.0433
0
VERTEX
8
0
10
6.9528
20
8.7176
42
-0.1353
0
VERTEX
8
0
10
7.0572
20
8.6228
42
-0.3011
0
VERTEX
8
0
10
7.0537
20
8.4901
42
-0.0840
0
VERTEX
8
0
10
6.9456
20
8.3993
42
-0.1675
0
VERTEX
8
0
10
6.7021
20
8.3819
42
-0.0643
0
VERTEX
8
0
10
6.4801
20
8.4924
42
0.0136
0
VERTEX
8
0
10
6.2758
20
8.6352
42
0.1069
0
VERTEX
8
0
10
6.0520
20
8.7417
42
-0.0033
0
VERTEX
8
0
10
6.0379
20
8.7503
42
-0.0031
0
VERTEX
8
0
10
6.0269
20
8.7572
42
-0.0079
0
VERTEX
8
0
10
6.0054
20
8.7715
42
-0.0245
0
VERTEX
8
0
10
5.9641
20
8.8025
42
-0.0490
0
VERTEX
8
0
10
5.9271
20
8.8384
42
-0.1482
0
VERTEX
8
0
10
5.9022
20
8.8832
0
SEQEND
8
0
0
POLYLINE
8
Layer 1
66
1
0
VERTEX
8
0
10
5.7632
20
7.9016
42
0.0097
0
VERTEX
8
0
10
5.9295
20
7.7931
42
-0.0204
0
VERTEX
8
0
10
6.0906
20
7.6773
42
-0.0540
0
VERTEX
8
0
10
6.2299
20
7.5365
42
-0.1171
0
VERTEX
8
0
10
6.3073
20
7.3560
42
-0.2433
0
VERTEX
8
0
10
6.2475
20
7.1966
42
-0.3322
0
VERTEX
8
0
10
6.0816
20
7.1892
42
-0.0825
0
VERTEX
8
0
10
5.7787
20
7.4994
42
-0.0989
0
VERTEX
8
0
10
5.6996
20
7.7004
42
-0.2095
0
VERTEX
8
0
10
5.7632
20
7.9016
0
SEQEND
8
0
0
POLYLINE
8
Layer 1
66
1
0
VERTEX
8
0
10
6.4618
20
7.2130
42
0.2098
0
VERTEX
8
0
10
6.4114
20
7.1079
42
0.1010
0
VERTEX
8
0
10
6.4392
20
6.9920
42
0.0516
0
VERTEX
8
0
10
6.5030
20
6.8903
42
0.0728
0
VERTEX
8
0
10
6.6777
20
6.7263
42
0.0475
0
VERTEX
8
0
10
6.7817
20
6.6661
42
0.0885
0
VERTEX
8
0
10
6.8964
20
6.6316
42
0.0743
0
VERTEX
8
0
10
6.9513
20
6.6390
42
0.1666
0
VERTEX
8
0
10
6.9986
20
6.6674
42
0.1523
0
VERTEX
8
0
10
7.0169
20
6.7192
42
0.0684
0
VERTEX
8
0
10
7.0090
20
6.7745
42
0.0700
0
VERTEX
8
0
10
6.9000
20
6.9692
42
0.0416
0
VERTEX
8
0
10
6.7498
20
7.1353
42
0.0305
0
VERTEX
8
0
10
6.6642
20
7.2077
42
0.1022
0
VERTEX
8
0
10
6.5674
20
7.2633
42
0.1329
0
VERTEX
8
0
10
6.4618
20
7.2130
0
SEQEND
8
0
0
POLYLINE
8
Layer 1
66
1
0
VERTEX
8
0
10
7.2483
20
7.5047
42
0.0352
0
VERTEX
8
0
10
7.1335
20
7.7447
42
-0.2290
0
VERTEX
8
0
10
6.9883
20
8.0230
42
-0.1577
0
VERTEX
8
0
10
7.0254
20
8.1787
42
-0.2808
0
VERTEX
8
0
10
7.1584
20
8.2578
42
-0.1237
0
VERTEX
8
0
10
7.2843
20
8.2125
42
-0.0539
0
VERTEX
8
0
10
7.3850
20
8.1220
42
0.0214
0
VERTEX
8
0
10
7.8823
20
7.6473
42
0.0365
0
VERTEX
8
0
10
8.4269
20
7.2284
42
-0.0421
0
VERTEX
8
0
10
8.7458
20
6.7660
42
-0.0175
0
VERTEX
8
0
10
9.0002
20
6.2644
42
-0.4939
0
VERTEX
8
0
10
8.9726
20
6.2201
42
-0.1124
0
VERTEX
8
0
10
8.9103
20
6.2305
42
0.0067
0
VERTEX
8
0
10
8.3346
20
6.5876
42
0.0340
0
VERTEX
8
0
10
7.7379
20
6.9075
42
-0.1119
0
VERTEX
8
0
10
7.5144
20
7.0476
42
-0.0645
0
VERTEX
8
0
10
7.3603
20
7.2634
42
-0.0126
0
VERTEX
8
0
10
7.2483
20
7.5047
0
SEQEND
8
0
0
POLYLINE
8
Layer 1
66
1
0
VERTEX
8
0
10
7.7727
20
7.9860
42
0.0544
0
VERTEX
8
0
10
7.5309
20
8.2219
42
-0.0584
0
VERTEX
8
0
10
7.4137
20
8.3367
42
-0.1861
0
VERTEX
8
0
10
7.3751
20
8.4084
42
-0.3101
0
VERTEX
8
0
10
7.3913
20
8.4434
42
-0.0974
0
VERTEX
8
0
10
7.4309
20
8.4529
42
-0.0853
0
VERTEX
8
0
10
7.6412
20
8.3980
42
-0.0948
0
VERTEX
8
0
10
7.8240
20
8.2793
42
0.0198
0
VERTEX
8
0
10
8.0648
20
8.1130
42
-0.0241
0
VERTEX
8
0
10
8.3087
20
7.9511
42
-0.0927
0
VERTEX
8
0
10
8.5206
20
7.7504
42
-0.2066
0
VERTEX
8
0
10
8.5976
20
7.4756
42
-0.1518
0
VERTEX
8
0
10
8.2703
20
7.5331
42
-0.0618
0
VERTEX
8
0
10
8.0031
20
7.7384
42
-0.0056
0
VERTEX
8
0
10
7.7727
20
7.9860
0
SEQEND
8
0
0
POLYLINE
8
Layer 1
66
1
0
VERTEX
8
0
10
8.7527
20
7.3771
42
-0.1384
0
VERTEX
8
0
10
8.8567
20
7.4058
42
-0.2446
0
VERTEX
8
0
10
9.2168
20
7.1849
42
0.0350
0
VERTEX
8
0
10
9.6297
20
6.6225
42
0.0119
0
VERTEX
8
0
10
10.1018
20
6.1081
0
VERTEX
8
0
10
10.0545
20
6.0985
0
VERTEX
8
0
10
9.9493
20
6.0961
42
-0.1069
0
VERTEX
8
0
10
9.5534
20
6.1756
42
-0.0812
0
VERTEX
8
0
10
9.2177
20
6.4021
42
-0.0562
0
VERTEX
8
0
10
8.9594
20
6.7154
42
-0.0450
0
VERTEX
8
0
10
8.7707
20
7.0754
42
-0.0487
0
VERTEX
8
0
10
8.7240
20
7.1750
42
-0.1149
0
VERTEX
8
0
10
8.7051
20
7.2824
42
-0.2416
0
VERTEX
8
0
10
8.7527
20
7.3771
0
SEQEND
8
0
0
POLYLINE
8
Layer 1
66
1
0
VERTEX
8
0
10
8.1979
20
6.2851
42
0.1481
0
VERTEX
8
0
10
8.1080
20
6.3122
42
0.2677
0
VERTEX
8
0
10
8.0838
20
6.3039
42
0.1603
0
VERTEX
8
0
10
8.0785
20
6.2859
42
0.0793
0
VERTEX
8
0
10
8.0894
20
6.2491
42
0.0458
0
VERTEX
8
0
10
8.1317
20
6.1845
42
0.0488
0
VERTEX
8
0
10
8.2404
20
6.0748
42
0.0658
0
VERTEX
8
0
10
8.3691
20
5.9897
42
0.0591
0
VERTEX
8
0
10
8.4415
20
5.9629
42
0.1094
0
VERTEX
8
0
10
8.5182
20
5.9584
42
0.0097
0
VERTEX
8
0
10
8.5868
20
5.9568
42
0.0108
0
VERTEX
8
0
10
8.6072
20
5.9567
0
VERTEX
8
0
10
8.6033
20
5.9570
0
VERTEX
8
0
10
8.5844
20
5.9573
0
VERTEX
8
0
10
8.5363
20
5.9581
42
0.0169
0
VERTEX
8
0
10
8.5249
20
5.9582
0
VERTEX
8
0
10
8.5296
20
5.9580
42
0.0225
0
VERTEX
8
0
10
8.6334
20
5.9575
42
0.0387
0
VERTEX
8
0
10
8.6842
20
5.9621
42
0.0762
0
VERTEX
8
0
10
8.7087
20
5.9687
42
0.4845
0
VERTEX
8
0
10
8.7202
20
5.9882
42
0.0821
0
VERTEX
8
0
10
8.6821
20
6.0213
42
0.0163
0
VERTEX
8
0
10
8.6375
20
6.0460
0
VERTEX
8
0
10
8.4529
20
6.1332
42
-0.0205
0
VERTEX
8
0
10
8.3620
20
6.1796
42
-0.0287
0
VERTEX
8
0
10
8.3187
20
6.2065
42
-0.1152
0
VERTEX
8
0
10
8.2815
20
6.2410
42
0.0263
0
VERTEX
8
0
10
8.1979
20
6.2851
0
SEQEND
8
0
0
POLYLINE
8
Layer 1
66
1
0
VERTEX
8
0
10
7.9146
20
6.2472
42
0.1192
0
VERTEX
8
0
10
7.9003
20
6.3033
42
0.0528
0
VERTEX
8
0
10
7.8662
20
6.3507
42
0.0493
0
VERTEX
8
0
10
7.6824
20
6.4949
42
0.0096
0
VERTEX
8
0
10
7.4803
20
6.6134
42
-0.0059
0
VERTEX
8
0
10
7.3784
20
6.6712
42
-0.0516
0
VERTEX
8
0
10
7.2803
20
6.7349
42
0.1396
0
VERTEX
8
0
10
7.2140
20
6.6485
42
0.1753
0
VERTEX
8
0
10
7.2136
20
6.5394
42
0.0837
0
VERTEX
8
0
10
7.2730
20
6.4456
42
0.0417
0
VERTEX
8
0
10
7.3554
20
6.3706
42
0.0977
0
VERTEX
8
0
10
7.7532
20
6.1726
0
VERTEX
8
0
10
7.8459
20
6.1573
42
0.0930
0
VERTEX
8
0
10
7.8920
20
6.1944
42
0.1768
0
VERTEX
8
0
10
7.9146
20
6.2472
0
SEQEND
8
0
0
POLYLINE
8
Layer 1
66
1
0
VERTEX
8
0
10
8.8161
20
6.0323
42
0.2386
0
VERTEX
8
0
10
8.8190
20
6.0058
42
0.0477
0
VERTEX
8
0
10
8.8378
20
5.9843
42
0.0361
0
VERTEX
8
0
10
8.9308
20
5.9178
42
0.0852
0
VERTEX
8
0
10
9.1047
20
5.8827
0
VERTEX
8
0
10
9.2832
20
5.8867
42
0.2162
0
VERTEX
8
0
10
9.2761
20
5.9148
42
0.0563
0
VERTEX
8
0
10
9.2549
20
5.9341
42
0.0375
0
VERTEX
8
0
10
9.2049
20
5.9626
42
0.0317
0
VERTEX
8
0
10
9.0973
20
6.0034
42
0.0261
0
VERTEX
8
0
10
8.9857
20
6.0320
42
0.0608
0
VERTEX
8
0
10
8.8716
20
6.0459
42
0.0503
0
VERTEX
8
0
10
8.8417
20
6.0438
42
0.2420
0
VERTEX
8
0
10
8.8161
20
6.0323
0
SEQEND
8
0
0
POLYLINE
8
Layer 1
66
1
0
VERTEX
8
0
10
9.3715
20
5.9427
42
0.1205
0
VERTEX
8
0
10
9.3812
20
5.9236
42
0.0529
0
VERTEX
8
0
10
9.4511
20
5.8719
0
VERTEX
8
0
10
9.4993
20
5.8590
0
VERTEX
8
0
10
9.5682
20
5.8532
42
0.0040
0
VERTEX
8
0
10
9.5944
20
5.8546
42
0.0063
0
VERTEX
8
0
10
9.6080
20
5.8554
0
VERTEX
8
0
10
9.6080
20
5.8554
0
VERTEX
8
0
10
9.5988
20
5.8549
0
VERTEX
8
0
10
9.5761
20
5.8537
42
0.0025
0
VERTEX
8
0
10
9.5690
20
5.8533
0
VERTEX
8
0
10
9.5690
20
5.8533
42
0.0027
0
VERTEX
8
0
10
9.5885
20
5.8542
42
0.0200
0
VERTEX
8
0
10
9.6570
20
5.8600
42
0.1220
0
VERTEX
8
0
10
9.7235
20
5.8756
42
0.5579
0
VERTEX
8
0
10
9.7273
20
5.9021
42
0.0544
0
VERTEX
8
0
10
9.6974
20
5.9187
42
0.1089
0
VERTEX
8
0
10
9.4286
20
5.9670
42
0.1314
0
VERTEX
8
0
10
9.3839
20
5.9590
42
0.3644
0
VERTEX
8
0
10
9.3715
20
5.9427
0
SEQEND
8
0
0
POLYLINE
8
Layer 1
66
1
0
VERTEX
8
0
10
9.8266
20
5.9285
42
0.0823
0
VERTEX
8
0
10
9.8646
20
5.8972
0
VERTEX
8
0
10
9.9268
20
5.8819
0
VERTEX
8
0
10
9.9370
20
5.8840
0
VERTEX
8
0
10
9.9415
20
5.8849
42
0.0022
0
VERTEX
8
0
10
9.9508
20
5.8868
42
0.0039
0
VERTEX
8
0
10
9.9692
20
5.8909
42
0.0122
0
VERTEX
8
0
10
10.0058
20
5.9002
42
0.0282
0
VERTEX
8
0
10
10.0417
20
5.9118
42
0.1605
0
VERTEX
8
0
10
10.0743
20
5.9302
42
0.4202
0
VERTEX
8
0
10
10.0743
20
5.9468
42
0.0763
0
VERTEX
8
0
10
10.0581
20
5.9561
42
0.0391
0
VERTEX
8
0
10
10.0215
20
5.9654
42
0.0354
0
VERTEX
8
0
10
9.9464
20
5.9718
42
0.0043
0
VERTEX
8
0
10
9.9376
20
5.9719
42
0.0060
0
VERTEX
8
0
10
9.9252
20
5.9717
42
0.0142
0
VERTEX
8
0
10
9.9004
20
5.9704
42
0.0657
0
VERTEX
8
0
10
9.8516
20
5.9619
42
0.1367
0
VERTEX
8
0
10
9.8295
20
5.9509
42
0.3451
0
VERTEX
8
0
10
9.8266
20
5.9285
0
SEQEND
8
0
0
POLYLINE
8
Layer 1
66
1
0
VERTEX
8
0
10
9.9320
20
5.7433
42
0.1792
0
VERTEX
8
0
10
9.9120
20
5.7242
42
0.2883
0
VERTEX
8
0
10
9.9190
20
5.6994
42
0.0726
0
VERTEX
8
0
10
9.9692
20
5.6754
42
0.0304
0
VERTEX
8
0
10
10.0789
20
5.6524
0
VERTEX
8
0
10
10.0932
20
5.6371
42
0.0026
0
VERTEX
8
0
10
10.1048
20
5.6438
0
VERTEX
8
0
10
10.1126
20
5.6483
42
0.0045
0
VERTEX
8
0
10
10.1280
20
5.6577
42
0.0124
0
VERTEX
8
0
10
10.1583
20
5.6773
42
0.0773
0
VERTEX
8
0
10
10.2137
20
5.7233
42
0.6092
0
VERTEX
8
0
10
10.2084
20
5.7804
42
0.0711
0
VERTEX
8
0
10
10.1372
20
5.7896
42
0.0037
0
VERTEX
8
0
10
10.1297
20
5.7895
0
VERTEX
8
0
10
10.1343
20
5.7896
0
VERTEX
8
0
10
10.1371
20
5.7896
0
VERTEX
8
0
10
10.1371
20
5.7896
42
0.0078
0
VERTEX
8
0
10
10.1212
20
5.7892
42
0.0124
0
VERTEX
8
0
10
10.0932
20
5.7871
42
0.0234
0
VERTEX
8
0
10
10.0378
20
5.7788
42
0.1156
0
VERTEX
8
0
10
9.9320
20
5.7433
0
SEQEND
8
0
0
POLYLINE
8
Layer 1
66
1
0
VERTEX
8
0
10
10.2022
20
5.6199
0
VERTEX
8
0
10
10.2529
20
5.6103
0
VERTEX
8
0
10
10.3547
20
5.6065
42
0.0032
0
VERTEX
8
0
10
10.3673
20
5.6071
0
VERTEX
8
0
10
10.3731
20
5.6074
42
0.0024
0
VERTEX
8
0
10
10.3851
20
5.6082
42
0.0070
0
VERTEX
8
0
10
10.4088
20
5.6101
42
0.0193
0
VERTEX
8
0
10
10.4562
20
5.6161
42
0.1486
0
VERTEX
8
0
10
10.5461
20
5.6457
42
0.4397
0
VERTEX
8
0
10
10.5615
20
5.6861
42
0.1251
0
VERTEX
8
0
10
10.5254
20
5.7160
42
0.0940
0
VERTEX
8
0
10
10.4327
20
5.7356
42
0.2574
0
VERTEX
8
0
10
10.2022
20
5.6199
0
SEQEND
8
0
0
POLYLINE
8
Layer 1
66
1
0
VERTEX
8
0
10
10.2472
20
5.8102
0
VERTEX
8
0
10
10.2954
20
5.7963
42
0.0051
0
VERTEX
8
0
10
10.3057
20
5.7955
0
VERTEX
8
0
10
10.2996
20
5.7960
0
VERTEX
8
0
10
10.2968
20
5.7962
0
VERTEX
8
0
10
10.2968
20
5.7962
42
0.0027
0
VERTEX
8
0
10
10.3103
20
5.7951
42
0.0041
0
VERTEX
8
0
10
10.3343
20
5.7934
42
0.0153
0
VERTEX
8
0
10
10.3826
20
5.7918
42
0.0368
0
VERTEX
8
0
10
10.4307
20
5.7942
42
0.0521
0
VERTEX
8
0
10
10.4543
20
5.7990
42
0.3084
0
VERTEX
8
0
10
10.4736
20
5.8123
42
0.2069
0
VERTEX
8
0
10
10.4647
20
5.8332
42
0.0478
0
VERTEX
8
0
10
10.4452
20
5.8474
42
0.0431
0
VERTEX
8
0
10
10.4013
20
5.8673
42
0.1023
0
VERTEX
8
0
10
10.3069
20
5.8848
42
0.2614
0
VERTEX
8
0
10
10.2523
20
5.8664
42
0.2061
0
VERTEX
8
0
10
10.2472
20
5.8102
0
SEQEND
8
0
0
POLYLINE
8
Layer 1
66
1
0
VERTEX
8
0
10
10.5584
20
5.8121
42
0.2115
0
VERTEX
8
0
10
10.5638
20
5.7736
42
0.0680
0
VERTEX
8
0
10
10.5914
20
5.7442
42
0.1850
0
VERTEX
8
0
10
10.6282
20
5.7280
42
0.0702
0
VERTEX
8
0
10
10.6687
20
5.7342
42
-0.0382
0
VERTEX
8
0
10
10.7458
20
5.7634
42
0.0032
0
VERTEX
8
0
10
10.7590
20
5.7686
0
VERTEX
8
0
10
10.7668
20
5.7719
42
0.0056
0
VERTEX
8
0
10
10.7825
20
5.7787
42
0.0149
0
VERTEX
8
0
10
10.8132
20
5.7932
42
0.1215
0
VERTEX
8
0
10
10.8694
20
5.8311
42
0.4743
0
VERTEX
8
0
10
10.8743
20
5.8613
42
0.1041
0
VERTEX
8
0
10
10.8441
20
5.8761
42
0.0493
0
VERTEX
8
0
10
10.7765
20
5.8829
42
0.0024
0
VERTEX
8
0
10
10.7712
20
5.8829
42
0.0050
0
VERTEX
8
0
10
10.7612
20
5.8827
42
0.0102
0
VERTEX
8
0
10
10.7410
20
5.8816
42
0.0193
0
VERTEX
8
0
10
10.7007
20
5.8773
42
0.0565
0
VERTEX
8
0
10
10.6221
20
5.8586
42
0.0627
0
VERTEX
8
0
10
10.5857
20
5.8412
42
0.1873
0
VERTEX
8
0
10
10.5584
20
5.8121
0
SEQEND
8
0
0
POLYLINE
8
Layer 1
66
1
0
VERTEX
8
0
10
10.6297
20
5.6524
0
VERTEX
8
0
10
10.6765
20
5.6414
0
VERTEX
8
0
10
10.7750
20
5.6371
42
0.0036
0
VERTEX
8
0
10
10.7900
20
5.6367
42
0.0024
0
VERTEX
8
0
10
10.8012
20
5.6365
42
0.0076
0
VERTEX
8
0
10
10.8235
20
5.6365
42
0.0224
0
VERTEX
8
0
10
10.8681
20
5.6388
42
0.0480
0
VERTEX
8
0
10
10.9122
20
5.6463
42
0.2655
0
VERTEX
8
0
10
10.9500
20
5.6680
42
0.2647
0
VERTEX
8
0
10
10.9344
20
5.7057
42
0.0645
0
VERTEX
8
0
10
10.8951
20
5.7265
42
0.0836
0
VERTEX
8
0
10
10.8075
20
5.7423
42
0.2793
0
VERTEX
8
0
10
10.6297
20
5.6524
0
SEQEND
8
0
0
POLYLINE
8
Layer 1
66
1
0
VERTEX
8
0
10
10.5818
20
5.6108
42
-0.0933
0
VERTEX
8
0
10
10.6837
20
5.5948
42
-0.0387
0
VERTEX
8
0
10
10.7318
20
5.5756
42
-0.0419
0
VERTEX
8
0
10
10.7536
20
5.5618
42
-0.1983
0
VERTEX
8
0
10
10.7653
20
5.5403
42
-0.3395
0
VERTEX
8
0
10
10.7445
20
5.5263
42
-0.0482
0
VERTEX
8
0
10
10.7192
20
5.5213
42
-0.0343
0
VERTEX
8
0
10
10.6675
20
5.5184
42
-0.0147
0
VERTEX
8
0
10
10.6157
20
5.5195
42
-0.0048
0
VERTEX
8
0
10
10.5899
20
5.5209
0
VERTEX
8
0
10
10.5769
20
5.5217
0
VERTEX
8
0
10
10.5768
20
5.5217
0
VERTEX
8
0
10
10.5849
20
5.5212
0
VERTEX
8
0
10
10.5847
20
5.5212
0
VERTEX
8
0
10
10.5835
20
5.5213
0
VERTEX
8
0
10
10.5799
20
5.5215
0
VERTEX
8
0
10
10.5747
20
5.5219
0
VERTEX
8
0
10
10.5226
20
5.5343
42
-0.2210
0
VERTEX
8
0
10
10.5252
20
5.5921
42
-0.2581
0
VERTEX
8
0
10
10.5818
20
5.6108
0
SEQEND
8
0
0
POLYLINE
8
Layer 1
66
1
0
VERTEX
8
0
10
10.8243
20
5.5324
0
VERTEX
8
0
10
10.8534
20
5.5185
0
VERTEX
8
0
10
10.9008
20
5.5166
42
0.0042
0
VERTEX
8
0
10
10.9164
20
5.5139
42
0.0034
0
VERTEX
8
0
10
10.9282
20
5.5121
42
0.0088
0
VERTEX
8
0
10
10.9517
20
5.5090
42
0.0224
0
VERTEX
8
0
10
10.9992
20
5.5053
42
0.1814
0
VERTEX
8
0
10
11.0920
20
5.5203
42
0.3752
0
VERTEX
8
0
10
11.1117
20
5.5594
42
0.1420
0
VERTEX
8
0
10
11.0830
20
5.5962
42
0.1438
0
VERTEX
8
0
10
10.9935
20
5.6242
42
0.1316
0
VERTEX
8
0
10
10.8980
20
5.5990
42
0.0935
0
VERTEX
8
0
10
10.8243
20
5.5324
0
SEQEND
8
0
0
POLYLINE
8
Layer 1
66
1
0
VERTEX
8
0
10
10.9242
20
5.7806
0
VERTEX
8
0
10
10.9754
20
5.7605
42
0.0026
0
VERTEX
8
0
10
10.9894
20
5.7623
0
VERTEX
8
0
10
10.9988
20
5.7637
42
0.0056
0
VERTEX
8
0
10
11.0174
20
5.7667
42
0.0163
0
VERTEX
8
0
10
11.0543
20
5.7742
42
0.1271
0
VERTEX
8
0
10
11.1242
20
5.8013
42
0.4283
0
VERTEX
8
0
10
11.1389
20
5.8328
42
0.1404
0
VERTEX
8
0
10
11.1110
20
5.8570
42
0.1046
0
VERTEX
8
0
10
11.0375
20
5.8709
42
0.1684
0
VERTEX
8
0
10
10.9618
20
5.8485
42
0.2052
0
VERTEX
8
0
10
10.9242
20
5.7806
0
SEQEND
8
0
0
POLYLINE
8
Layer 1
66
1
0
VERTEX
8
0
10
11.0706
20
5.7261
42
0.3509
0
VERTEX
8
0
10
11.0695
20
5.6773
0
VERTEX
8
0
10
11.1260
20
5.6553
42
0.0559
0
VERTEX
8
0
10
11.2460
20
5.7071
42
0.0562
0
VERTEX
8
0
10
11.2723
20
5.7250
42
0.0955
0
VERTEX
8
0
10
11.2830
20
5.7369
42
0.3239
0
VERTEX
8
0
10
11.2839
20
5.7519
42
0.1249
0
VERTEX
8
0
10
11.2240
20
5.7681
42
0.0884
0
VERTEX
8
0
10
11.1176
20
5.7522
42
0.1482
0
VERTEX
8
0
10
11.0706
20
5.7261
0
SEQEND
8
0
0
POLYLINE
8
Layer 1
66
1
0
VERTEX
8
0
10
11.2135
20
5.8308
42
0.0537
0
VERTEX
8
0
10
11.2805
20
5.8259
42
0.1541
0
VERTEX
8
0
10
11.3446
20
5.8416
42
0.4089
0
VERTEX
8
0
10
11.3652
20
5.8985
42
0.3110
0
VERTEX
8
0
10
11.3101
20
5.9278
42
0.1558
0
VERTEX
8
0
10
11.2506
20
5.8914
42
0.0633
0
VERTEX
8
0
10
11.2135
20
5.8308
0
SEQEND
8
0
0
POLYLINE
8
Layer 1
66
1
0
VERTEX
8
0
10
11.3704
20
5.7665
42
0.3151
0
VERTEX
8
0
10
11.3659
20
5.7471
42
0.1994
0
VERTEX
8
0
10
11.3839
20
5.7412
42
0.0320
0
VERTEX
8
0
10
11.4039
20
5.7448
42
0.0171
0
VERTEX
8
0
10
11.4430
20
5.7566
42
-0.0074
0
VERTEX
8
0
10
11.5962
20
5.8127
42
-0.0214
0
VERTEX
8
0
10
11.6741
20
5.8372
42
-0.0667
0
VERTEX
8
0
10
11.7542
20
5.8513
42
0.2353
0
VERTEX
8
0
10
11.6141
20
5.9187
42
0.0960
0
VERTEX
8
0
10
11.4741
20
5.8819
42
0.0074
0
VERTEX
8
0
10
11.4349
20
5.8431
42
0.0112
0
VERTEX
8
0
10
11.4239
20
5.8317
0
VERTEX
8
0
10
11.4259
20
5.8336
0
VERTEX
8
0
10
11.4346
20
5.8424
0
VERTEX
8
0
10
11.4583
20
5.8662
42
0.0023
0
VERTEX
8
0
10
11.4661
20
5.8741
0
VERTEX
8
0
10
11.4661
20
5.8741
0
VERTEX
8
0
10
11.4673
20
5.8754
42
0.0181
0
VERTEX
8
0
10
11.4080
20
5.8146
42
0.0270
0
VERTEX
8
0
10
11.3818
20
5.7834
42
0.0417
0
VERTEX
8
0
10
11.3704
20
5.7665
0
SEQEND
8
0
0
POLYLINE
8
Layer 1
66
1
0
VERTEX
8
0
10
11.5180
20
5.5759
42
0.3804
0
VERTEX
8
0
10
11.5108
20
5.5623
42
0.1703
0
VERTEX
8
0
10
11.5150
20
5.5471
42
0.4895
0
VERTEX
8
0
10
11.5296
20
5.5488
42
0.0812
0
VERTEX
8
0
10
11.5400
20
5.5606
42
0.1738
0
VERTEX
8
0
10
11.5180
20
5.5759
0
SEQEND
8
0
0
POLYLINE
8
Layer 1
66
1
0
VERTEX
8
0
10
11.7633
20
5.8346
42
0.0125
0
VERTEX
8
0
10
11.7585
20
5.8513
0
VERTEX
8
0
10
11.7542
20
5.8513
42
-0.0309
0
VERTEX
8
0
10
11.7633
20
5.8346
0
SEQEND
8
0
0
POLYLINE
8
Layer 1
66
1
0
VERTEX
8
0
10
7.3494
20
4.1352
42
0.1112
0
VERTEX
8
0
10
7.2138
20
4.3390
42
-0.0530
0
VERTEX
8
0
10
7.0992
20
4.2319
42
0.0130
0
VERTEX
8
0
10
6.9737
20
4.1376
42
0.0760
0
VERTEX
8
0
10
6.8606
20
4.0291
42
0.1023
0
VERTEX
8
0
10
6.8233
20
3.9605
42
0.1588
0
VERTEX
8
0
10
6.8237
20
3.8833
42
0.1099
0
VERTEX
8
0
10
7.0636
20
3.8298
42
0.0811
0
VERTEX
8
0
10
7.1856
20
3.8475
42
0.1184
0
VERTEX
8
0
10
7.2925
20
3.9078
42
0.1513
0
VERTEX
8
0
10
7.3545
20
4.0129
42
0.1213
0
VERTEX
8
0
10
7.3494
20
4.1352
0
SEQEND
8
0
0
POLYLINE
8
Layer 1
66
1
0
VERTEX
8
0
10
7.0558
20
4.3221
42
0.1110
0
VERTEX
8
0
10
7.0908
20
4.4013
42
0.0874
0
VERTEX
8
0
10
7.0933
20
4.4884
42
0.2268
0
VERTEX
8
0
10
7.0570
20
4.5661
42
0.0455
0
VERTEX
8
0
10
6.9901
20
4.6599
42
0.0567
0
VERTEX
8
0
10
6.9490
20
4.7002
42
0.2267
0
VERTEX
8
0
10
6.8968
20
4.7220
42
0.2467
0
VERTEX
8
0
10
6.8565
20
4.6843
42
0.0688
0
VERTEX
8
0
10
6.8480
20
4.6272
42
0.0641
0
VERTEX
8
0
10
6.8651
20
4.5128
42
0.1265
0
VERTEX
8
0
10
6.9767
20
4.3117
42
0.3670
0
VERTEX
8
0
10
7.0558
20
4.3221
0
SEQEND
8
0
0
POLYLINE
8
Layer 1
66
1
0
VERTEX
8
0
10
6.8557
20
4.2511
42
0.2063
0
VERTEX
8
0
10
6.8275
20
4.3519
42
0.1283
0
VERTEX
8
0
10
6.7701
20
4.5041
42
0.2593
0
VERTEX
8
0
10
6.6320
20
4.5795
42
0.1751
0
VERTEX
8
0
10
6.4845
20
4.5146
42
0.1927
0
VERTEX
8
0
10
6.4111
20
4.3702
42
0.1998
0
VERTEX
8
0
10
6.4658
20
4.2192
42
0.0924
0
VERTEX
8
0
10
6.6028
20
4.1286
42
0.1812
0
VERTEX
8
0
10
6.7066
20
4.1113
42
0.1329
0
VERTEX
8
0
10
6.8018
20
4.1596
42
0.1826
0
VERTEX
8
0
10
6.8557
20
4.2511
0
SEQEND
8
0
0
POLYLINE
8
Layer 1
66
1
0
VERTEX
8
0
10
6.6635
20
3.8522
42
0.1095
0
VERTEX
8
0
10
6.5042
20
3.9298
42
0.0556
0
VERTEX
8
0
10
6.3264
20
3.9479
42
0.0587
0
VERTEX
8
0
10
6.1138
20
3.9208
42
0.1233
0
VERTEX
8
0
10
5.9162
20
3.8343
42
0.1997
0
VERTEX
8
0
10
5.8531
20
3.7483
42
0.1938
0
VERTEX
8
0
10
5.8788
20
3.6465
42
0.0678
0
VERTEX
8
0
10
5.9578
20
3.5727
42
0.0315
0
VERTEX
8
0
10
6.0510
20
3.5171
42
0.0915
0
VERTEX
8
0
10
6.0790
20
3.5058
42
0.0363
0
VERTEX
8
0
10
6.1032
20
3.5028
42
0.0370
0
VERTEX
8
0
10
6.1521
20
3.5048
42
0.0343
0
VERTEX
8
0
10
6.2479
20
3.5245
42
0.0405
0
VERTEX
8
0
10
6.4308
20
3.5938
42
0.0627
0
VERTEX
8
0
10
6.5987
20
3.6939
42
0.1014
0
VERTEX
8
0
10
6.6670
20
3.7635
42
0.4156
0
VERTEX
8
0
10
6.6635
20
3.8522
0
SEQEND
8
0
0
POLYLINE
8
Layer 1
66
1
0
VERTEX
8
0
10
6.7190
20
3.6476
42
0.1114
0
VERTEX
8
0
10
6.8931
20
3.4687
42
0.0281
0
VERTEX
8
0
10
7.1016
20
3.3291
42
-0.0253
0
VERTEX
8
0
10
7.3058
20
3.1834
42
-0.0537
0
VERTEX
8
0
10
7.3907
20
3.0913
42
-0.1033
0
VERTEX
8
0
10
7.4395
20
2.9763
42
-0.1572
0
VERTEX
8
0
10
7.3536
20
2.9057
42
-0.0950
0
VERTEX
8
0
10
7.2437
20
2.8821
42
-0.0687
0
VERTEX
8
0
10
7.0188
20
2.8984
42
-0.1212
0
VERTEX
8
0
10
6.7305
20
2.9887
42
-0.1081
0
VERTEX
8
0
10
6.5057
20
3.1902
42
-0.1012
0
VERTEX
8
0
10
6.4495
20
3.3304
42
-0.1660
0
VERTEX
8
0
10
6.4783
20
3.4770
42
-0.1303
0
VERTEX
8
0
10
6.5854
20
3.5833
42
-0.0359
0
VERTEX
8
0
10
6.6521
20
3.6201
42
-0.0135
0
VERTEX
8
0
10
6.6869
20
3.6353
42
-0.0102
0
VERTEX
8
0
10
6.7190
20
3.6476
0
SEQEND
8
0
0
POLYLINE
8
Layer 1
66
1
0
VERTEX
8
0
10
7.0212
20
3.6844
42
0.1678
0
VERTEX
8
0
10
7.0259
20
3.5967
42
0.2097
0
VERTEX
8
0
10
7.3009
20
3.3813
42
0.1600
0
VERTEX
8
0
10
7.3691
20
3.3472
42
0.2455
0
VERTEX
8
0
10
7.4379
20
3.3748
42
0.1324
0
VERTEX
8
0
10
7.4819
20
3.5208
42
0.1215
0
VERTEX
8
0
10
7.4550
20
3.6725
42
0.1265
0
VERTEX
8
0
10
7.4105
20
3.7353
42
0.1858
0
VERTEX
8
0
10
7.3391
20
3.7609
42
0.1016
0
VERTEX
8
0
10
7.2664
20
3.7399
42
0.0376
0
VERTEX
8
0
10
7.1792
20
3.7479
42
0.0889
0
VERTEX
8
0
10
7.0900
20
3.7379
42
0.2569
0
VERTEX
8
0
10
7.0212
20
3.6844
0
SEQEND
8
0
0
POLYLINE
8
Layer 1
66
1
0
VERTEX
8
0
10
6.4304
20
4.0217
42
0.1368
0
VERTEX
8
0
10
6.4334
20
4.0766
42
0.0536
0
VERTEX
8
0
10
6.4139
20
4.1289
42
0.1425
0
VERTEX
8
0
10
6.0984
20
4.4380
42
0.1006
0
VERTEX
8
0
10
5.9616
20
4.4652
42
0.0644
0
VERTEX
8
0
10
5.8408
20
4.4474
42
0.0544
0
VERTEX
8
0
10
5.7248
20
4.4000
42
0.1339
0
VERTEX
8
0
10
5.5384
20
4.2352
42
0.1235
0
VERTEX
8
0
10
5.4925
20
4.1194
42
0.1651
0
VERTEX
8
0
10
5.5158
20
3.9983
42
0.1030
0
VERTEX
8
0
10
5.6027
20
3.9092
42
0.0533
0
VERTEX
8
0
10
5.7149
20
3.8532
42
0.1190
0
VERTEX
8
0
10
5.7746
20
3.8651
42
0.0463
0
VERTEX
8
0
10
5.8266
20
3.8980
42
-0.0202
0
VERTEX
8
0
10
5.9220
20
3.9762
42
-0.2991
0
VERTEX
8
0
10
6.1519
20
4.0153
42
0.0046
0
VERTEX
8
0
10
6.1703
20
4.0099
0
VERTEX
8
0
10
6.1828
20
4.0063
0
VERTEX
8
0
10
6.1865
20
4.0053
0
VERTEX
8
0
10
6.1865
20
4.0053
42
0.0022
0
VERTEX
8
0
10
6.1594
20
4.0131
0
VERTEX
8
0
10
6.1594
20
4.0131
0
VERTEX
8
0
10
6.1686
20
4.0103
42
0.0138
0
VERTEX
8
0
10
6.2223
20
3.9963
42
0.0650
0
VERTEX
8
0
10
6.3328
20
3.9809
42
0.0924
0
VERTEX
8
0
10
6.3880
20
3.9879
42
0.2345
0
VERTEX
8
0
10
6.4304
20
4.0217
0
SEQEND
8
0
0
ENDSEC
0
EOF
