999
"DXF R12 Output" (www.mydxf.blogspot.com)
 0 
SECTION
 2 
HEADER
 9 
$ACADVER
 1 
AC1009
 9 
$EXTMIN
 10 
 0 
 20 
 0 
 9 
$EXTMAX
 10 
 8.5 
 20 
 11 
 0 
ENDSEC
 0 
SECTION
 2 
ENTITIES
0
LINE
8
Calque 1
10
143.610796
20
105.188262
11
142.623018
21
105.573976
0
LINE
8
Calque 1
10
142.623018
20
105.573976
11
141.635240
21
105.741931
0
LINE
8
Calque 1
10
141.635240
20
105.741931
11
141.069516
21
105.806658
0
LINE
8
Calque 1
10
141.069516
20
105.806658
11
140.574933
21
106.052491
0
LINE
8
Calque 1
10
140.574933
20
106.052491
11
139.237892
21
107.498827
0
LINE
8
Calque 1
10
139.237892
20
107.498827
11
136.890545
21
110.634200
0
LINE
8
Calque 1
10
136.890545
20
110.634200
11
134.474378
21
114.319011
0
LINE
8
Calque 1
10
134.474378
20
114.319011
11
131.980936
21
118.566922
0
LINE
8
Calque 1
10
131.980936
20
118.566922
11
129.401765
21
123.391595
0
LINE
8
Calque 1
10
129.401765
20
123.391595
11
126.693721
21
128.322715
0
LINE
8
Calque 1
10
126.693721
20
128.322715
11
126.156982
21
129.020501
0
LINE
8
Calque 1
10
126.156982
20
129.020501
11
125.170689
21
127.974724
0
LINE
8
Calque 1
10
125.170689
20
127.974724
11
124.532086
21
127.184024
0
LINE
8
Calque 1
10
124.532086
20
127.184024
11
124.061772
21
126.337365
0
LINE
8
Calque 1
10
124.061772
20
126.337365
11
123.759171
21
125.423287
0
LINE
8
Calque 1
10
123.759171
20
125.423287
11
123.623708
21
124.430329
0
LINE
8
Calque 1
10
123.623708
20
124.430329
11
123.654806
21
123.347030
0
LINE
8
Calque 1
10
123.654806
20
123.347030
11
123.851889
21
122.161930
0
LINE
8
Calque 1
10
123.851889
20
122.161930
11
124.741706
21
119.440484
0
LINE
8
Calque 1
10
124.741706
20
119.440484
11
125.511517
21
117.111350
0
LINE
8
Calque 1
10
125.511517
20
117.111350
11
125.674580
21
114.501595
0
LINE
8
Calque 1
10
125.674580
20
114.501595
11
125.547669
21
112.325965
0
LINE
8
Calque 1
10
125.547669
20
112.325965
11
125.119037
21
110.564997
0
LINE
8
Calque 1
10
125.119037
20
110.564997
11
124.340662
21
109.089948
0
LINE
8
Calque 1
10
124.340662
20
109.089948
11
123.164527
21
107.772074
0
LINE
8
Calque 1
10
123.164527
20
107.772074
11
121.990272
21
106.858363
0
LINE
8
Calque 1
10
121.990272
20
106.858363
11
120.726780
21
106.287020
0
LINE
8
Calque 1
10
120.726780
20
106.287020
11
119.161506
21
105.993025
0
LINE
8
Calque 1
10
119.161506
20
105.993025
11
117.081907
21
105.911361
0
LINE
8
Calque 1
10
117.081907
20
105.911361
11
114.539332
21
106.041383
0
LINE
8
Calque 1
10
114.539332
20
106.041383
11
111.842901
21
106.481874
0
LINE
8
Calque 1
10
111.842901
20
106.481874
11
108.597859
21
107.317630
0
LINE
8
Calque 1
10
108.597859
20
107.317630
11
104.409452
21
108.633445
0
LINE
8
Calque 1
10
104.409452
20
108.633445
11
100.539495
21
109.826237
0
LINE
8
Calque 1
10
100.539495
20
109.826237
11
97.773579
21
110.323409
0
LINE
8
Calque 1
10
97.773579
20
110.323409
11
96.524188
21
110.330059
0
LINE
8
Calque 1
10
96.524188
20
110.330059
11
95.214268
21
110.185509
0
LINE
8
Calque 1
10
95.214268
20
110.185509
11
91.964129
21
109.473081
0
LINE
8
Calque 1
10
91.964129
20
109.473081
11
87.805787
21
108.570343
0
LINE
8
Calque 1
10
87.805787
20
108.570343
11
84.112189
21
108.086296
0
LINE
8
Calque 1
10
84.112189
20
108.086296
11
80.746891
21
108.010110
0
LINE
8
Calque 1
10
80.746891
20
108.010110
11
77.573446
21
108.330956
0
LINE
8
Calque 1
10
77.573446
20
108.330956
11
75.763537
21
108.510266
0
LINE
8
Calque 1
10
75.763537
20
108.510266
11
74.299583
21
108.315688
0
LINE
8
Calque 1
10
74.299583
20
108.315688
11
72.882956
21
108.143167
0
LINE
8
Calque 1
10
72.882956
20
108.143167
11
71.130976
21
108.627851
0
LINE
8
Calque 1
10
71.130976
20
108.627851
11
69.436721
21
109.416175
0
LINE
8
Calque 1
10
69.436721
20
109.416175
11
67.976218
21
110.458268
0
LINE
8
Calque 1
10
67.976218
20
110.458268
11
66.877454
21
111.642778
0
LINE
8
Calque 1
10
66.877454
20
111.642778
11
66.268419
21
112.858354
0
LINE
8
Calque 1
10
66.268419
20
112.858354
11
66.103926
21
113.711995
0
LINE
8
Calque 1
10
66.103926
20
113.711995
11
66.137909
21
114.169448
0
LINE
8
Calque 1
10
66.137909
20
114.169448
11
66.650917
21
114.143352
0
LINE
8
Calque 1
10
66.650917
20
114.143352
11
67.638123
21
113.834414
0
LINE
8
Calque 1
10
67.638123
20
113.834414
11
70.910332
21
112.603698
0
LINE
8
Calque 1
10
70.910332
20
112.603698
11
73.039568
21
111.928616
0
LINE
8
Calque 1
10
73.039568
20
111.928616
11
74.669028
21
111.645137
0
LINE
8
Calque 1
10
74.669028
20
111.645137
11
76.441907
21
111.589229
0
LINE
8
Calque 1
10
76.441907
20
111.589229
11
78.708504
21
111.693282
0
LINE
8
Calque 1
10
78.708504
20
111.693282
11
80.393018
21
111.937604
0
LINE
8
Calque 1
10
80.393018
20
111.937604
11
82.728892
21
112.557948
0
LINE
8
Calque 1
10
82.728892
20
112.557948
11
83.424264
21
112.873173
0
LINE
8
Calque 1
10
83.424264
20
112.873173
11
84.288609
21
113.784780
0
LINE
8
Calque 1
10
84.288609
20
113.784780
11
88.192266
21
119.523949
0
LINE
8
Calque 1
10
88.192266
20
119.523949
11
91.597765
21
124.561365
0
LINE
8
Calque 1
10
91.597765
20
124.561365
11
93.610244
21
127.278318
0
LINE
8
Calque 1
10
93.610244
20
127.278318
11
94.542635
21
128.056987
0
LINE
8
Calque 1
10
94.542635
20
128.056987
11
95.574151
21
128.564016
0
LINE
8
Calque 1
10
95.574151
20
128.564016
11
96.677259
21
128.789953
0
LINE
8
Calque 1
10
96.677259
20
128.789953
11
97.824423
21
128.725341
0
LINE
8
Calque 1
10
97.824423
20
128.725341
11
99.549282
21
128.175060
0
LINE
8
Calque 1
10
99.549282
20
128.175060
11
102.391017
21
126.996127
0
LINE
8
Calque 1
10
102.391017
20
126.996127
11
110.403984
21
123.200762
0
LINE
8
Calque 1
10
110.403984
20
123.200762
11
113.601674
21
121.630932
0
LINE
8
Calque 1
10
113.601674
20
121.630932
11
115.299968
21
121.039773
0
LINE
8
Calque 1
10
115.299968
20
121.039773
11
115.788966
21
121.089500
0
LINE
8
Calque 1
10
115.788966
20
121.089500
11
116.145665
21
121.357859
0
LINE
8
Calque 1
10
116.145665
20
121.357859
11
116.785565
21
122.515761
0
LINE
8
Calque 1
10
116.785565
20
122.515761
11
117.324782
21
124.158733
0
LINE
8
Calque 1
10
117.324782
20
124.158733
11
117.284647
21
125.755173
0
LINE
8
Calque 1
10
117.284647
20
125.755173
11
116.644958
21
127.401439
0
LINE
8
Calque 1
10
116.644958
20
127.401439
11
115.385514
21
129.193890
0
LINE
8
Calque 1
10
115.385514
20
129.193890
11
114.253010
21
130.661097
0
LINE
8
Calque 1
10
114.253010
20
130.661097
11
113.505544
21
131.927364
0
LINE
8
Calque 1
10
113.505544
20
131.927364
11
113.160608
21
133.054810
0
LINE
8
Calque 1
10
113.160608
20
133.054810
11
113.235697
21
134.105551
0
LINE
8
Calque 1
10
113.235697
20
134.105551
11
113.748303
21
135.141705
0
LINE
8
Calque 1
10
113.748303
20
135.141705
11
114.715919
21
136.225389
0
LINE
8
Calque 1
10
114.715919
20
136.225389
11
116.156038
21
137.418721
0
LINE
8
Calque 1
10
116.156038
20
137.418721
11
118.086152
21
138.783818
0
LINE
8
Calque 1
10
118.086152
20
138.783818
11
119.661075
21
139.981071
0
LINE
8
Calque 1
10
119.661075
20
139.981071
11
120.452430
21
140.838458
0
LINE
8
Calque 1
10
120.452430
20
140.838458
11
120.543235
21
141.411007
0
LINE
8
Calque 1
10
120.543235
20
141.411007
11
120.362576
21
141.834969
0
LINE
8
Calque 1
10
120.362576
20
141.834969
11
119.950124
21
142.066502
0
LINE
8
Calque 1
10
119.950124
20
142.066502
11
119.345546
21
142.061767
0
LINE
8
Calque 1
10
119.345546
20
142.061767
11
118.937103
21
142.030397
0
LINE
8
Calque 1
10
118.937103
20
142.030397
11
118.610423
21
142.173153
0
LINE
8
Calque 1
10
118.610423
20
142.173153
11
117.860933
21
143.255595
0
LINE
8
Calque 1
10
117.860933
20
143.255595
11
117.355687
21
144.391446
0
LINE
8
Calque 1
10
117.355687
20
144.391446
11
117.262529
21
145.188004
0
LINE
8
Calque 1
10
117.262529
20
145.188004
11
117.216092
21
145.752604
0
LINE
8
Calque 1
10
117.216092
20
145.752604
11
116.697323
21
146.252160
0
LINE
8
Calque 1
10
116.697323
20
146.252160
11
116.294700
21
146.540943
0
LINE
8
Calque 1
10
116.294700
20
146.540943
11
116.129534
21
146.804540
0
LINE
8
Calque 1
10
116.129534
20
146.804540
11
116.409944
21
147.805477
0
LINE
8
Calque 1
10
116.409944
20
147.805477
11
116.701501
21
148.818726
0
LINE
8
Calque 1
10
116.701501
20
148.818726
11
116.408587
21
149.549455
0
LINE
8
Calque 1
10
116.408587
20
149.549455
11
115.527788
21
151.477327
0
LINE
8
Calque 1
10
115.527788
20
151.477327
11
115.226820
21
152.763662
0
LINE
8
Calque 1
10
115.226820
20
152.763662
11
115.293022
21
153.936665
0
LINE
8
Calque 1
10
115.293022
20
153.936665
11
115.738528
21
155.050572
0
LINE
8
Calque 1
10
115.738528
20
155.050572
11
116.575476
21
156.159622
0
LINE
8
Calque 1
10
116.575476
20
156.159622
11
117.792440
21
157.210351
0
LINE
8
Calque 1
10
117.792440
20
157.210351
11
119.229701
21
157.948946
0
LINE
8
Calque 1
10
119.229701
20
157.948946
11
120.912845
21
158.385038
0
LINE
8
Calque 1
10
120.912845
20
158.385038
11
122.867462
21
158.528262
0
LINE
8
Calque 1
10
122.867462
20
158.528262
11
124.769344
21
158.383956
0
LINE
8
Calque 1
10
124.769344
20
158.383956
11
126.494181
21
157.945394
0
LINE
8
Calque 1
10
126.494181
20
157.945394
11
128.051221
21
157.204109
0
LINE
8
Calque 1
10
128.051221
20
157.204109
11
129.449707
21
156.151636
0
LINE
8
Calque 1
10
129.449707
20
156.151636
11
130.698885
21
154.779506
0
LINE
8
Calque 1
10
130.698885
20
154.779506
11
131.808000
21
153.079255
0
LINE
8
Calque 1
10
131.808000
20
153.079255
11
132.786299
21
151.042415
0
LINE
8
Calque 1
10
132.786299
20
151.042415
11
133.643026
21
148.660520
0
LINE
8
Calque 1
10
133.643026
20
148.660520
11
134.509958
21
146.077928
0
LINE
8
Calque 1
10
134.509958
20
146.077928
11
135.315077
21
144.158328
0
LINE
8
Calque 1
10
135.315077
20
144.158328
11
136.164332
21
142.684389
0
LINE
8
Calque 1
10
136.164332
20
142.684389
11
137.163675
21
141.438781
0
LINE
8
Calque 1
10
137.163675
20
141.438781
11
138.318682
21
140.447879
0
LINE
8
Calque 1
10
138.318682
20
140.447879
11
139.701967
21
139.697144
0
LINE
8
Calque 1
10
139.701967
20
139.697144
11
141.231166
21
139.221264
0
LINE
8
Calque 1
10
141.231166
20
139.221264
11
142.823912
21
139.054929
0
LINE
8
Calque 1
10
142.823912
20
139.054929
11
144.273631
21
139.054929
0
LINE
8
Calque 1
10
144.273631
20
139.054929
11
143.618489
21
138.357563
0
LINE
8
Calque 1
10
143.618489
20
138.357563
11
142.865834
21
137.769353
0
LINE
8
Calque 1
10
142.865834
20
137.769353
11
141.976244
21
137.334423
0
LINE
8
Calque 1
10
141.976244
20
137.334423
11
140.823306
21
137.146027
0
LINE
8
Calque 1
10
140.823306
20
137.146027
11
139.326746
21
137.162768
0
LINE
8
Calque 1
10
139.326746
20
137.162768
11
137.731883
21
137.367102
0
LINE
8
Calque 1
10
137.731883
20
137.367102
11
136.284039
21
137.741486
0
LINE
8
Calque 1
10
136.284039
20
137.741486
11
134.905253
21
138.063460
0
LINE
8
Calque 1
10
134.905253
20
138.063460
11
134.925803
21
137.682788
0
LINE
8
Calque 1
10
134.925803
20
137.682788
11
135.356231
21
137.137960
0
LINE
8
Calque 1
10
135.356231
20
137.137960
11
136.024084
21
136.599131
0
LINE
8
Calque 1
10
136.024084
20
136.599131
11
136.756910
21
136.236457
0
LINE
8
Calque 1
10
136.756910
20
136.236457
11
138.416634
21
135.667832
0
LINE
8
Calque 1
10
138.416634
20
135.667832
11
138.451804
21
135.479355
0
LINE
8
Calque 1
10
138.451804
20
135.479355
11
138.176872
21
135.193387
0
LINE
8
Calque 1
10
138.176872
20
135.193387
11
137.355136
21
134.816797
0
LINE
8
Calque 1
10
137.355136
20
134.816797
11
135.939544
21
134.565487
0
LINE
8
Calque 1
10
135.939544
20
134.565487
11
134.156351
21
134.391726
0
LINE
8
Calque 1
10
134.156351
20
134.391726
11
134.920931
21
133.876205
0
LINE
8
Calque 1
10
134.920931
20
133.876205
11
135.963205
21
133.476343
0
LINE
8
Calque 1
10
135.963205
20
133.476343
11
137.687815
21
133.360681
0
LINE
8
Calque 1
10
137.687815
20
133.360681
11
138.970527
21
133.306404
0
LINE
8
Calque 1
10
138.970527
20
133.306404
11
139.526744
21
133.111794
0
LINE
8
Calque 1
10
139.526744
20
133.111794
11
139.391207
21
132.729183
0
LINE
8
Calque 1
10
139.391207
20
132.729183
11
138.598659
21
132.110902
0
LINE
8
Calque 1
10
138.598659
20
132.110902
11
137.649662
21
131.654348
0
LINE
8
Calque 1
10
137.649662
20
131.654348
11
136.443334
21
131.360571
0
LINE
8
Calque 1
10
136.443334
20
131.360571
11
135.084245
21
131.246207
0
LINE
8
Calque 1
10
135.084245
20
131.246207
11
133.676960
21
131.327893
0
LINE
8
Calque 1
10
133.676960
20
131.327893
11
132.321907
21
131.507646
0
LINE
8
Calque 1
10
132.321907
20
131.507646
11
132.321907
21
130.604318
0
LINE
8
Calque 1
10
132.321907
20
130.604318
11
132.574906
21
129.203360
0
LINE
8
Calque 1
10
132.574906
20
129.203360
11
133.183181
21
127.103608
0
LINE
8
Calque 1
10
133.183181
20
127.103608
11
134.768609
21
123.294930
0
LINE
8
Calque 1
10
134.768609
20
123.294930
11
137.404437
21
117.613211
0
LINE
8
Calque 1
10
137.404437
20
117.613211
11
140.032550
21
112.273826
0
LINE
8
Calque 1
10
140.032550
20
112.273826
11
141.594832
21
109.492151
0
LINE
8
Calque 1
10
141.594832
20
109.492151
11
142.262982
21
109.012576
0
LINE
8
Calque 1
10
142.262982
20
109.012576
11
143.152216
21
108.857151
0
LINE
8
Calque 1
10
143.152216
20
108.857151
11
144.686010
21
108.748000
0
LINE
8
Calque 1
10
144.686010
20
108.748000
11
146.041599
21
108.413608
0
LINE
8
Calque 1
10
146.041599
20
108.413608
11
147.248464
21
107.843571
0
LINE
8
Calque 1
10
147.248464
20
107.843571
11
148.336087
21
107.027482
0
LINE
8
Calque 1
10
148.336087
20
107.027482
11
149.237276
21
106.118182
0
LINE
8
Calque 1
10
149.237276
20
106.118182
11
149.518771
21
105.644170
0
LINE
8
Calque 1
10
149.518771
20
105.644170
11
148.391745
21
105.757533
0
LINE
8
Calque 1
10
148.391745
20
105.757533
11
146.364325
21
106.034929
0
LINE
8
Calque 1
10
146.364325
20
106.034929
11
145.480705
21
105.917419
0
LINE
8
Calque 1
10
145.480705
20
105.917419
11
145.337214
21
105.704292
0
LINE
8
Calque 1
10
145.337214
20
105.704292
11
145.304129
21
105.329373
0
LINE
8
Calque 1
10
145.304129
20
105.329373
11
145.226309
21
104.851640
0
LINE
8
Calque 1
10
145.226309
20
104.851640
11
144.955497
21
104.671990
0
LINE
8
Calque 1
10
144.955497
20
104.671990
11
144.435668
21
104.785753
0
LINE
8
Calque 1
10
144.435668
20
104.785753
11
143.610796
21
105.188262
0
LINE
8
Calque 1
10
143.610796
20
105.188262
11
143.610796
21
105.188262
0
LINE
8
Calque 1
10
95.175965
20
115.905335
11
99.973742
21
116.371707
0
LINE
8
Calque 1
10
99.973742
20
116.371707
11
103.285096
21
116.739060
0
LINE
8
Calque 1
10
103.285096
20
116.739060
11
103.880164
21
117.030800
0
LINE
8
Calque 1
10
103.880164
20
117.030800
11
103.929795
21
117.438154
0
LINE
8
Calque 1
10
103.929795
20
117.438154
11
103.149768
21
118.244754
0
LINE
8
Calque 1
10
103.149768
20
118.244754
11
101.493282
21
119.631757
0
LINE
8
Calque 1
10
101.493282
20
119.631757
11
98.039047
21
122.154779
0
LINE
8
Calque 1
10
98.039047
20
122.154779
11
96.944217
21
122.800744
0
LINE
8
Calque 1
10
96.944217
20
122.800744
11
96.445657
21
122.108390
0
LINE
8
Calque 1
10
96.445657
20
122.108390
11
94.284868
21
119.149556
0
LINE
8
Calque 1
10
94.284868
20
119.149556
11
92.105711
21
116.094144
0
LINE
8
Calque 1
10
92.105711
20
116.094144
11
91.588785
21
115.305215
0
LINE
8
Calque 1
10
91.588785
20
115.305215
11
92.552568
21
115.463251
0
LINE
8
Calque 1
10
92.552568
20
115.463251
11
95.175965
21
115.905335
0
LINE
8
Calque 1
10
95.175965
20
115.905335
11
95.175965
21
115.905335
0
LINE
8
Calque 1
10
93.657462
20
116.613939
11
95.320359
21
119.153843
0
LINE
8
Calque 1
10
95.320359
20
119.153843
11
97.185240
21
121.513330
0
LINE
8
Calque 1
10
97.185240
20
121.513330
11
98.202009
21
120.981358
0
LINE
8
Calque 1
10
98.202009
20
120.981358
11
99.961031
21
119.677243
0
LINE
8
Calque 1
10
99.961031
20
119.677243
11
101.581011
21
118.300258
0
LINE
8
Calque 1
10
101.581011
20
118.300258
11
102.180652
21
117.549675
0
LINE
8
Calque 1
10
102.180652
20
117.549675
11
100.975969
21
117.294102
0
LINE
8
Calque 1
10
100.975969
20
117.294102
11
98.429479
21
117.029519
0
LINE
8
Calque 1
10
98.429479
20
117.029519
11
94.292462
21
116.612457
0
LINE
8
Calque 1
10
94.292462
20
116.612457
11
93.657462
21
116.613939
0
LINE
8
Calque 1
10
93.657462
20
116.613939
11
93.657462
21
116.613939
0
LINE
8
Calque 1
10
126.449568
20
113.725484
11
126.536351
21
114.924929
0
LINE
8
Calque 1
10
126.536351
20
114.924929
11
128.935240
21
115.534289
0
LINE
8
Calque 1
10
128.935240
20
115.534289
11
130.897140
21
116.001700
0
LINE
8
Calque 1
10
130.897140
20
116.001700
11
132.027841
21
116.132159
0
LINE
8
Calque 1
10
132.027841
20
116.132159
11
132.639490
21
115.909069
0
LINE
8
Calque 1
10
132.639490
20
115.909069
11
133.044232
21
115.315835
0
LINE
8
Calque 1
10
133.044232
20
115.315835
11
133.296059
21
114.631003
0
LINE
8
Calque 1
10
133.296059
20
114.631003
11
133.263146
21
114.218967
0
LINE
8
Calque 1
10
133.263146
20
114.218967
11
130.044924
21
113.300980
0
LINE
8
Calque 1
10
130.044924
20
113.300980
11
126.570850
21
112.526040
0
LINE
8
Calque 1
10
126.570850
20
112.526040
11
126.449397
21
112.878377
0
LINE
8
Calque 1
10
126.449397
20
112.878377
11
126.449568
21
113.725484
0
LINE
8
Calque 1
10
126.449568
20
113.725484
11
126.449568
21
113.725484
0
LINE
8
Calque 1
10
82.227462
20
114.129793
11
79.411785
21
115.013803
0
LINE
8
Calque 1
10
79.411785
20
115.013803
11
75.985951
21
116.446059
0
LINE
8
Calque 1
10
75.985951
20
116.446059
11
72.522266
21
118.164809
0
LINE
8
Calque 1
10
72.522266
20
118.164809
11
69.593037
21
119.908302
0
LINE
8
Calque 1
10
69.593037
20
119.908302
11
67.101489
21
121.844858
0
LINE
8
Calque 1
10
67.101489
20
121.844858
11
65.202238
21
123.878734
0
LINE
8
Calque 1
10
65.202238
20
123.878734
11
63.898808
21
125.990747
0
LINE
8
Calque 1
10
63.898808
20
125.990747
11
63.194725
21
128.161710
0
LINE
8
Calque 1
10
63.194725
20
128.161710
11
63.068541
21
129.263303
0
LINE
8
Calque 1
10
63.068541
20
129.263303
11
63.093515
21
130.372439
0
LINE
8
Calque 1
10
63.093515
20
130.372439
11
63.598705
21
132.603749
0
LINE
8
Calque 1
10
63.598705
20
132.603749
11
64.713820
21
134.836454
0
LINE
8
Calque 1
10
64.713820
20
134.836454
11
66.442387
21
137.051371
0
LINE
8
Calque 1
10
66.442387
20
137.051371
11
68.691775
21
139.091883
0
LINE
8
Calque 1
10
68.691775
20
139.091883
11
71.508667
21
140.993115
0
LINE
8
Calque 1
10
71.508667
20
140.993115
11
74.838521
21
142.735069
0
LINE
8
Calque 1
10
74.838521
20
142.735069
11
78.626794
21
144.297745
0
LINE
8
Calque 1
10
78.626794
20
144.297745
11
82.818945
21
145.661147
0
LINE
8
Calque 1
10
82.818945
20
145.661147
11
87.360431
21
146.805276
0
LINE
8
Calque 1
10
87.360431
20
146.805276
11
92.196711
21
147.710134
0
LINE
8
Calque 1
10
92.196711
20
147.710134
11
97.273243
21
148.355723
0
LINE
8
Calque 1
10
97.273243
20
148.355723
11
107.352882
21
148.656198
0
LINE
8
Calque 1
10
107.352882
20
148.656198
11
112.983787
21
148.681080
0
LINE
8
Calque 1
10
112.983787
20
148.681080
11
115.553134
21
148.579997
0
LINE
8
Calque 1
10
115.553134
20
148.579997
11
115.483730
21
147.375083
0
LINE
8
Calque 1
10
115.483730
20
147.375083
11
115.332899
21
146.251595
0
LINE
8
Calque 1
10
115.332899
20
146.251595
11
107.387957
21
146.231188
0
LINE
8
Calque 1
10
107.387957
20
146.231188
11
101.810757
21
146.147017
0
LINE
8
Calque 1
10
101.810757
20
146.147017
11
97.323532
21
145.883310
0
LINE
8
Calque 1
10
97.323532
20
145.883310
11
93.191822
21
145.374210
0
LINE
8
Calque 1
10
93.191822
20
145.374210
11
88.681168
21
144.553865
0
LINE
8
Calque 1
10
88.681168
20
144.553865
11
85.265661
21
143.780404
0
LINE
8
Calque 1
10
85.265661
20
143.780404
11
82.047546
21
142.882242
0
LINE
8
Calque 1
10
82.047546
20
142.882242
11
79.050626
21
141.869948
0
LINE
8
Calque 1
10
79.050626
20
141.869948
11
76.298705
21
140.754094
0
LINE
8
Calque 1
10
76.298705
20
140.754094
11
73.815588
21
139.545250
0
LINE
8
Calque 1
10
73.815588
20
139.545250
11
71.625078
21
138.253987
0
LINE
8
Calque 1
10
71.625078
20
138.253987
11
69.750980
21
136.890875
0
LINE
8
Calque 1
10
69.750980
20
136.890875
11
68.217096
21
135.466485
0
LINE
8
Calque 1
10
68.217096
20
135.466485
11
67.144659
21
134.210588
0
LINE
8
Calque 1
10
67.144659
20
134.210588
11
66.432709
21
133.078186
0
LINE
8
Calque 1
10
66.432709
20
133.078186
11
66.006728
21
131.919223
0
LINE
8
Calque 1
10
66.006728
20
131.919223
11
65.792195
21
130.583645
0
LINE
8
Calque 1
10
65.792195
20
130.583645
11
65.801389
21
129.156997
0
LINE
8
Calque 1
10
65.801389
20
129.156997
11
66.088050
21
127.757267
0
LINE
8
Calque 1
10
66.088050
20
127.757267
11
66.649388
21
126.388247
0
LINE
8
Calque 1
10
66.649388
20
126.388247
11
67.482612
21
125.053728
0
LINE
8
Calque 1
10
67.482612
20
125.053728
11
68.584933
21
123.757505
0
LINE
8
Calque 1
10
68.584933
20
123.757505
11
69.953561
21
122.503368
0
LINE
8
Calque 1
10
69.953561
20
122.503368
11
71.585704
21
121.295110
0
LINE
8
Calque 1
10
71.585704
20
121.295110
11
73.478573
21
120.136523
0
LINE
8
Calque 1
10
73.478573
20
120.136523
11
75.419693
21
119.190965
0
LINE
8
Calque 1
10
75.419693
20
119.190965
11
77.986341
21
118.129041
0
LINE
8
Calque 1
10
77.986341
20
118.129041
11
83.276948
21
116.324912
0
LINE
8
Calque 1
10
83.276948
20
116.324912
11
84.890878
21
115.877799
0
LINE
8
Calque 1
10
84.890878
20
115.877799
11
84.264726
21
114.910967
0
LINE
8
Calque 1
10
84.264726
20
114.910967
11
83.852547
21
114.354394
0
LINE
8
Calque 1
10
83.852547
20
114.354394
11
83.453634
21
114.068591
0
LINE
8
Calque 1
10
83.453634
20
114.068591
11
82.950952
21
114.008683
0
LINE
8
Calque 1
10
82.950952
20
114.008683
11
82.227462
21
114.129793
0
LINE
8
Calque 1
10
82.227462
20
114.129793
11
82.227462
21
114.129793
0
LINE
8
Calque 1
10
126.237365
20
117.001133
11
125.264551
21
120.004929
0
LINE
8
Calque 1
10
125.264551
20
120.004929
11
124.538596
21
122.171354
0
LINE
8
Calque 1
10
124.538596
20
122.171354
11
124.249409
21
123.663372
0
LINE
8
Calque 1
10
124.249409
20
123.663372
11
124.375130
21
124.837483
0
LINE
8
Calque 1
10
124.375130
20
124.837483
11
124.893903
21
126.050185
0
LINE
8
Calque 1
10
124.893903
20
126.050185
11
125.542173
21
127.155231
0
LINE
8
Calque 1
10
125.542173
20
127.155231
11
125.974898
21
127.663952
0
LINE
8
Calque 1
10
125.974898
20
127.663952
11
126.907875
21
126.275485
0
LINE
8
Calque 1
10
126.907875
20
126.275485
11
128.722062
21
123.075657
0
LINE
8
Calque 1
10
128.722062
20
123.075657
11
130.525287
21
119.688927
0
LINE
8
Calque 1
10
130.525287
20
119.688927
11
131.425377
21
117.739757
0
LINE
8
Calque 1
10
131.425377
20
117.739757
11
131.421566
21
117.443872
0
LINE
8
Calque 1
10
131.421566
20
117.443872
11
131.284266
21
117.316573
0
LINE
8
Calque 1
10
131.284266
20
117.316573
11
128.721398
21
116.782222
0
LINE
8
Calque 1
10
128.721398
20
116.782222
11
126.390888
21
116.255116
0
LINE
8
Calque 1
10
126.390888
20
116.255116
11
126.237365
21
117.001133
0
LINE
8
Calque 1
10
126.237365
20
117.001133
11
126.237365
21
117.001133
0
LINE
8
Calque 1
10
138.398168
20
117.116763
11
138.172600
21
117.828178
0
LINE
8
Calque 1
10
138.172600
20
117.828178
11
138.165826
21
118.264916
0
LINE
8
Calque 1
10
138.165826
20
118.264916
11
140.131419
21
119.321090
0
LINE
8
Calque 1
10
140.131419
20
119.321090
11
142.144932
21
120.333157
0
LINE
8
Calque 1
10
142.144932
20
120.333157
11
143.946228
21
121.460012
0
LINE
8
Calque 1
10
143.946228
20
121.460012
11
145.518757
21
122.683241
0
LINE
8
Calque 1
10
145.518757
20
122.683241
11
146.845966
21
123.984429
0
LINE
8
Calque 1
10
146.845966
20
123.984429
11
147.911306
21
125.345162
0
LINE
8
Calque 1
10
147.911306
20
125.345162
11
148.698224
21
126.747026
0
LINE
8
Calque 1
10
148.698224
20
126.747026
11
149.190170
21
128.171604
0
LINE
8
Calque 1
10
149.190170
20
128.171604
11
149.370593
21
129.600484
0
LINE
8
Calque 1
10
149.370593
20
129.600484
11
149.248249
21
131.326527
0
LINE
8
Calque 1
10
149.248249
20
131.326527
11
148.779060
21
132.810705
0
LINE
8
Calque 1
10
148.779060
20
132.810705
11
147.886412
21
134.215544
0
LINE
8
Calque 1
10
147.886412
20
134.215544
11
146.493693
21
135.703571
0
LINE
8
Calque 1
10
146.493693
20
135.703571
11
144.900020
21
137.396094
0
LINE
8
Calque 1
10
144.900020
20
137.396094
11
144.652393
21
137.971125
0
LINE
8
Calque 1
10
144.652393
20
137.971125
11
144.598573
21
138.631595
0
LINE
8
Calque 1
10
144.598573
20
138.631595
11
144.598573
21
139.760484
0
LINE
8
Calque 1
10
144.598573
20
139.760484
11
142.747913
21
139.782441
0
LINE
8
Calque 1
10
142.747913
20
139.782441
11
141.171642
21
139.943061
0
LINE
8
Calque 1
10
141.171642
20
139.943061
11
139.825133
21
140.418730
0
LINE
8
Calque 1
10
139.825133
20
140.418730
11
138.607027
21
141.261558
0
LINE
8
Calque 1
10
138.607027
20
141.261558
11
137.415961
21
142.523657
0
LINE
8
Calque 1
10
137.415961
20
142.523657
11
136.273018
21
144.153152
0
LINE
8
Calque 1
10
136.273018
20
144.153152
11
136.750888
21
144.115745
0
LINE
8
Calque 1
10
136.750888
20
144.115745
11
138.005063
21
143.665905
0
LINE
8
Calque 1
10
138.005063
20
143.665905
11
141.765706
21
141.959001
0
LINE
8
Calque 1
10
141.765706
20
141.959001
11
144.951977
21
140.153112
0
LINE
8
Calque 1
10
144.951977
20
140.153112
11
147.589933
21
138.203655
0
LINE
8
Calque 1
10
147.589933
20
138.203655
11
149.656899
21
136.130021
0
LINE
8
Calque 1
10
149.656899
20
136.130021
11
151.130200
21
133.951598
0
LINE
8
Calque 1
10
151.130200
20
133.951598
11
151.559106
21
133.053979
0
LINE
8
Calque 1
10
151.559106
20
133.053979
11
151.801766
21
132.233267
0
LINE
8
Calque 1
10
151.801766
20
132.233267
11
151.934994
21
129.741595
0
LINE
8
Calque 1
10
151.934994
20
129.741595
11
151.804462
21
127.248105
0
LINE
8
Calque 1
10
151.804462
20
127.248105
11
151.554727
21
126.447372
0
LINE
8
Calque 1
10
151.554727
20
126.447372
11
151.106296
21
125.562113
0
LINE
8
Calque 1
10
151.106296
20
125.562113
11
150.324066
21
124.379084
0
LINE
8
Calque 1
10
150.324066
20
124.379084
11
149.277606
21
123.148076
0
LINE
8
Calque 1
10
149.277606
20
123.148076
11
146.563751
21
120.678052
0
LINE
8
Calque 1
10
146.563751
20
120.678052
11
143.308247
21
118.423902
0
LINE
8
Calque 1
10
143.308247
20
118.423902
11
139.854613
21
116.657485
0
LINE
8
Calque 1
10
139.854613
20
116.657485
11
138.779541
21
116.209743
0
LINE
8
Calque 1
10
138.779541
20
116.209743
11
138.398168
21
117.116763
0
LINE
8
Calque 1
10
138.398168
20
117.116763
11
138.398168
21
117.116763
0
LINE
8
Calque 1
10
81.521907
20
118.141701
11
77.997534
21
119.404059
0
LINE
8
Calque 1
10
77.997534
20
119.404059
11
74.993367
21
120.707806
0
LINE
8
Calque 1
10
74.993367
20
120.707806
11
72.494485
21
122.065267
0
LINE
8
Calque 1
10
72.494485
20
122.065267
11
70.485969
21
123.488765
0
LINE
8
Calque 1
10
70.485969
20
123.488765
11
68.952898
21
124.990624
0
LINE
8
Calque 1
10
68.952898
20
124.990624
11
67.880352
21
126.583167
0
LINE
8
Calque 1
10
67.880352
20
126.583167
11
67.253412
21
128.278721
0
LINE
8
Calque 1
10
67.253412
20
128.278721
11
67.057157
21
130.089607
0
LINE
8
Calque 1
10
67.057157
20
130.089607
11
67.156934
21
131.137676
0
LINE
8
Calque 1
10
67.156934
20
131.137676
11
67.445714
21
132.149651
0
LINE
8
Calque 1
10
67.445714
20
132.149651
11
67.931850
21
133.135644
0
LINE
8
Calque 1
10
67.931850
20
133.135644
11
68.623695
21
134.105770
0
LINE
8
Calque 1
10
68.623695
20
134.105770
11
69.529604
21
135.070143
0
LINE
8
Calque 1
10
69.529604
20
135.070143
11
70.657929
21
136.038877
0
LINE
8
Calque 1
10
70.657929
20
136.038877
11
73.615245
21
138.029889
0
LINE
8
Calque 1
10
73.615245
20
138.029889
11
75.849789
21
139.232392
0
LINE
8
Calque 1
10
75.849789
20
139.232392
11
78.336777
21
140.332609
0
LINE
8
Calque 1
10
78.336777
20
140.332609
11
81.071817
21
141.329350
0
LINE
8
Calque 1
10
81.071817
20
141.329350
11
84.050519
21
142.221426
0
LINE
8
Calque 1
10
84.050519
20
142.221426
11
87.268492
21
143.007649
0
LINE
8
Calque 1
10
87.268492
20
143.007649
11
90.721345
21
143.686829
0
LINE
8
Calque 1
10
90.721345
20
143.686829
11
98.314129
21
144.719304
0
LINE
8
Calque 1
10
98.314129
20
144.719304
11
101.892284
21
144.936779
0
LINE
8
Calque 1
10
101.892284
20
144.936779
11
106.481650
21
145.037564
0
LINE
8
Calque 1
10
106.481650
20
145.037564
11
110.958742
21
145.012300
0
LINE
8
Calque 1
10
110.958742
20
145.012300
11
114.200079
21
144.851629
0
LINE
8
Calque 1
10
114.200079
20
144.851629
11
116.257143
21
144.639886
0
LINE
8
Calque 1
10
116.257143
20
144.639886
11
117.096921
21
142.976297
0
LINE
8
Calque 1
10
117.096921
20
142.976297
11
117.941046
21
141.587190
0
LINE
8
Calque 1
10
117.941046
20
141.587190
11
118.315348
21
141.363651
0
LINE
8
Calque 1
10
118.315348
20
141.363651
11
118.802822
21
141.312707
0
LINE
8
Calque 1
10
118.802822
20
141.312707
11
119.445415
21
141.210165
0
LINE
8
Calque 1
10
119.445415
20
141.210165
11
119.529544
21
141.069394
0
LINE
8
Calque 1
10
119.529544
20
141.069394
11
119.448120
21
140.857758
0
LINE
8
Calque 1
10
119.448120
20
140.857758
11
118.766295
21
140.188310
0
LINE
8
Calque 1
10
118.766295
20
140.188310
11
117.355293
21
139.134645
0
LINE
8
Calque 1
10
117.355293
20
139.134645
11
114.963310
21
137.330883
0
LINE
8
Calque 1
10
114.963310
20
137.330883
11
113.473537
21
135.889815
0
LINE
8
Calque 1
10
113.473537
20
135.889815
11
112.715876
21
134.605145
0
LINE
8
Calque 1
10
112.715876
20
134.605145
11
112.520233
21
133.270578
0
LINE
8
Calque 1
10
112.520233
20
133.270578
11
112.618524
21
132.264952
0
LINE
8
Calque 1
10
112.618524
20
132.264952
11
112.948393
21
131.306185
0
LINE
8
Calque 1
10
112.948393
20
131.306185
11
113.629341
21
130.143472
0
LINE
8
Calque 1
10
113.629341
20
130.143472
11
114.780870
21
128.526008
0
LINE
8
Calque 1
10
114.780870
20
128.526008
11
115.861719
21
126.948541
0
LINE
8
Calque 1
10
115.861719
20
126.948541
11
116.474429
21
125.714416
0
LINE
8
Calque 1
10
116.474429
20
125.714416
11
116.677320
21
124.659993
0
LINE
8
Calque 1
10
116.677320
20
124.659993
11
116.528709
21
123.621632
0
LINE
8
Calque 1
10
116.528709
20
123.621632
11
116.074076
21
122.271661
0
LINE
8
Calque 1
10
116.074076
20
122.271661
11
115.738769
21
121.968040
0
LINE
8
Calque 1
10
115.738769
20
121.968040
11
115.198537
21
121.932307
0
LINE
8
Calque 1
10
115.198537
20
121.932307
11
113.104515
21
122.725450
0
LINE
8
Calque 1
10
113.104515
20
122.725450
11
108.994434
21
124.772969
0
LINE
8
Calque 1
10
108.994434
20
124.772969
11
103.060754
21
127.608871
0
LINE
8
Calque 1
10
103.060754
20
127.608871
11
100.807118
21
128.528128
0
LINE
8
Calque 1
10
100.807118
20
128.528128
11
98.946355
21
129.137473
0
LINE
8
Calque 1
10
98.946355
20
129.137473
11
97.416517
21
129.453819
0
LINE
8
Calque 1
10
97.416517
20
129.453819
11
96.155658
21
129.494077
0
LINE
8
Calque 1
10
96.155658
20
129.494077
11
95.101830
21
129.275160
0
LINE
8
Calque 1
10
95.101830
20
129.275160
11
94.193086
21
128.813982
0
LINE
8
Calque 1
10
94.193086
20
128.813982
11
93.129285
21
127.849174
0
LINE
8
Calque 1
10
93.129285
20
127.849174
11
91.737414
21
126.165652
0
LINE
8
Calque 1
10
91.737414
20
126.165652
11
87.967524
21
120.639929
0
LINE
8
Calque 1
10
87.967524
20
120.639929
11
86.166574
21
118.001974
0
LINE
8
Calque 1
10
86.166574
20
118.001974
11
85.571783
21
117.297251
0
LINE
8
Calque 1
10
85.571783
20
117.297251
11
85.223782
21
117.058165
0
LINE
8
Calque 1
10
85.223782
20
117.058165
11
81.521907
21
118.141701
0
LINE
8
Calque 1
10
81.521907
20
118.141701
11
81.521907
21
118.141701
0
LINE
8
Calque 1
10
135.987161
20
122.333262
11
134.304256
21
126.427846
0
LINE
8
Calque 1
10
134.304256
20
126.427846
11
133.043600
21
129.953262
0
LINE
8
Calque 1
10
133.043600
20
129.953262
11
132.973197
21
130.313908
0
LINE
8
Calque 1
10
132.973197
20
130.313908
11
133.160013
21
130.503141
0
LINE
8
Calque 1
10
133.160013
20
130.503141
11
134.978290
21
130.588262
0
LINE
8
Calque 1
10
134.978290
20
130.588262
11
136.744248
21
130.697940
0
LINE
8
Calque 1
10
136.744248
20
130.697940
11
138.147986
21
131.023595
0
LINE
8
Calque 1
10
138.147986
20
131.023595
11
139.175214
21
131.560159
0
LINE
8
Calque 1
10
139.175214
20
131.560159
11
139.811639
21
132.302562
0
LINE
8
Calque 1
10
139.811639
20
132.302562
11
140.165733
21
133.119809
0
LINE
8
Calque 1
10
140.165733
20
133.119809
11
140.190968
21
133.633415
0
LINE
8
Calque 1
10
140.190968
20
133.633415
11
139.865078
21
133.901255
0
LINE
8
Calque 1
10
139.865078
20
133.901255
11
139.165796
21
133.981205
0
LINE
8
Calque 1
10
139.165796
20
133.981205
11
138.107462
21
133.987479
0
LINE
8
Calque 1
10
138.107462
20
133.987479
11
138.775564
21
134.501276
0
LINE
8
Calque 1
10
138.775564
20
134.501276
11
139.242681
21
135.025531
0
LINE
8
Calque 1
10
139.242681
20
135.025531
11
139.266634
21
135.572851
0
LINE
8
Calque 1
10
139.266634
20
135.572851
11
139.233979
21
135.882782
0
LINE
8
Calque 1
10
139.233979
20
135.882782
11
139.465364
21
136.095114
0
LINE
8
Calque 1
10
139.465364
20
136.095114
11
141.253870
21
136.467103
0
LINE
8
Calque 1
10
141.253870
20
136.467103
11
142.633307
21
136.664941
0
LINE
8
Calque 1
10
142.633307
20
136.664941
11
143.505115
21
136.578944
0
LINE
8
Calque 1
10
143.505115
20
136.578944
11
144.360493
21
136.027960
0
LINE
8
Calque 1
10
144.360493
20
136.027960
11
145.690641
21
134.830835
0
LINE
8
Calque 1
10
145.690641
20
134.830835
11
146.659962
21
133.729504
0
LINE
8
Calque 1
10
146.659962
20
133.729504
11
147.429831
21
132.426800
0
LINE
8
Calque 1
10
147.429831
20
132.426800
11
147.937653
21
131.053804
0
LINE
8
Calque 1
10
147.937653
20
131.053804
11
148.120837
21
129.741595
0
LINE
8
Calque 1
10
148.120837
20
129.741595
11
147.965362
21
128.479291
0
LINE
8
Calque 1
10
147.965362
20
128.479291
11
147.508781
21
127.210207
0
LINE
8
Calque 1
10
147.508781
20
127.210207
11
146.765857
21
125.950043
0
LINE
8
Calque 1
10
146.765857
20
125.950043
11
145.751353
21
124.714499
0
LINE
8
Calque 1
10
145.751353
20
124.714499
11
144.480032
21
123.519273
0
LINE
8
Calque 1
10
144.480032
20
123.519273
11
142.966658
21
122.380067
0
LINE
8
Calque 1
10
142.966658
20
122.380067
11
141.225994
21
121.312578
0
LINE
8
Calque 1
10
141.225994
20
121.312578
11
139.272803
21
120.332507
0
LINE
8
Calque 1
10
139.272803
20
120.332507
11
137.408110
21
119.581595
0
LINE
8
Calque 1
10
137.408110
20
119.581595
11
136.904985
21
120.389898
0
LINE
8
Calque 1
10
136.904985
20
120.389898
11
135.987161
21
122.333262
0
LINE
8
Calque 1
10
135.987161
20
122.333262
11
135.987161
21
122.333262
 0 
ENDSEC
 0 
EOF
