999
"DXF R12 Output" (www.mydxf.blogspot.com)
 0 
SECTION
 2 
HEADER
 9 
$ACADVER
 1 
AC1009
 9 
$EXTMIN
 10 
 0 
 20 
 0 
 9 
$EXTMAX
 10 
 8.5 
 20 
 11 
 0 
ENDSEC
 0 
SECTION
 2 
ENTITIES
0
LINE
8
Calque 1
10
56.646030
20
137.811449
11
56.646030
21
154.468927
0
LINE
8
Calque 1
10
56.646030
20
154.468927
11
61.796586
21
154.392005
0
LINE
8
Calque 1
10
61.796586
20
154.392005
11
66.947141
21
154.315082
0
LINE
8
Calque 1
10
66.947141
20
154.315082
11
70.526721
21
147.118416
0
LINE
8
Calque 1
10
70.526721
20
147.118416
11
74.106301
21
139.921749
0
LINE
8
Calque 1
10
74.106301
20
139.921749
11
74.125054
21
147.188971
0
LINE
8
Calque 1
10
74.125054
20
147.188971
11
74.143808
21
154.456193
0
LINE
8
Calque 1
10
74.143808
20
154.456193
11
103.186075
21
154.456193
0
LINE
8
Calque 1
10
103.186075
20
154.456193
11
132.228342
21
154.456193
0
LINE
8
Calque 1
10
132.228342
20
154.456193
11
132.254786
21
156.901940
0
LINE
8
Calque 1
10
132.254786
20
156.901940
11
132.365186
21
159.431644
0
LINE
8
Calque 1
10
132.365186
20
159.431644
11
137.512981
21
154.445898
0
LINE
8
Calque 1
10
137.512981
20
154.445898
11
142.576815
21
149.376193
0
LINE
8
Calque 1
10
142.576815
20
149.376193
11
137.502697
21
144.296193
0
LINE
8
Calque 1
10
137.502697
20
144.296193
11
132.213971
21
139.216193
0
LINE
8
Calque 1
10
132.213971
20
139.216193
11
132.062405
21
140.045221
0
LINE
8
Calque 1
10
132.062405
20
140.045221
11
131.999363
21
142.038416
0
LINE
8
Calque 1
10
131.999363
20
142.038416
11
131.999363
21
144.860638
0
LINE
8
Calque 1
10
131.999363
20
144.860638
11
107.549058
21
144.860638
0
LINE
8
Calque 1
10
107.549058
20
144.860638
11
83.098756
21
144.860638
0
LINE
8
Calque 1
10
83.098756
20
144.860638
11
83.229831
21
133.001254
0
LINE
8
Calque 1
10
83.229831
20
133.001254
11
83.360906
21
121.141870
0
LINE
8
Calque 1
10
83.360906
20
121.141870
11
78.127693
21
121.218476
0
LINE
8
Calque 1
10
78.127693
20
121.218476
11
72.894481
21
121.295082
0
LINE
8
Calque 1
10
72.894481
20
121.295082
11
69.497476
21
127.754257
0
LINE
8
Calque 1
10
69.497476
20
127.754257
11
66.100475
21
134.213432
0
LINE
8
Calque 1
10
66.100475
20
134.213432
11
66.024718
21
127.683702
0
LINE
8
Calque 1
10
66.024718
20
127.683702
11
65.948961
21
121.153971
0
LINE
8
Calque 1
10
65.948961
20
121.153971
11
61.297495
21
121.153971
0
LINE
8
Calque 1
10
61.297495
20
121.153971
11
56.646030
21
121.153971
0
LINE
8
Calque 1
10
56.646030
20
121.153971
11
56.646030
21
137.811449
0
LINE
8
Calque 1
10
56.646030
20
137.811449
11
56.646030
21
137.811449
0
LINE
8
Calque 1
10
64.614730
20
131.243416
11
64.689363
21
139.921749
0
LINE
8
Calque 1
10
64.689363
20
139.921749
11
69.204919
21
131.249077
0
LINE
8
Calque 1
10
69.204919
20
131.249077
11
73.720475
21
122.576402
0
LINE
8
Calque 1
10
73.720475
20
122.576402
11
77.825645
21
122.570744
0
LINE
8
Calque 1
10
77.825645
20
122.570744
11
81.930816
21
122.565082
0
LINE
8
Calque 1
10
81.930816
20
122.565082
11
81.812113
21
134.418416
0
LINE
8
Calque 1
10
81.812113
20
134.418416
11
81.693410
21
146.271749
0
LINE
8
Calque 1
10
81.693410
20
146.271749
11
107.551942
21
146.271749
0
LINE
8
Calque 1
10
107.551942
20
146.271749
11
133.410475
21
146.271749
0
LINE
8
Calque 1
10
133.410475
20
146.271749
11
133.410475
21
144.227021
0
LINE
8
Calque 1
10
133.410475
20
144.227021
11
133.410475
21
142.182293
0
LINE
8
Calque 1
10
133.410475
20
142.182293
11
137.007397
21
145.779215
0
LINE
8
Calque 1
10
137.007397
20
145.779215
11
140.604319
21
149.376137
0
LINE
8
Calque 1
10
140.604319
20
149.376137
11
137.148508
21
152.831948
0
LINE
8
Calque 1
10
137.148508
20
152.831948
11
133.692697
21
156.287759
0
LINE
8
Calque 1
10
133.692697
20
156.287759
11
133.692697
21
154.666421
0
LINE
8
Calque 1
10
133.692697
20
154.666421
11
133.692697
21
153.045082
0
LINE
8
Calque 1
10
133.692697
20
153.045082
11
104.623808
21
153.045082
0
LINE
8
Calque 1
10
104.623808
20
153.045082
11
75.554919
21
153.045082
0
LINE
8
Calque 1
10
75.554919
20
153.045082
11
75.554919
21
143.534193
0
LINE
8
Calque 1
10
75.554919
20
143.534193
11
75.484487
21
136.762446
0
LINE
8
Calque 1
10
75.484487
20
136.762446
11
75.404963
21
134.884998
0
LINE
8
Calque 1
10
75.404963
20
134.884998
11
75.303470
21
134.291416
0
LINE
8
Calque 1
10
75.303470
20
134.291416
11
70.603138
21
143.802305
0
LINE
8
Calque 1
10
70.603138
20
143.802305
11
66.154252
21
153.045082
0
LINE
8
Calque 1
10
66.154252
20
153.045082
11
62.105698
21
153.045082
0
LINE
8
Calque 1
10
62.105698
20
153.045082
11
58.057141
21
153.045082
0
LINE
8
Calque 1
10
58.057141
20
153.045082
11
58.057141
21
137.805082
0
LINE
8
Calque 1
10
58.057141
20
137.805082
11
58.057141
21
122.565082
0
LINE
8
Calque 1
10
58.057141
20
122.565082
11
61.298619
21
122.565082
0
LINE
8
Calque 1
10
61.298619
20
122.565082
11
64.540096
21
122.565082
0
LINE
8
Calque 1
10
64.540096
20
122.565082
11
64.614730
21
131.243416
0
LINE
8
Calque 1
10
64.614730
20
131.243416
11
64.614730
21
131.243416
0
LINE
8
Calque 1
10
84.303808
20
132.587067
11
84.303808
21
144.020163
0
LINE
8
Calque 1
10
84.303808
20
144.020163
11
96.086586
21
143.946512
0
LINE
8
Calque 1
10
96.086586
20
143.946512
11
107.869363
21
143.872860
0
LINE
8
Calque 1
10
107.869363
20
143.872860
11
107.943119
21
132.513416
0
LINE
8
Calque 1
10
107.943119
20
132.513416
11
108.016878
21
121.153971
0
LINE
8
Calque 1
10
108.016878
20
121.153971
11
96.160342
21
121.153971
0
LINE
8
Calque 1
10
96.160342
20
121.153971
11
84.303808
21
121.153971
0
LINE
8
Calque 1
10
84.303808
20
121.153971
11
84.303808
21
132.587067
0
LINE
8
Calque 1
10
84.303808
20
132.587067
11
84.303808
21
132.587067
0
LINE
8
Calque 1
10
106.599363
20
132.583971
11
106.599363
21
142.602860
0
LINE
8
Calque 1
10
106.599363
20
142.602860
11
96.157141
21
142.602860
0
LINE
8
Calque 1
10
96.157141
20
142.602860
11
85.714919
21
142.602860
0
LINE
8
Calque 1
10
85.714919
20
142.602860
11
85.714919
21
132.583971
0
LINE
8
Calque 1
10
85.714919
20
132.583971
11
85.714919
21
122.565082
0
LINE
8
Calque 1
10
85.714919
20
122.565082
11
96.157141
21
122.565082
0
LINE
8
Calque 1
10
96.157141
20
122.565082
11
106.599363
21
122.565082
0
LINE
8
Calque 1
10
106.599363
20
122.565082
11
106.599363
21
132.583971
0
LINE
8
Calque 1
10
106.599363
20
132.583971
11
106.599363
21
132.583971
0
LINE
8
Calque 1
10
90.512697
20
132.160638
11
90.512697
21
137.805082
0
LINE
8
Calque 1
10
90.512697
20
137.805082
11
95.874919
21
137.805082
0
LINE
8
Calque 1
10
95.874919
20
137.805082
11
101.237141
21
137.805082
0
LINE
8
Calque 1
10
101.237141
20
137.805082
11
101.237141
21
132.160638
0
LINE
8
Calque 1
10
101.237141
20
132.160638
11
101.237141
21
126.516193
0
LINE
8
Calque 1
10
101.237141
20
126.516193
11
95.874919
21
126.516193
0
LINE
8
Calque 1
10
95.874919
20
126.516193
11
90.512697
21
126.516193
0
LINE
8
Calque 1
10
90.512697
20
126.516193
11
90.512697
21
132.160638
0
LINE
8
Calque 1
10
90.512697
20
132.160638
11
90.512697
21
132.160638
0
LINE
8
Calque 1
10
99.763018
20
132.090082
11
99.684919
21
136.252860
0
LINE
8
Calque 1
10
99.684919
20
136.252860
11
95.874919
21
136.252860
0
LINE
8
Calque 1
10
95.874919
20
136.252860
11
92.064919
21
136.252860
0
LINE
8
Calque 1
10
92.064919
20
136.252860
11
91.986820
21
132.090082
0
LINE
8
Calque 1
10
91.986820
20
132.090082
11
91.908717
21
127.927305
0
LINE
8
Calque 1
10
91.908717
20
127.927305
11
95.874919
21
127.927305
0
LINE
8
Calque 1
10
95.874919
20
127.927305
11
99.841121
21
127.927305
0
LINE
8
Calque 1
10
99.841121
20
127.927305
11
99.763018
21
132.090082
0
LINE
8
Calque 1
10
99.763018
20
132.090082
11
99.763018
21
132.090082
0
LINE
8
Calque 1
10
109.201726
20
124.893416
11
109.280475
21
128.632860
0
LINE
8
Calque 1
10
109.280475
20
128.632860
11
116.194919
21
128.781549
0
LINE
8
Calque 1
10
116.194919
20
128.781549
11
123.109363
21
128.930238
0
LINE
8
Calque 1
10
123.109363
20
128.930238
11
116.119679
21
128.993216
0
LINE
8
Calque 1
10
116.119679
20
128.993216
11
109.129991
21
129.056193
0
LINE
8
Calque 1
10
109.129991
20
129.056193
11
109.205234
21
136.464527
0
LINE
8
Calque 1
10
109.205234
20
136.464527
11
109.280475
21
143.872860
0
LINE
8
Calque 1
10
109.280475
20
143.872860
11
120.146030
21
143.872860
0
LINE
8
Calque 1
10
120.146030
20
143.872860
11
131.011586
21
143.872860
0
LINE
8
Calque 1
10
131.011586
20
143.872860
11
131.011586
21
140.627305
0
LINE
8
Calque 1
10
131.011586
20
140.627305
11
131.011586
21
137.381749
0
LINE
8
Calque 1
10
131.011586
20
137.381749
11
124.026586
21
137.306263
0
LINE
8
Calque 1
10
124.026586
20
137.306263
11
118.316952
21
137.169065
0
LINE
8
Calque 1
10
118.316952
20
137.169065
11
117.301567
21
137.032366
0
LINE
8
Calque 1
10
117.301567
20
137.032366
11
117.041586
21
136.817305
0
LINE
8
Calque 1
10
117.041586
20
136.817305
11
117.301567
21
136.602243
0
LINE
8
Calque 1
10
117.301567
20
136.602243
11
118.316952
21
136.465544
0
LINE
8
Calque 1
10
118.316952
20
136.465544
11
124.026586
21
136.328346
0
LINE
8
Calque 1
10
124.026586
20
136.328346
11
131.011586
21
136.252860
0
LINE
8
Calque 1
10
131.011586
20
136.252860
11
131.086750
21
128.703416
0
LINE
8
Calque 1
10
131.086750
20
128.703416
11
131.161917
21
121.153971
0
LINE
8
Calque 1
10
131.161917
20
121.153971
11
120.142449
21
121.153971
0
LINE
8
Calque 1
10
120.142449
20
121.153971
11
109.122980
21
121.153971
0
LINE
8
Calque 1
10
109.122980
20
121.153971
11
109.201726
21
124.893416
0
LINE
8
Calque 1
10
109.201726
20
124.893416
11
109.201726
21
124.893416
0
LINE
8
Calque 1
10
129.676533
20
128.703416
11
129.600475
21
134.841749
0
LINE
8
Calque 1
10
129.600475
20
134.841749
11
122.602137
21
134.917263
0
LINE
8
Calque 1
10
122.602137
20
134.917263
11
115.603799
21
134.992780
0
LINE
8
Calque 1
10
115.603799
20
134.992780
11
115.687692
21
136.751708
0
LINE
8
Calque 1
10
115.687692
20
136.751708
11
115.771586
21
138.510638
0
LINE
8
Calque 1
10
115.771586
20
138.510638
11
122.769368
21
138.586152
0
LINE
8
Calque 1
10
122.769368
20
138.586152
11
129.767149
21
138.661666
0
LINE
8
Calque 1
10
129.767149
20
138.661666
11
129.683812
21
140.561708
0
LINE
8
Calque 1
10
129.683812
20
140.561708
11
129.600475
21
142.461749
0
LINE
8
Calque 1
10
129.600475
20
142.461749
11
120.075475
21
142.536058
0
LINE
8
Calque 1
10
120.075475
20
142.536058
11
110.550475
21
142.610367
0
LINE
8
Calque 1
10
110.550475
20
142.610367
11
110.550475
21
136.538836
0
LINE
8
Calque 1
10
110.550475
20
136.538836
11
110.550475
21
130.467305
0
LINE
8
Calque 1
10
110.550475
20
130.467305
11
117.464919
21
130.467305
0
LINE
8
Calque 1
10
117.464919
20
130.467305
11
124.379363
21
130.467305
0
LINE
8
Calque 1
10
124.379363
20
130.467305
11
124.379363
21
128.915082
0
LINE
8
Calque 1
10
124.379363
20
128.915082
11
124.379363
21
127.362860
0
LINE
8
Calque 1
10
124.379363
20
127.362860
11
117.464919
21
127.362860
0
LINE
8
Calque 1
10
117.464919
20
127.362860
11
110.550475
21
127.362860
0
LINE
8
Calque 1
10
110.550475
20
127.362860
11
110.550475
21
124.963971
0
LINE
8
Calque 1
10
110.550475
20
124.963971
11
110.550475
21
122.565082
0
LINE
8
Calque 1
10
110.550475
20
122.565082
11
120.151533
21
122.565082
0
LINE
8
Calque 1
10
120.151533
20
122.565082
11
129.752592
21
122.565082
0
LINE
8
Calque 1
10
129.752592
20
122.565082
11
129.676533
21
128.703416
0
LINE
8
Calque 1
10
129.676533
20
128.703416
11
129.676533
21
128.703416
 0 
ENDSEC
 0 
EOF
