999
"DXF R12 Output" (www.mydxf.blogspot.com)
 0 
SECTION
 2 
HEADER
 9 
$ACADVER
 1 
AC1009
 9 
$EXTMIN
 10 
 0 
 20 
 0 
 9 
$EXTMAX
 10 
 8.5 
 20 
 11 
 0 
ENDSEC
 0 
SECTION
 2 
ENTITIES
0
LINE
8
Calque 1
10
50.074285
20
152.375479
11
55.361399
21
168.291070
0
LINE
8
Calque 1
10
55.361399
20
168.291070
11
61.082391
21
184.952133
0
LINE
8
Calque 1
10
61.082391
20
184.952133
11
61.331108
21
185.321042
0
LINE
8
Calque 1
10
61.331108
20
185.321042
11
62.039719
21
185.502955
0
LINE
8
Calque 1
10
62.039719
20
185.502955
11
67.074105
21
185.516578
0
LINE
8
Calque 1
10
67.074105
20
185.516578
11
72.791805
21
185.440169
0
LINE
8
Calque 1
10
72.791805
20
185.440169
11
73.536931
21
180.924613
0
LINE
8
Calque 1
10
73.536931
20
180.924613
11
74.136486
21
177.754443
0
LINE
8
Calque 1
10
74.136486
20
177.754443
11
74.344551
21
177.043331
0
LINE
8
Calque 1
10
74.344551
20
177.043331
11
74.477519
21
176.973502
0
LINE
8
Calque 1
10
74.477519
20
176.973502
11
75.858404
21
181.347947
0
LINE
8
Calque 1
10
75.858404
20
181.347947
11
77.043828
21
185.157947
0
LINE
8
Calque 1
10
77.043828
20
185.157947
11
107.679343
21
185.229750
0
LINE
8
Calque 1
10
107.679343
20
185.229750
11
138.314856
21
185.301555
0
LINE
8
Calque 1
10
138.314856
20
185.301555
11
139.217437
21
188.263639
0
LINE
8
Calque 1
10
139.217437
20
188.263639
11
139.914587
21
190.351019
0
LINE
8
Calque 1
10
139.914587
20
190.351019
11
140.323262
21
191.210089
0
LINE
8
Calque 1
10
140.323262
20
191.210089
11
144.325237
21
186.103465
0
LINE
8
Calque 1
10
144.325237
20
186.103465
11
148.226213
21
180.665531
0
LINE
8
Calque 1
10
148.226213
20
180.665531
11
146.725387
21
179.363026
0
LINE
8
Calque 1
10
146.725387
20
179.363026
11
143.005102
21
176.690064
0
LINE
8
Calque 1
10
143.005102
20
176.690064
11
135.613196
21
171.548054
0
LINE
8
Calque 1
10
135.613196
20
171.548054
11
134.097395
21
170.532511
0
LINE
8
Calque 1
10
134.097395
20
170.532511
11
133.389441
21
170.187607
0
LINE
8
Calque 1
10
133.389441
20
170.187607
11
133.907514
21
172.378750
0
LINE
8
Calque 1
10
133.907514
20
172.378750
11
134.922503
21
175.566006
0
LINE
8
Calque 1
10
134.922503
20
175.566006
11
134.800712
21
175.690130
0
LINE
8
Calque 1
10
134.800712
20
175.690130
11
134.206107
21
175.787472
0
LINE
8
Calque 1
10
134.206107
20
175.787472
11
130.861106
21
175.914430
0
LINE
8
Calque 1
10
130.861106
20
175.914430
11
110.386532
21
175.985724
0
LINE
8
Calque 1
10
110.386532
20
175.985724
11
85.689502
21
175.985724
0
LINE
8
Calque 1
10
85.689502
20
175.985724
11
85.356488
21
175.068502
0
LINE
8
Calque 1
10
85.356488
20
175.068502
11
82.058620
21
165.684613
0
LINE
8
Calque 1
10
82.058620
20
165.684613
11
78.201246
21
154.677947
0
LINE
8
Calque 1
10
78.201246
20
154.677947
11
77.308730
21
152.137947
0
LINE
8
Calque 1
10
77.308730
20
152.137947
11
71.896882
21
152.061371
0
LINE
8
Calque 1
10
71.896882
20
152.061371
11
67.303228
21
152.074291
0
LINE
8
Calque 1
10
67.303228
20
152.074291
11
66.566449
21
152.214769
0
LINE
8
Calque 1
10
66.566449
20
152.214769
11
66.343496
21
152.484705
0
LINE
8
Calque 1
10
66.343496
20
152.484705
11
65.581581
21
157.076836
0
LINE
8
Calque 1
10
65.581581
20
157.076836
11
64.775159
21
161.376418
0
LINE
8
Calque 1
10
64.775159
20
161.376418
11
64.198015
21
160.114784
0
LINE
8
Calque 1
10
64.198015
20
160.114784
11
63.071657
21
156.790307
0
LINE
8
Calque 1
10
63.071657
20
156.790307
11
61.554196
21
151.996836
0
LINE
8
Calque 1
10
61.554196
20
151.996836
11
55.814239
21
151.996836
0
LINE
8
Calque 1
10
55.814239
20
151.996836
11
51.214410
21
152.072046
0
LINE
8
Calque 1
10
51.214410
20
152.072046
11
50.322459
21
152.187940
0
LINE
8
Calque 1
10
50.322459
20
152.187940
11
50.074285
21
152.375479
0
LINE
8
Calque 1
10
50.074285
20
152.375479
11
50.074285
21
152.375479
0
LINE
8
Calque 1
10
78.860952
20
152.091078
11
82.529841
21
162.960373
0
LINE
8
Calque 1
10
82.529841
20
162.960373
11
86.198730
21
174.010705
0
LINE
8
Calque 1
10
86.198730
20
174.010705
11
89.087933
21
174.220069
0
LINE
8
Calque 1
10
89.087933
20
174.220069
11
97.451875
21
174.292391
0
LINE
8
Calque 1
10
97.451875
20
174.292391
11
108.705021
21
174.292391
0
LINE
8
Calque 1
10
108.705021
20
174.292391
11
105.557357
21
164.626280
0
LINE
8
Calque 1
10
105.557357
20
164.626280
11
101.980842
21
153.549058
0
LINE
8
Calque 1
10
101.980842
20
153.549058
11
101.551991
21
152.137947
0
LINE
8
Calque 1
10
101.551991
20
152.137947
11
90.206472
21
152.064191
0
LINE
8
Calque 1
10
90.206472
20
152.064191
11
78.860952
21
152.091078
0
LINE
8
Calque 1
10
78.860952
20
152.091078
11
78.860952
21
152.091078
0
LINE
8
Calque 1
10
95.911958
20
162.933178
11
97.487619
21
167.883937
0
LINE
8
Calque 1
10
97.487619
20
167.883937
11
96.852075
21
168.017436
0
LINE
8
Calque 1
10
96.852075
20
168.017436
11
95.324066
21
168.024817
0
LINE
8
Calque 1
10
95.324066
20
168.024817
11
93.160514
21
167.942391
0
LINE
8
Calque 1
10
93.160514
20
167.942391
11
91.535583
21
163.074058
0
LINE
8
Calque 1
10
91.535583
20
163.074058
11
89.910655
21
158.205724
0
LINE
8
Calque 1
10
89.910655
20
158.205724
11
92.123474
21
158.205724
0
LINE
8
Calque 1
10
92.123474
20
158.205724
11
94.336294
21
158.205724
0
LINE
8
Calque 1
10
94.336294
20
158.205724
11
95.911958
21
162.933178
0
LINE
8
Calque 1
10
95.911958
20
162.933178
11
95.911958
21
162.933178
0
LINE
8
Calque 1
10
103.414285
20
152.165582
11
104.308825
21
155.270026
0
LINE
8
Calque 1
10
104.308825
20
155.270026
11
105.203363
21
158.205724
0
LINE
8
Calque 1
10
105.203363
20
158.205724
11
111.477882
21
158.205724
0
LINE
8
Calque 1
10
111.477882
20
158.205724
11
117.752402
21
158.205724
0
LINE
8
Calque 1
10
117.752402
20
158.205724
11
118.062231
21
159.094504
0
LINE
8
Calque 1
10
118.062231
20
159.094504
11
118.372063
21
160.223393
0
LINE
8
Calque 1
10
118.372063
20
160.223393
11
116.589653
21
160.392970
0
LINE
8
Calque 1
10
116.589653
20
160.392970
11
112.304285
21
160.463502
0
LINE
8
Calque 1
10
112.304285
20
160.463502
11
108.018917
21
160.532002
0
LINE
8
Calque 1
10
108.018917
20
160.532002
11
106.236508
21
160.696694
0
LINE
8
Calque 1
10
106.236508
20
160.696694
11
108.323975
21
167.540583
0
LINE
8
Calque 1
10
108.323975
20
167.540583
11
110.411441
21
174.151280
0
LINE
8
Calque 1
10
110.411441
20
174.151280
11
121.696378
21
174.225008
0
LINE
8
Calque 1
10
121.696378
20
174.225008
11
132.981313
21
174.298738
0
LINE
8
Calque 1
10
132.981313
20
174.298738
11
132.110618
21
171.332230
0
LINE
8
Calque 1
10
132.110618
20
171.332230
11
131.239923
21
168.365724
0
LINE
8
Calque 1
10
131.239923
20
168.365724
11
124.674813
21
168.365724
0
LINE
8
Calque 1
10
124.674813
20
168.365724
11
119.023967
21
168.286163
0
LINE
8
Calque 1
10
119.023967
20
168.286163
11
118.133288
21
168.122686
0
LINE
8
Calque 1
10
118.133288
20
168.122686
11
117.817547
21
167.819833
0
LINE
8
Calque 1
10
117.817547
20
167.819833
11
117.481073
21
166.991944
0
LINE
8
Calque 1
10
117.481073
20
166.991944
11
117.601547
21
166.737787
0
LINE
8
Calque 1
10
117.601547
20
166.737787
11
118.012010
21
166.567664
0
LINE
8
Calque 1
10
118.012010
20
166.567664
11
119.995456
21
166.412053
0
LINE
8
Calque 1
10
119.995456
20
166.412053
11
124.016508
21
166.390169
0
LINE
8
Calque 1
10
124.016508
20
166.390169
11
129.329483
21
166.315119
0
LINE
8
Calque 1
10
129.329483
20
166.315119
11
130.268665
21
166.189440
0
LINE
8
Calque 1
10
130.268665
20
166.189440
11
130.507619
21
165.976668
0
LINE
8
Calque 1
10
130.507619
20
165.976668
11
128.551846
21
159.105476
0
LINE
8
Calque 1
10
128.551846
20
159.105476
11
126.400402
21
152.254798
0
LINE
8
Calque 1
10
126.400402
20
152.254798
11
122.735356
21
152.082460
0
LINE
8
Calque 1
10
122.735356
20
152.082460
11
114.842041
21
151.999120
0
LINE
8
Calque 1
10
114.842041
20
151.999120
11
106.981378
21
152.021315
0
LINE
8
Calque 1
10
106.981378
20
152.021315
11
103.414285
21
152.165582
0
LINE
8
Calque 1
10
103.414285
20
152.165582
11
103.414285
21
152.165582
 0 
ENDSEC
 0 
EOF
