999
"DXF R12 Output" (www.mydxf.blogspot.com)
 0 
SECTION
 2 
HEADER
 9 
$ACADVER
 1 
AC1009
 9 
$EXTMIN
 10 
 0 
 20 
 0 
 9 
$EXTMAX
 10 
 8.5 
 20 
 11 
 0 
ENDSEC
 0 
SECTION
 2 
ENTITIES
0
LINE
8
Calque 1
10
-71.744922
20
82.995687
11
-79.104343
21
83.395831
0
LINE
8
Calque 1
10
-79.104343
20
83.395831
11
-83.416771
21
83.746599
0
LINE
8
Calque 1
10
-83.416771
20
83.746599
11
-85.915989
21
84.192243
0
LINE
8
Calque 1
10
-85.915989
20
84.192243
11
-87.835780
21
84.877017
0
LINE
8
Calque 1
10
-87.835780
20
84.877017
11
-92.991060
21
87.109316
0
LINE
8
Calque 1
10
-92.991060
20
87.109316
11
-97.586352
21
89.266335
0
LINE
8
Calque 1
10
-97.586352
20
89.266335
11
-101.617481
21
91.345500
0
LINE
8
Calque 1
10
-101.617481
20
91.345500
11
-105.080273
21
93.344240
0
LINE
8
Calque 1
10
-105.080273
20
93.344240
11
-107.970553
21
95.259983
0
LINE
8
Calque 1
10
-107.970553
20
95.259983
11
-110.284146
21
97.090156
0
LINE
8
Calque 1
10
-110.284146
20
97.090156
11
-112.016879
21
98.832187
0
LINE
8
Calque 1
10
-112.016879
20
98.832187
11
-113.164578
21
100.483505
0
LINE
8
Calque 1
10
-113.164578
20
100.483505
11
-114.661386
21
106.269060
0
LINE
8
Calque 1
10
-114.661386
20
106.269060
11
-115.637685
21
111.139235
0
LINE
8
Calque 1
10
-115.637685
20
111.139235
11
-115.983933
21
115.011153
0
LINE
8
Calque 1
10
-115.983933
20
115.011153
11
-115.964175
21
118.166544
0
LINE
8
Calque 1
10
-115.964175
20
118.166544
11
-115.686454
21
121.097950
0
LINE
8
Calque 1
10
-115.686454
20
121.097950
11
-115.182597
21
123.584730
0
LINE
8
Calque 1
10
-115.182597
20
123.584730
11
-114.484432
21
125.406244
0
LINE
8
Calque 1
10
-114.484432
20
125.406244
11
-113.059554
21
127.556414
0
LINE
8
Calque 1
10
-113.059554
20
127.556414
11
-111.138123
21
129.975328
0
LINE
8
Calque 1
10
-111.138123
20
129.975328
11
-109.229212
21
132.063915
0
LINE
8
Calque 1
10
-109.229212
20
132.063915
11
-107.841898
21
133.223100
0
LINE
8
Calque 1
10
-107.841898
20
133.223100
11
-106.766175
21
134.267456
0
LINE
8
Calque 1
10
-106.766175
20
134.267456
11
-105.171239
21
136.333100
0
LINE
8
Calque 1
10
-105.171239
20
136.333100
11
-103.441293
21
138.886304
0
LINE
8
Calque 1
10
-103.441293
20
138.886304
11
-101.960542
21
141.393340
0
LINE
8
Calque 1
10
-101.960542
20
141.393340
11
-100.547903
21
143.509389
0
LINE
8
Calque 1
10
-100.547903
20
143.509389
11
-98.586620
21
145.778051
0
LINE
8
Calque 1
10
-98.586620
20
145.778051
11
-96.430456
21
147.828256
0
LINE
8
Calque 1
10
-96.430456
20
147.828256
11
-94.433173
21
149.288936
0
LINE
8
Calque 1
10
-94.433173
20
149.288936
11
-92.671652
21
150.434349
0
LINE
8
Calque 1
10
-92.671652
20
150.434349
11
-90.846946
21
151.880114
0
LINE
8
Calque 1
10
-90.846946
20
151.880114
11
-88.889974
21
153.685625
0
LINE
8
Calque 1
10
-88.889974
20
153.685625
11
-86.731653
21
155.910273
0
LINE
8
Calque 1
10
-86.731653
20
155.910273
11
-84.327124
21
158.327425
0
LINE
8
Calque 1
10
-84.327124
20
158.327425
11
-82.641934
21
159.734271
0
LINE
8
Calque 1
10
-82.641934
20
159.734271
11
-81.343882
21
160.332779
0
LINE
8
Calque 1
10
-81.343882
20
160.332779
11
-79.428923
21
160.864622
0
LINE
8
Calque 1
10
-79.428923
20
160.864622
11
-72.027144
21
162.114209
0
LINE
8
Calque 1
10
-72.027144
20
162.114209
11
-67.568033
21
162.838474
0
LINE
8
Calque 1
10
-67.568033
20
162.838474
11
-64.971589
21
163.384082
0
LINE
8
Calque 1
10
-64.971589
20
163.384082
11
-62.546237
21
163.974967
0
LINE
8
Calque 1
10
-62.546237
20
163.974967
11
-59.334983
21
164.376082
0
LINE
8
Calque 1
10
-59.334983
20
164.376082
11
-55.138716
21
164.604345
0
LINE
8
Calque 1
10
-55.138716
20
164.604345
11
-49.758323
21
164.676674
0
LINE
8
Calque 1
10
-49.758323
20
164.676674
11
-41.803447
21
164.541462
0
LINE
8
Calque 1
10
-41.803447
20
164.541462
11
-40.460617
21
164.305108
0
LINE
8
Calque 1
10
-40.460617
20
164.305108
11
-40.205645
21
164.125103
0
LINE
8
Calque 1
10
-40.205645
20
164.125103
11
-40.136033
21
163.896397
0
LINE
8
Calque 1
10
-40.136033
20
163.896397
11
-40.254629
21
163.495711
0
LINE
8
Calque 1
10
-40.254629
20
163.495711
11
-40.795976
21
162.992871
0
LINE
8
Calque 1
10
-40.795976
20
162.992871
11
-44.260270
21
160.861433
0
LINE
8
Calque 1
10
-44.260270
20
160.861433
11
-46.379951
21
159.571622
0
LINE
8
Calque 1
10
-46.379951
20
159.571622
11
-47.636095
21
158.655609
0
LINE
8
Calque 1
10
-47.636095
20
158.655609
11
-48.237017
21
157.929150
0
LINE
8
Calque 1
10
-48.237017
20
157.929150
11
-48.391033
21
157.208004
0
LINE
8
Calque 1
10
-48.391033
20
157.208004
11
-48.316432
21
156.597194
0
LINE
8
Calque 1
10
-48.316432
20
156.597194
11
-48.076819
21
156.102902
0
LINE
8
Calque 1
10
-48.076819
20
156.102902
11
-47.648479
21
155.717749
0
LINE
8
Calque 1
10
-47.648479
20
155.717749
11
-47.007696
21
155.434350
0
LINE
8
Calque 1
10
-47.007696
20
155.434350
11
-44.993941
21
155.143293
0
LINE
8
Calque 1
10
-44.993941
20
155.143293
11
-41.845831
21
155.170676
0
LINE
8
Calque 1
10
-41.845831
20
155.170676
11
-38.728876
21
155.408548
0
LINE
8
Calque 1
10
-38.728876
20
155.408548
11
-36.608255
21
155.743090
0
LINE
8
Calque 1
10
-36.608255
20
155.743090
11
-32.696127
21
156.883796
0
LINE
8
Calque 1
10
-32.696127
20
156.883796
11
-31.154621
21
157.295055
0
LINE
8
Calque 1
10
-31.154621
20
157.295055
11
-29.617482
21
157.515615
0
LINE
8
Calque 1
10
-29.617482
20
157.515615
11
-23.657258
21
157.621118
0
LINE
8
Calque 1
10
-23.657258
20
157.621118
11
-18.222635
21
157.703193
0
LINE
8
Calque 1
10
-18.222635
20
157.703193
11
-17.064372
21
157.837113
0
LINE
8
Calque 1
10
-17.064372
20
157.837113
11
-16.491667
21
158.060801
0
LINE
8
Calque 1
10
-16.491667
20
158.060801
11
-15.979580
21
158.328839
0
LINE
8
Calque 1
10
-15.979580
20
158.328839
11
-15.629893
21
158.355841
0
LINE
8
Calque 1
10
-15.629893
20
158.355841
11
-15.302564
21
157.602662
0
LINE
8
Calque 1
10
-15.302564
20
157.602662
11
-15.009187
21
156.114277
0
LINE
8
Calque 1
10
-15.009187
20
156.114277
11
-14.834782
21
154.461591
0
LINE
8
Calque 1
10
-14.834782
20
154.461591
11
-14.864371
21
153.215511
0
LINE
8
Calque 1
10
-14.864371
20
153.215511
11
-15.289597
21
152.134285
0
LINE
8
Calque 1
10
-15.289597
20
152.134285
11
-16.169279
21
151.076557
0
LINE
8
Calque 1
10
-16.169279
20
151.076557
11
-16.884932
21
150.301416
0
LINE
8
Calque 1
10
-16.884932
20
150.301416
11
-17.060957
21
149.907110
0
LINE
8
Calque 1
10
-17.060957
20
149.907110
11
-15.723811
21
149.618515
0
LINE
8
Calque 1
10
-15.723811
20
149.618515
11
-11.689252
21
148.988208
0
LINE
8
Calque 1
10
-11.689252
20
148.988208
11
-8.764373
21
148.667542
0
LINE
8
Calque 1
10
-8.764373
20
148.667542
11
-5.773671
21
148.840863
0
LINE
8
Calque 1
10
-5.773671
20
148.840863
11
-3.432369
21
149.170646
0
LINE
8
Calque 1
10
-3.432369
20
149.170646
11
-1.145134
21
149.638931
0
LINE
8
Calque 1
10
-1.145134
20
149.638931
11
0.844772
21
150.187863
0
LINE
8
Calque 1
10
0.844772
20
150.187863
11
2.294083
21
150.759587
0
LINE
8
Calque 1
10
2.294083
20
150.759587
11
3.239756
21
151.028291
0
LINE
8
Calque 1
10
3.239756
20
151.028291
11
2.916615
21
148.797643
0
LINE
8
Calque 1
10
2.916615
20
148.797643
11
2.012809
21
145.176890
0
LINE
8
Calque 1
10
2.012809
20
145.176890
11
1.475110
21
143.814733
0
LINE
8
Calque 1
10
1.475110
20
143.814733
11
0.728661
21
142.603096
0
LINE
8
Calque 1
10
0.728661
20
142.603096
11
-0.255689
21
141.503046
0
LINE
8
Calque 1
10
-0.255689
20
141.503046
11
-1.507092
21
140.475644
0
LINE
8
Calque 1
10
-1.507092
20
140.475644
11
-2.758285
21
139.455662
0
LINE
8
Calque 1
10
-2.758285
20
139.455662
11
-3.624736
21
138.464629
0
LINE
8
Calque 1
10
-3.624736
20
138.464629
11
-4.126281
21
137.473804
0
LINE
8
Calque 1
10
-4.126281
20
137.473804
11
-4.282756
21
136.454451
0
LINE
8
Calque 1
10
-4.282756
20
136.454451
11
-4.188118
21
135.580910
0
LINE
8
Calque 1
10
-4.188118
20
135.580910
11
-3.870439
21
134.812510
0
LINE
8
Calque 1
10
-3.870439
20
134.812510
11
-3.252748
21
134.020875
0
LINE
8
Calque 1
10
-3.252748
20
134.020875
11
-2.258071
21
133.077629
0
LINE
8
Calque 1
10
-2.258071
20
133.077629
11
-1.131438
21
131.831160
0
LINE
8
Calque 1
10
-1.131438
20
131.831160
11
-0.135525
21
130.262483
0
LINE
8
Calque 1
10
-0.135525
20
130.262483
11
0.612455
21
128.589486
0
LINE
8
Calque 1
10
0.612455
20
128.589486
11
0.995285
21
127.030058
0
LINE
8
Calque 1
10
0.995285
20
127.030058
11
0.943258
21
125.756243
0
LINE
8
Calque 1
10
0.943258
20
125.756243
11
0.531653
21
124.513770
0
LINE
8
Calque 1
10
0.531653
20
124.513770
11
-0.196780
21
123.391320
0
LINE
8
Calque 1
10
-0.196780
20
123.391320
11
-1.199292
21
122.477574
0
LINE
8
Calque 1
10
-1.199292
20
122.477574
11
-1.989560
21
121.854063
0
LINE
8
Calque 1
10
-1.989560
20
121.854063
11
-2.318255
21
121.443904
0
LINE
8
Calque 1
10
-2.318255
20
121.443904
11
-3.274531
21
120.282842
0
LINE
8
Calque 1
10
-3.274531
20
120.282842
11
-4.243162
21
118.960358
0
LINE
8
Calque 1
10
-4.243162
20
118.960358
11
-5.710477
21
116.541311
0
LINE
8
Calque 1
10
-5.710477
20
116.541311
11
-8.686199
21
110.928504
0
LINE
8
Calque 1
10
-8.686199
20
110.928504
11
-9.417448
21
109.762229
0
LINE
8
Calque 1
10
-9.417448
20
109.762229
11
-10.562356
21
108.334474
0
LINE
8
Calque 1
10
-10.562356
20
108.334474
11
-11.856214
21
106.950437
0
LINE
8
Calque 1
10
-11.856214
20
106.950437
11
-13.034309
21
105.915320
0
LINE
8
Calque 1
10
-13.034309
20
105.915320
11
-13.943490
21
105.106336
0
LINE
8
Calque 1
10
-13.943490
20
105.106336
11
-14.468938
21
104.382442
0
LINE
8
Calque 1
10
-14.468938
20
104.382442
11
-15.365634
21
103.450962
0
LINE
8
Calque 1
10
-15.365634
20
103.450962
11
-17.282171
21
102.095129
0
LINE
8
Calque 1
10
-17.282171
20
102.095129
11
-23.851291
21
97.878173
0
LINE
8
Calque 1
10
-23.851291
20
97.878173
11
-38.399771
21
88.711921
0
LINE
8
Calque 1
10
-38.399771
20
88.711921
11
-42.941086
21
86.048595
0
LINE
8
Calque 1
10
-42.941086
20
86.048595
11
-44.959166
21
85.090007
0
LINE
8
Calque 1
10
-44.959166
20
85.090007
11
-47.843321
21
84.116527
0
LINE
8
Calque 1
10
-47.843321
20
84.116527
11
-50.037176
21
83.342531
0
LINE
8
Calque 1
10
-50.037176
20
83.342531
11
-52.009404
21
82.848660
0
LINE
8
Calque 1
10
-52.009404
20
82.848660
11
-54.795132
21
82.646464
0
LINE
8
Calque 1
10
-54.795132
20
82.646464
11
-59.330930
21
82.605938
0
LINE
8
Calque 1
10
-59.330930
20
82.605938
11
-71.744922
21
82.995687
0
LINE
8
Calque 1
10
-71.744922
20
82.995687
11
-71.744922
21
82.995687
0
LINE
8
Calque 1
10
-55.799366
20
102.024684
11
-52.702979
21
103.111660
0
LINE
8
Calque 1
10
-52.702979
20
103.111660
11
-50.252712
21
104.301556
0
LINE
8
Calque 1
10
-50.252712
20
104.301556
11
-47.874998
21
105.929082
0
LINE
8
Calque 1
10
-47.874998
20
105.929082
11
-44.996272
21
108.328950
0
LINE
8
Calque 1
10
-44.996272
20
108.328950
11
-40.385244
21
112.584542
0
LINE
8
Calque 1
10
-40.385244
20
112.584542
11
-39.712607
21
113.241258
0
LINE
8
Calque 1
10
-39.712607
20
113.241258
11
-38.911668
21
113.782474
0
LINE
8
Calque 1
10
-38.911668
20
113.782474
11
-37.622816
21
114.678848
0
LINE
8
Calque 1
10
-37.622816
20
114.678848
11
-35.964871
21
116.087064
0
LINE
8
Calque 1
10
-35.964871
20
116.087064
11
-34.496723
21
117.502333
0
LINE
8
Calque 1
10
-34.496723
20
117.502333
11
-33.777261
21
118.419867
0
LINE
8
Calque 1
10
-33.777261
20
118.419867
11
-33.411951
21
118.929326
0
LINE
8
Calque 1
10
-33.411951
20
118.929326
11
-32.775660
21
119.391691
0
LINE
8
Calque 1
10
-32.775660
20
119.391691
11
-31.213092
21
120.676233
0
LINE
8
Calque 1
10
-31.213092
20
120.676233
11
-28.682357
21
123.108472
0
LINE
8
Calque 1
10
-28.682357
20
123.108472
11
-26.139665
21
125.734966
0
LINE
8
Calque 1
10
-26.139665
20
125.734966
11
-24.541226
21
127.602275
0
LINE
8
Calque 1
10
-24.541226
20
127.602275
11
-23.737789
21
129.037254
0
LINE
8
Calque 1
10
-23.737789
20
129.037254
11
-22.837929
21
130.997573
0
LINE
8
Calque 1
10
-22.837929
20
130.997573
11
-22.103600
21
132.869018
0
LINE
8
Calque 1
10
-22.103600
20
132.869018
11
-21.796753
21
134.037373
0
LINE
8
Calque 1
10
-21.796753
20
134.037373
11
-21.966704
21
134.596007
0
LINE
8
Calque 1
10
-21.966704
20
134.596007
11
-22.388451
21
135.202943
0
LINE
8
Calque 1
10
-22.388451
20
135.202943
11
-22.916270
21
135.690253
0
LINE
8
Calque 1
10
-22.916270
20
135.690253
11
-23.404435
21
135.890007
0
LINE
8
Calque 1
10
-23.404435
20
135.890007
11
-24.554682
21
135.326164
0
LINE
8
Calque 1
10
-24.554682
20
135.326164
11
-25.923768
21
134.708629
0
LINE
8
Calque 1
10
-25.923768
20
134.708629
11
-28.141589
21
134.015696
0
LINE
8
Calque 1
10
-28.141589
20
134.015696
11
-31.261720
21
133.418899
0
LINE
8
Calque 1
10
-31.261720
20
133.418899
11
-34.464908
21
133.197752
0
LINE
8
Calque 1
10
-34.464908
20
133.197752
11
-37.399213
21
133.355867
0
LINE
8
Calque 1
10
-37.399213
20
133.355867
11
-39.712700
21
133.896861
0
LINE
8
Calque 1
10
-39.712700
20
133.896861
11
-41.205025
21
134.665285
0
LINE
8
Calque 1
10
-41.205025
20
134.665285
11
-42.496270
21
135.702823
0
LINE
8
Calque 1
10
-42.496270
20
135.702823
11
-43.514982
21
136.939139
0
LINE
8
Calque 1
10
-43.514982
20
136.939139
11
-44.189706
21
138.303893
0
LINE
8
Calque 1
10
-44.189706
20
138.303893
11
-44.514816
21
139.381707
0
LINE
8
Calque 1
10
-44.514816
20
139.381707
11
-44.622999
21
140.190335
0
LINE
8
Calque 1
10
-44.622999
20
140.190335
11
-44.514180
21
140.909753
0
LINE
8
Calque 1
10
-44.514180
20
140.909753
11
-44.188281
21
141.719936
0
LINE
8
Calque 1
10
-44.188281
20
141.719936
11
-43.876972
21
142.648088
0
LINE
8
Calque 1
10
-43.876972
20
142.648088
11
-43.983312
21
142.923296
0
LINE
8
Calque 1
10
-43.983312
20
142.923296
11
-44.324731
21
143.086755
0
LINE
8
Calque 1
10
-44.324731
20
143.086755
11
-45.894044
21
143.120910
0
LINE
8
Calque 1
10
-45.894044
20
143.120910
11
-48.947400
21
142.835524
0
LINE
8
Calque 1
10
-48.947400
20
142.835524
11
-57.160275
21
141.813348
0
LINE
8
Calque 1
10
-57.160275
20
141.813348
11
-63.560477
21
140.564643
0
LINE
8
Calque 1
10
-63.560477
20
140.564643
11
-65.857124
21
139.994554
0
LINE
8
Calque 1
10
-65.857124
20
139.994554
11
-67.751291
21
139.392103
0
LINE
8
Calque 1
10
-67.751291
20
139.392103
11
-72.309366
21
137.367618
0
LINE
8
Calque 1
10
-72.309366
20
137.367618
11
-77.044959
21
134.775615
0
LINE
8
Calque 1
10
-77.044959
20
134.775615
11
-79.176971
21
133.358119
0
LINE
8
Calque 1
10
-79.176971
20
133.358119
11
-81.179216
21
131.837369
0
LINE
8
Calque 1
10
-81.179216
20
131.837369
11
-83.072265
21
130.196670
0
LINE
8
Calque 1
10
-83.072265
20
130.196670
11
-84.876685
21
128.419330
0
LINE
8
Calque 1
10
-84.876685
20
128.419330
11
-88.301915
21
124.387950
0
LINE
8
Calque 1
10
-88.301915
20
124.387950
11
-89.637841
21
122.495274
0
LINE
8
Calque 1
10
-89.637841
20
122.495274
11
-90.691078
21
120.688234
0
LINE
8
Calque 1
10
-90.691078
20
120.688234
11
-91.462174
21
118.964299
0
LINE
8
Calque 1
10
-91.462174
20
118.964299
11
-91.951683
21
117.320934
0
LINE
8
Calque 1
10
-91.951683
20
117.320934
11
-92.160154
21
115.755607
0
LINE
8
Calque 1
10
-92.160154
20
115.755607
11
-92.088139
21
114.265784
0
LINE
8
Calque 1
10
-92.088139
20
114.265784
11
-91.736189
21
112.848932
0
LINE
8
Calque 1
10
-91.736189
20
112.848932
11
-91.104855
21
111.502519
0
LINE
8
Calque 1
10
-91.104855
20
111.502519
11
-89.481915
21
109.578962
0
LINE
8
Calque 1
10
-89.481915
20
109.578962
11
-86.711014
21
106.889464
0
LINE
8
Calque 1
10
-86.711014
20
106.889464
11
-83.729593
21
104.295118
0
LINE
8
Calque 1
10
-83.729593
20
104.295118
11
-81.475089
21
102.657014
0
LINE
8
Calque 1
10
-81.475089
20
102.657014
11
-79.931787
21
102.145384
0
LINE
8
Calque 1
10
-79.931787
20
102.145384
11
-77.370912
21
101.714040
0
LINE
8
Calque 1
10
-77.370912
20
101.714040
11
-73.935694
21
101.381233
0
LINE
8
Calque 1
10
-73.935694
20
101.381233
11
-69.769366
21
101.165218
0
LINE
8
Calque 1
10
-69.769366
20
101.165218
11
-64.275847
21
101.022869
0
LINE
8
Calque 1
10
-64.275847
20
101.022869
11
-60.674844
21
101.084303
0
LINE
8
Calque 1
10
-60.674844
20
101.084303
11
-58.128603
21
101.401061
0
LINE
8
Calque 1
10
-58.128603
20
101.401061
11
-55.799366
21
102.024684
0
LINE
8
Calque 1
10
-55.799366
20
102.024684
11
-55.799366
21
102.024684
0
LINE
8
Calque 1
10
-150.155151
20
83.703494
11
-150.883894
21
87.912229
0
LINE
8
Calque 1
10
-150.883894
20
87.912229
11
-151.309368
21
90.812058
0
LINE
8
Calque 1
10
-151.309368
20
90.812058
11
-151.752331
21
92.773676
0
LINE
8
Calque 1
10
-151.752331
20
92.773676
11
-152.401683
21
94.421238
0
LINE
8
Calque 1
10
-152.401683
20
94.421238
11
-153.446325
21
96.378896
0
LINE
8
Calque 1
10
-153.446325
20
96.378896
11
-155.038482
21
99.898435
0
LINE
8
Calque 1
10
-155.038482
20
99.898435
11
-156.744877
21
104.620972
0
LINE
8
Calque 1
10
-156.744877
20
104.620972
11
-158.109306
21
109.169231
0
LINE
8
Calque 1
10
-158.109306
20
109.169231
11
-158.520719
21
110.947609
0
LINE
8
Calque 1
10
-158.520719
20
110.947609
11
-158.675564
21
112.165938
0
LINE
8
Calque 1
10
-158.675564
20
112.165938
11
-158.893208
21
113.272057
0
LINE
8
Calque 1
10
-158.893208
20
113.272057
11
-159.590085
21
114.622673
0
LINE
8
Calque 1
10
-159.590085
20
114.622673
11
-160.858670
21
116.363222
0
LINE
8
Calque 1
10
-160.858670
20
116.363222
11
-162.791436
21
118.639143
0
LINE
8
Calque 1
10
-162.791436
20
118.639143
11
-167.585125
21
124.132028
0
LINE
8
Calque 1
10
-167.585125
20
124.132028
11
-169.470389
21
126.034114
0
LINE
8
Calque 1
10
-169.470389
20
126.034114
11
-171.677347
21
127.705388
0
LINE
8
Calque 1
10
-171.677347
20
127.705388
11
-173.933690
21
129.381894
0
LINE
8
Calque 1
10
-173.933690
20
129.381894
11
-176.026033
21
131.233165
0
LINE
8
Calque 1
10
-176.026033
20
131.233165
11
-177.253529
21
132.533413
0
LINE
8
Calque 1
10
-177.253529
20
132.533413
11
-178.065315
21
133.716887
0
LINE
8
Calque 1
10
-178.065315
20
133.716887
11
-178.728568
21
135.281321
0
LINE
8
Calque 1
10
-178.728568
20
135.281321
11
-179.510464
21
137.724451
0
LINE
8
Calque 1
10
-179.510464
20
137.724451
11
-180.559860
21
140.377012
0
LINE
8
Calque 1
10
-180.559860
20
140.377012
11
-181.067214
21
141.218052
0
LINE
8
Calque 1
10
-181.067214
20
141.218052
11
-181.454662
21
141.523868
0
LINE
8
Calque 1
10
-181.454662
20
141.523868
11
-183.543462
21
138.590752
0
LINE
8
Calque 1
10
-183.543462
20
138.590752
11
-185.314463
21
136.059154
0
LINE
8
Calque 1
10
-185.314463
20
136.059154
11
-185.888436
21
135.647174
0
LINE
8
Calque 1
10
-185.888436
20
135.647174
11
-186.578237
21
135.471931
0
LINE
8
Calque 1
10
-186.578237
20
135.471931
11
-187.551111
21
135.168122
0
LINE
8
Calque 1
10
-187.551111
20
135.168122
11
-187.785229
21
134.908757
0
LINE
8
Calque 1
10
-187.785229
20
134.908757
11
-187.926949
21
134.524495
0
LINE
8
Calque 1
10
-187.926949
20
134.524495
11
-189.054949
21
131.805746
0
LINE
8
Calque 1
10
-189.054949
20
131.805746
11
-189.784707
21
129.898430
0
LINE
8
Calque 1
10
-189.784707
20
129.898430
11
-189.955657
21
128.305218
0
LINE
8
Calque 1
10
-189.955657
20
128.305218
11
-189.558882
21
126.908058
0
LINE
8
Calque 1
10
-189.558882
20
126.908058
11
-188.585469
21
125.588896
0
LINE
8
Calque 1
10
-188.585469
20
125.588896
11
-187.830943
21
124.396314
0
LINE
8
Calque 1
10
-187.830943
20
124.396314
11
-187.201252
21
122.647838
0
LINE
8
Calque 1
10
-187.201252
20
122.647838
11
-186.770288
21
120.607420
0
LINE
8
Calque 1
10
-186.770288
20
120.607420
11
-186.611940
21
118.539013
0
LINE
8
Calque 1
10
-186.611940
20
118.539013
11
-186.914757
21
115.745087
0
LINE
8
Calque 1
10
-186.914757
20
115.745087
11
-187.701356
21
112.226118
0
LINE
8
Calque 1
10
-187.701356
20
112.226118
11
-188.797587
21
108.639350
0
LINE
8
Calque 1
10
-188.797587
20
108.639350
11
-190.029296
21
105.642028
0
LINE
8
Calque 1
10
-190.029296
20
105.642028
11
-190.647047
21
104.571472
0
LINE
8
Calque 1
10
-190.647047
20
104.571472
11
-191.280641
21
103.791329
0
LINE
8
Calque 1
10
-191.280641
20
103.791329
11
-191.917460
21
103.314085
0
LINE
8
Calque 1
10
-191.917460
20
103.314085
11
-192.544889
21
103.152229
0
LINE
8
Calque 1
10
-192.544889
20
103.152229
11
-193.179365
21
103.002533
0
LINE
8
Calque 1
10
-193.179365
20
103.002533
11
-193.662404
21
102.494337
0
LINE
8
Calque 1
10
-193.662404
20
102.494337
11
-194.046540
21
101.538975
0
LINE
8
Calque 1
10
-194.046540
20
101.538975
11
-194.384309
21
100.047785
0
LINE
8
Calque 1
10
-194.384309
20
100.047785
11
-194.893062
21
98.028327
0
LINE
8
Calque 1
10
-194.893062
20
98.028327
11
-195.503453
21
96.617560
0
LINE
8
Calque 1
10
-195.503453
20
96.617560
11
-196.761299
21
94.073541
0
LINE
8
Calque 1
10
-196.761299
20
94.073541
11
-198.091501
21
90.514055
0
LINE
8
Calque 1
10
-198.091501
20
90.514055
11
-199.149181
21
86.965683
0
LINE
8
Calque 1
10
-199.149181
20
86.965683
11
-199.589458
21
84.455007
0
LINE
8
Calque 1
10
-199.589458
20
84.455007
11
-199.749723
21
84.305517
0
LINE
8
Calque 1
10
-199.749723
20
84.305517
11
-200.132047
21
84.243340
0
LINE
8
Calque 1
10
-200.132047
20
84.243340
11
-200.865734
21
84.625156
0
LINE
8
Calque 1
10
-200.865734
20
84.625156
11
-201.816994
21
85.563359
0
LINE
8
Calque 1
10
-201.816994
20
85.563359
11
-202.714918
21
86.747083
0
LINE
8
Calque 1
10
-202.714918
20
86.747083
11
-203.288598
21
87.865462
0
LINE
8
Calque 1
10
-203.288598
20
87.865462
11
-204.331951
21
90.222819
0
LINE
8
Calque 1
10
-204.331951
20
90.222819
11
-205.901133
21
93.035186
0
LINE
8
Calque 1
10
-205.901133
20
93.035186
11
-207.446786
21
95.391050
0
LINE
8
Calque 1
10
-207.446786
20
95.391050
11
-208.039114
21
96.112944
0
LINE
8
Calque 1
10
-208.039114
20
96.112944
11
-208.419550
21
96.378896
0
LINE
8
Calque 1
10
-208.419550
20
96.378896
11
-209.145530
21
96.072246
0
LINE
8
Calque 1
10
-209.145530
20
96.072246
11
-210.030485
21
95.211737
0
LINE
8
Calque 1
10
-210.030485
20
95.211737
11
-210.998820
21
93.886524
0
LINE
8
Calque 1
10
-210.998820
20
93.886524
11
-211.974935
21
92.185765
0
LINE
8
Calque 1
10
-211.974935
20
92.185765
11
-213.052644
21
90.215607
0
LINE
8
Calque 1
10
-213.052644
20
90.215607
11
-213.949623
21
88.898974
0
LINE
8
Calque 1
10
-213.949623
20
88.898974
11
-214.761436
21
88.118591
0
LINE
8
Calque 1
10
-214.761436
20
88.118591
11
-215.583646
21
87.757185
0
LINE
8
Calque 1
10
-215.583646
20
87.757185
11
-217.785908
21
87.078896
0
LINE
8
Calque 1
10
-217.785908
20
87.078896
11
-218.543357
21
86.631702
0
LINE
8
Calque 1
10
-218.543357
20
86.631702
11
-219.224660
21
86.040342
0
LINE
8
Calque 1
10
-219.224660
20
86.040342
11
-219.909123
21
85.234289
0
LINE
8
Calque 1
10
-219.909123
20
85.234289
11
-220.193811
21
84.657267
0
LINE
8
Calque 1
10
-220.193811
20
84.657267
11
-220.268553
21
84.280006
0
LINE
8
Calque 1
10
-220.268553
20
84.280006
11
-220.471926
21
84.316210
0
LINE
8
Calque 1
10
-220.471926
20
84.316210
11
-221.139425
21
85.515454
0
LINE
8
Calque 1
10
-221.139425
20
85.515454
11
-221.869958
21
86.820655
0
LINE
8
Calque 1
10
-221.869958
20
86.820655
11
-222.940127
21
88.182155
0
LINE
8
Calque 1
10
-222.940127
20
88.182155
11
-224.152206
21
89.378364
0
LINE
8
Calque 1
10
-224.152206
20
89.378364
11
-225.308470
21
90.187688
0
LINE
8
Calque 1
10
-225.308470
20
90.187688
11
-226.339942
21
90.846257
0
LINE
8
Calque 1
10
-226.339942
20
90.846257
11
-226.677367
21
91.264415
0
LINE
8
Calque 1
10
-226.677367
20
91.264415
11
-226.922679
21
91.827098
0
LINE
8
Calque 1
10
-226.922679
20
91.827098
11
-227.217248
21
93.641870
0
LINE
8
Calque 1
10
-227.217248
20
93.641870
11
-227.384215
21
96.802229
0
LINE
8
Calque 1
10
-227.384215
20
96.802229
11
-227.440774
21
101.147076
0
LINE
8
Calque 1
10
-227.440774
20
101.147076
11
-227.146592
21
104.281118
0
LINE
8
Calque 1
10
-227.146592
20
104.281118
11
-226.136818
21
110.631118
0
LINE
8
Calque 1
10
-226.136818
20
110.631118
11
-225.674399
21
114.663144
0
LINE
8
Calque 1
10
-225.674399
20
114.663144
11
-225.394602
21
119.238896
0
LINE
8
Calque 1
10
-225.394602
20
119.238896
11
-224.998740
21
125.184076
0
LINE
8
Calque 1
10
-224.998740
20
125.184076
11
-223.726152
21
134.059178
0
LINE
8
Calque 1
10
-223.726152
20
134.059178
11
-222.507500
21
139.893028
0
LINE
8
Calque 1
10
-222.507500
20
139.893028
11
-220.576942
21
146.191118
0
LINE
8
Calque 1
10
-220.576942
20
146.191118
11
-219.266810
21
149.991796
0
LINE
8
Calque 1
10
-219.266810
20
149.991796
11
-218.676908
21
152.064288
0
LINE
8
Calque 1
10
-218.676908
20
152.064288
11
-218.651898
21
153.225491
0
LINE
8
Calque 1
10
-218.651898
20
153.225491
11
-219.036440
21
154.292301
0
LINE
8
Calque 1
10
-219.036440
20
154.292301
11
-219.535549
21
155.708713
0
LINE
8
Calque 1
10
-219.535549
20
155.708713
11
-219.806455
21
156.991978
0
LINE
8
Calque 1
10
-219.806455
20
156.991978
11
-219.844008
21
158.102126
0
LINE
8
Calque 1
10
-219.844008
20
158.102126
11
-219.643054
21
158.999187
0
LINE
8
Calque 1
10
-219.643054
20
158.999187
11
-219.397996
21
159.429670
0
LINE
8
Calque 1
10
-219.397996
20
159.429670
11
-219.020949
21
159.785887
0
LINE
8
Calque 1
10
-219.020949
20
159.785887
11
-217.620658
21
160.455738
0
LINE
8
Calque 1
10
-217.620658
20
160.455738
11
-215.923499
21
161.330934
0
LINE
8
Calque 1
10
-215.923499
20
161.330934
11
-214.187086
21
162.745952
0
LINE
8
Calque 1
10
-214.187086
20
162.745952
11
-212.758813
21
163.946836
0
LINE
8
Calque 1
10
-212.758813
20
163.946836
11
-211.939152
21
164.286722
0
LINE
8
Calque 1
10
-211.939152
20
164.286722
11
-211.421203
21
164.413940
0
LINE
8
Calque 1
10
-211.421203
20
164.413940
11
-210.859356
21
164.988557
0
LINE
8
Calque 1
10
-210.859356
20
164.988557
11
-210.273110
21
165.811867
0
LINE
8
Calque 1
10
-210.273110
20
165.811867
11
-204.861792
21
165.775125
0
LINE
8
Calque 1
10
-204.861792
20
165.775125
11
-200.709025
21
165.831126
0
LINE
8
Calque 1
10
-200.709025
20
165.831126
11
-199.223519
21
165.991990
0
LINE
8
Calque 1
10
-199.223519
20
165.991990
11
-197.957656
21
166.298647
0
LINE
8
Calque 1
10
-197.957656
20
166.298647
11
-196.780728
21
166.794014
0
LINE
8
Calque 1
10
-196.780728
20
166.794014
11
-195.562028
21
167.521002
0
LINE
8
Calque 1
10
-195.562028
20
167.521002
11
-192.476481
21
169.841504
0
LINE
8
Calque 1
10
-192.476481
20
169.841504
11
-190.688488
21
171.375448
0
LINE
8
Calque 1
10
-190.688488
20
171.375448
11
-189.841976
21
172.337460
0
LINE
8
Calque 1
10
-189.841976
20
172.337460
11
-189.611156
21
172.728481
0
LINE
8
Calque 1
10
-189.611156
20
172.728481
11
-189.321762
21
172.747847
0
LINE
8
Calque 1
10
-189.321762
20
172.747847
11
-189.021270
21
172.420359
0
LINE
8
Calque 1
10
-189.021270
20
172.420359
11
-188.757156
21
171.770815
0
LINE
8
Calque 1
10
-188.757156
20
171.770815
11
-188.207323
21
170.654995
0
LINE
8
Calque 1
10
-188.207323
20
170.654995
11
-187.251163
21
169.489584
0
LINE
8
Calque 1
10
-187.251163
20
169.489584
11
-186.032256
21
168.421987
0
LINE
8
Calque 1
10
-186.032256
20
168.421987
11
-184.694181
21
167.599607
0
LINE
8
Calque 1
10
-184.694181
20
167.599607
11
-183.744935
21
167.182389
0
LINE
8
Calque 1
10
-183.744935
20
167.182389
11
-182.891990
21
166.955469
0
LINE
8
Calque 1
10
-182.891990
20
166.955469
11
-180.283773
21
166.877479
0
LINE
8
Calque 1
10
-180.283773
20
166.877479
11
-178.250981
21
167.009054
0
LINE
8
Calque 1
10
-178.250981
20
167.009054
11
-176.578410
21
167.480880
0
LINE
8
Calque 1
10
-176.578410
20
167.480880
11
-174.665220
21
168.551397
0
LINE
8
Calque 1
10
-174.665220
20
168.551397
11
-171.910570
21
170.479044
0
LINE
8
Calque 1
10
-171.910570
20
170.479044
11
-169.439434
21
172.118069
0
LINE
8
Calque 1
10
-169.439434
20
172.118069
11
-168.916640
21
172.314717
0
LINE
8
Calque 1
10
-168.916640
20
172.314717
11
-168.889937
21
172.085007
0
LINE
8
Calque 1
10
-168.889937
20
172.085007
11
-170.286051
21
168.981934
0
LINE
8
Calque 1
10
-170.286051
20
168.981934
11
-170.517664
21
167.892205
0
LINE
8
Calque 1
10
-170.517664
20
167.892205
11
-170.572503
21
166.679218
0
LINE
8
Calque 1
10
-170.572503
20
166.679218
11
-170.444990
21
165.004397
0
LINE
8
Calque 1
10
-170.444990
20
165.004397
11
-170.077214
21
163.081042
0
LINE
8
Calque 1
10
-170.077214
20
163.081042
11
-169.491324
21
161.002102
0
LINE
8
Calque 1
10
-169.491324
20
161.002102
11
-168.709467
21
158.860525
0
LINE
8
Calque 1
10
-168.709467
20
158.860525
11
-165.131929
21
151.202747
0
LINE
8
Calque 1
10
-165.131929
20
151.202747
11
-163.140532
21
147.324646
0
LINE
8
Calque 1
10
-163.140532
20
147.324646
11
-161.799484
21
144.990316
0
LINE
8
Calque 1
10
-161.799484
20
144.990316
11
-160.363116
21
143.292515
0
LINE
8
Calque 1
10
-160.363116
20
143.292515
11
-158.198525
21
141.108472
0
LINE
8
Calque 1
10
-158.198525
20
141.108472
11
-155.781884
21
138.895241
0
LINE
8
Calque 1
10
-155.781884
20
138.895241
11
-153.589366
21
137.109873
0
LINE
8
Calque 1
10
-153.589366
20
137.109873
11
-151.370757
21
135.240414
0
LINE
8
Calque 1
10
-151.370757
20
135.240414
11
-148.693381
21
132.506047
0
LINE
8
Calque 1
10
-148.693381
20
132.506047
11
-145.746696
21
130.164949
0
LINE
8
Calque 1
10
-145.746696
20
130.164949
11
-142.486321
21
127.917229
0
LINE
8
Calque 1
10
-142.486321
20
127.917229
11
-141.186326
21
127.141118
0
LINE
8
Calque 1
10
-141.186326
20
127.141118
11
-140.685669
21
128.002603
0
LINE
8
Calque 1
10
-140.685669
20
128.002603
11
-139.766868
21
130.094207
0
LINE
8
Calque 1
10
-139.766868
20
130.094207
11
-137.907070
21
135.010656
0
LINE
8
Calque 1
10
-137.907070
20
135.010656
11
-137.050847
21
138.411039
0
LINE
8
Calque 1
10
-137.050847
20
138.411039
11
-135.959582
21
143.568190
0
LINE
8
Calque 1
10
-135.959582
20
143.568190
11
-134.829367
21
148.729449
0
LINE
8
Calque 1
10
-134.829367
20
148.729449
11
-133.886197
21
152.074608
0
LINE
8
Calque 1
10
-133.886197
20
152.074608
11
-133.157528
21
153.740724
0
LINE
8
Calque 1
10
-133.157528
20
153.740724
11
-132.312273
21
155.283667
0
LINE
8
Calque 1
10
-132.312273
20
155.283667
11
-131.347870
21
156.706220
0
LINE
8
Calque 1
10
-131.347870
20
156.706220
11
-130.261759
21
158.011165
0
LINE
8
Calque 1
10
-130.261759
20
158.011165
11
-129.051377
21
159.201286
0
LINE
8
Calque 1
10
-129.051377
20
159.201286
11
-127.714162
21
160.279366
0
LINE
8
Calque 1
10
-127.714162
20
160.279366
11
-126.247554
21
161.248188
0
LINE
8
Calque 1
10
-126.247554
20
161.248188
11
-124.648990
21
162.110534
0
LINE
8
Calque 1
10
-124.648990
20
162.110534
11
-122.007070
21
163.617897
0
LINE
8
Calque 1
10
-122.007070
20
163.617897
11
-118.858177
21
165.684088
0
LINE
8
Calque 1
10
-118.858177
20
165.684088
11
-114.571074
21
168.772838
0
LINE
8
Calque 1
10
-114.571074
20
168.772838
11
-111.949801
21
170.940050
0
LINE
8
Calque 1
10
-111.949801
20
170.940050
11
-110.458941
21
172.696619
0
LINE
8
Calque 1
10
-110.458941
20
172.696619
11
-109.563078
21
174.553438
0
LINE
8
Calque 1
10
-109.563078
20
174.553438
11
-109.035375
21
175.744467
0
LINE
8
Calque 1
10
-109.035375
20
175.744467
11
-108.567728
21
176.310919
0
LINE
8
Calque 1
10
-108.567728
20
176.310919
11
-108.351070
21
176.363040
0
LINE
8
Calque 1
10
-108.351070
20
176.363040
11
-108.142998
21
176.262750
0
LINE
8
Calque 1
10
-108.142998
20
176.262750
11
-107.744043
21
175.609915
0
LINE
8
Calque 1
10
-107.744043
20
175.609915
11
-106.817349
21
172.435703
0
LINE
8
Calque 1
10
-106.817349
20
172.435703
11
-105.538224
21
167.187694
0
LINE
8
Calque 1
10
-105.538224
20
167.187694
11
-104.405331
21
162.019375
0
LINE
8
Calque 1
10
-104.405331
20
162.019375
11
-103.917335
21
159.084231
0
LINE
8
Calque 1
10
-103.917335
20
159.084231
11
-103.981453
21
157.945819
0
LINE
8
Calque 1
10
-103.981453
20
157.945819
11
-104.253666
21
157.036784
0
LINE
8
Calque 1
10
-104.253666
20
157.036784
11
-104.856231
21
156.099025
0
LINE
8
Calque 1
10
-104.856231
20
156.099025
11
-105.911404
21
154.874441
0
LINE
8
Calque 1
10
-105.911404
20
154.874441
11
-109.691282
21
150.216464
0
LINE
8
Calque 1
10
-109.691282
20
150.216464
11
-111.258106
21
148.018123
0
LINE
8
Calque 1
10
-111.258106
20
148.018123
11
-112.047076
21
146.659892
0
LINE
8
Calque 1
10
-112.047076
20
146.659892
11
-113.095767
21
144.820378
0
LINE
8
Calque 1
10
-113.095767
20
144.820378
11
-115.159310
21
141.721003
0
LINE
8
Calque 1
10
-115.159310
20
141.721003
11
-121.250474
21
132.724336
0
LINE
8
Calque 1
10
-121.250474
20
132.724336
11
-124.394174
21
127.564451
0
LINE
8
Calque 1
10
-124.394174
20
127.564451
11
-124.895048
21
126.070438
0
LINE
8
Calque 1
10
-124.895048
20
126.070438
11
-125.199021
21
124.460007
0
LINE
8
Calque 1
10
-125.199021
20
124.460007
11
-126.099181
21
115.428896
0
LINE
8
Calque 1
10
-126.099181
20
115.428896
11
-126.521350
21
110.849189
0
LINE
8
Calque 1
10
-126.521350
20
110.849189
11
-126.698132
21
107.185325
0
LINE
8
Calque 1
10
-126.698132
20
107.185325
11
-126.653349
21
103.025322
0
LINE
8
Calque 1
10
-126.653349
20
103.025322
11
-126.410824
21
96.957197
0
LINE
8
Calque 1
10
-126.410824
20
96.957197
11
-126.354922
21
95.701055
0
LINE
8
Calque 1
10
-126.354922
20
95.701055
11
-128.048255
21
95.341913
0
LINE
8
Calque 1
10
-128.048255
20
95.341913
11
-130.694970
21
95.037252
0
LINE
8
Calque 1
10
-130.694970
20
95.037252
11
-134.680477
21
94.809097
0
LINE
8
Calque 1
10
-134.680477
20
94.809097
11
-138.544688
21
94.603009
0
LINE
8
Calque 1
10
-138.544688
20
94.603009
11
-140.974680
21
94.185337
0
LINE
8
Calque 1
10
-140.974680
20
94.185337
11
-141.862621
21
93.832744
0
LINE
8
Calque 1
10
-141.862621
20
93.832744
11
-142.644939
21
93.349959
0
LINE
8
Calque 1
10
-142.644939
20
93.349959
11
-144.229952
21
91.890747
0
LINE
8
Calque 1
10
-144.229952
20
91.890747
11
-145.847862
21
89.929502
0
LINE
8
Calque 1
10
-145.847862
20
89.929502
11
-147.127688
21
87.771118
0
LINE
8
Calque 1
10
-147.127688
20
87.771118
11
-148.475054
21
85.105356
0
LINE
8
Calque 1
10
-148.475054
20
85.105356
11
-149.323715
21
83.679958
0
LINE
8
Calque 1
10
-149.323715
20
83.679958
11
-149.831229
21
83.283234
0
LINE
8
Calque 1
10
-149.831229
20
83.283234
11
-150.155151
21
83.703494
0
LINE
8
Calque 1
10
-150.155151
20
83.703494
11
-150.155151
21
83.703494
0
LINE
8
Calque 1
10
108.829407
20
83.467229
11
107.461307
21
85.231118
0
LINE
8
Calque 1
10
107.461307
20
85.231118
11
105.627450
21
87.762928
0
LINE
8
Calque 1
10
105.627450
20
87.762928
11
104.787735
21
88.667924
0
LINE
8
Calque 1
10
104.787735
20
88.667924
11
103.937600
21
89.376481
0
LINE
8
Calque 1
10
103.937600
20
89.376481
11
103.030625
21
89.921721
0
LINE
8
Calque 1
10
103.030625
20
89.921721
11
102.020389
21
90.336770
0
LINE
8
Calque 1
10
102.020389
20
90.336770
11
99.504446
21
90.908789
0
LINE
8
Calque 1
10
99.504446
20
90.908789
11
97.321338
21
91.367521
0
LINE
8
Calque 1
10
97.321338
20
91.367521
11
95.753967
21
91.886474
0
LINE
8
Calque 1
10
95.753967
20
91.886474
11
94.625078
21
92.448314
0
LINE
8
Calque 1
10
94.625078
20
92.448314
11
93.778411
21
91.379716
0
LINE
8
Calque 1
10
93.778411
20
91.379716
11
91.509165
21
88.878588
0
LINE
8
Calque 1
10
91.509165
20
88.878588
11
90.618624
21
88.166255
0
LINE
8
Calque 1
10
90.618624
20
88.166255
11
89.999230
21
87.912229
0
LINE
8
Calque 1
10
89.999230
20
87.912229
11
89.194319
21
88.251036
0
LINE
8
Calque 1
10
89.194319
20
88.251036
11
88.114053
21
89.108342
0
LINE
8
Calque 1
10
88.114053
20
89.108342
11
87.018774
21
90.245478
0
LINE
8
Calque 1
10
87.018774
20
90.245478
11
86.168825
21
91.423774
0
LINE
8
Calque 1
10
86.168825
20
91.423774
11
84.453987
21
95.611201
0
LINE
8
Calque 1
10
84.453987
20
95.611201
11
83.349690
21
98.345072
0
LINE
8
Calque 1
10
83.349690
20
98.345072
11
82.807063
21
99.082917
0
LINE
8
Calque 1
10
82.807063
20
99.082917
11
82.056142
21
99.773978
0
LINE
8
Calque 1
10
82.056142
20
99.773978
11
80.955352
21
100.565313
0
LINE
8
Calque 1
10
80.955352
20
100.565313
11
80.188085
21
100.894451
0
LINE
8
Calque 1
10
80.188085
20
100.894451
11
79.370365
21
100.618646
0
LINE
8
Calque 1
10
79.370365
20
100.618646
11
77.989874
21
99.904968
0
LINE
8
Calque 1
10
77.989874
20
99.904968
11
74.756634
21
97.846418
0
LINE
8
Calque 1
10
74.756634
20
97.846418
11
73.233537
21
96.943340
0
LINE
8
Calque 1
10
73.233537
20
96.943340
11
73.087413
21
97.499813
0
LINE
8
Calque 1
10
73.087413
20
97.499813
11
73.202210
21
99.130563
0
LINE
8
Calque 1
10
73.202210
20
99.130563
11
73.424206
21
104.140007
0
LINE
8
Calque 1
10
73.424206
20
104.140007
11
73.369496
21
105.797819
0
LINE
8
Calque 1
10
73.369496
20
105.797819
11
73.172732
21
107.224572
0
LINE
8
Calque 1
10
73.172732
20
107.224572
11
71.925578
21
111.477785
0
LINE
8
Calque 1
10
71.925578
20
111.477785
11
70.545993
21
115.871225
0
LINE
8
Calque 1
10
70.545993
20
115.871225
11
69.736648
21
118.984075
0
LINE
8
Calque 1
10
69.736648
20
118.984075
11
69.356098
21
121.483501
0
LINE
8
Calque 1
10
69.356098
20
121.483501
11
69.262896
21
124.036674
0
LINE
8
Calque 1
10
69.262896
20
124.036674
11
69.320486
21
126.219450
0
LINE
8
Calque 1
10
69.320486
20
126.219450
11
69.646207
21
128.619768
0
LINE
8
Calque 1
10
69.646207
20
128.619768
11
72.055569
21
139.276674
0
LINE
8
Calque 1
10
72.055569
20
139.276674
11
72.589188
21
142.221958
0
LINE
8
Calque 1
10
72.589188
20
142.221958
11
72.913765
21
145.393148
0
LINE
8
Calque 1
10
72.913765
20
145.393148
11
72.991877
21
148.231744
0
LINE
8
Calque 1
10
72.991877
20
148.231744
11
72.786102
21
150.179248
0
LINE
8
Calque 1
10
72.786102
20
150.179248
11
72.140607
21
151.492688
0
LINE
8
Calque 1
10
72.140607
20
151.492688
11
70.939042
21
153.057497
0
LINE
8
Calque 1
10
70.939042
20
153.057497
11
70.112700
21
154.034743
0
LINE
8
Calque 1
10
70.112700
20
154.034743
11
69.585557
21
154.846651
0
LINE
8
Calque 1
10
69.585557
20
154.846651
11
69.232356
21
155.735173
0
LINE
8
Calque 1
10
69.232356
20
155.735173
11
68.927842
21
156.942261
0
LINE
8
Calque 1
10
68.927842
20
156.942261
11
68.621847
21
159.012766
0
LINE
8
Calque 1
10
68.621847
20
159.012766
11
68.592463
21
161.124774
0
LINE
8
Calque 1
10
68.592463
20
161.124774
11
68.833124
21
163.149683
0
LINE
8
Calque 1
10
68.833124
20
163.149683
11
69.337261
21
164.958896
0
LINE
8
Calque 1
10
69.337261
20
164.958896
11
69.775589
21
166.339281
0
LINE
8
Calque 1
10
69.775589
20
166.339281
11
69.886286
21
167.455485
0
LINE
8
Calque 1
10
69.886286
20
167.455485
11
69.660353
21
168.474295
0
LINE
8
Calque 1
10
69.660353
20
168.474295
11
69.088793
21
169.562499
0
LINE
8
Calque 1
10
69.088793
20
169.562499
11
68.079933
21
171.555409
0
LINE
8
Calque 1
10
68.079933
20
171.555409
11
68.058099
21
172.343201
0
LINE
8
Calque 1
10
68.058099
20
172.343201
11
68.222780
21
173.338656
0
LINE
8
Calque 1
10
68.222780
20
173.338656
11
68.491961
21
174.192248
0
LINE
8
Calque 1
10
68.491961
20
174.192248
11
68.783626
21
174.554451
0
LINE
8
Calque 1
10
68.783626
20
174.554451
11
72.512177
21
173.381276
0
LINE
8
Calque 1
10
72.512177
20
173.381276
11
76.026196
21
172.369564
0
LINE
8
Calque 1
10
76.026196
20
172.369564
11
79.667300
21
172.096335
0
LINE
8
Calque 1
10
79.667300
20
172.096335
11
82.139050
21
172.082283
0
LINE
8
Calque 1
10
82.139050
20
172.082283
11
83.690463
21
172.255700
0
LINE
8
Calque 1
10
83.690463
20
172.255700
11
84.522844
21
172.665868
0
LINE
8
Calque 1
10
84.522844
20
172.665868
11
84.837499
21
173.362071
0
LINE
8
Calque 1
10
84.837499
20
173.362071
11
84.951600
21
173.794356
0
LINE
8
Calque 1
10
84.951600
20
173.794356
11
85.271521
21
173.945895
0
LINE
8
Calque 1
10
85.271521
20
173.945895
11
87.384611
21
173.429333
0
LINE
8
Calque 1
10
87.384611
20
173.429333
11
91.605065
21
172.485791
0
LINE
8
Calque 1
10
91.605065
20
172.485791
11
96.302477
21
172.055192
0
LINE
8
Calque 1
10
96.302477
20
172.055192
11
101.606329
21
172.132967
0
LINE
8
Calque 1
10
101.606329
20
172.132967
11
107.646106
21
172.714549
0
LINE
8
Calque 1
10
107.646106
20
172.714549
11
114.013939
21
173.600741
0
LINE
8
Calque 1
10
114.013939
20
173.600741
11
118.867149
21
174.440740
0
LINE
8
Calque 1
10
118.867149
20
174.440740
11
122.615691
21
175.316311
0
LINE
8
Calque 1
10
122.615691
20
175.316311
11
125.669523
21
176.309216
0
LINE
8
Calque 1
10
125.669523
20
176.309216
11
126.800051
21
176.667032
0
LINE
8
Calque 1
10
126.800051
20
176.667032
11
128.305326
21
176.870261
0
LINE
8
Calque 1
10
128.305326
20
176.870261
11
135.478353
21
177.039006
0
LINE
8
Calque 1
10
135.478353
20
177.039006
11
142.370933
21
177.024373
0
LINE
8
Calque 1
10
142.370933
20
177.024373
11
144.126045
21
176.901925
0
LINE
8
Calque 1
10
144.126045
20
176.901925
11
145.328417
21
176.681885
0
LINE
8
Calque 1
10
145.328417
20
176.681885
11
147.671126
21
175.922765
0
LINE
8
Calque 1
10
147.671126
20
175.922765
11
148.309548
21
175.559424
0
LINE
8
Calque 1
10
148.309548
20
175.559424
11
148.597679
21
175.204641
0
LINE
8
Calque 1
10
148.597679
20
175.204641
11
148.324614
21
174.727358
0
LINE
8
Calque 1
10
148.324614
20
174.727358
11
147.423547
21
174.064864
0
LINE
8
Calque 1
10
147.423547
20
174.064864
11
146.104729
21
173.347814
0
LINE
8
Calque 1
10
146.104729
20
173.347814
11
144.578411
21
172.706867
0
LINE
8
Calque 1
10
144.578411
20
172.706867
11
142.295934
21
171.507191
0
LINE
8
Calque 1
10
142.295934
20
171.507191
11
138.771749
21
169.343040
0
LINE
8
Calque 1
10
138.771749
20
169.343040
11
135.309757
21
167.046884
0
LINE
8
Calque 1
10
135.309757
20
167.046884
11
133.213859
21
165.451190
0
LINE
8
Calque 1
10
133.213859
20
165.451190
11
132.786318
21
165.109707
0
LINE
8
Calque 1
10
132.786318
20
165.109707
11
132.216267
21
164.921004
0
LINE
8
Calque 1
10
132.216267
20
164.921004
11
129.686081
21
164.833361
0
LINE
8
Calque 1
10
129.686081
20
164.833361
11
124.258411
21
165.077545
0
LINE
8
Calque 1
10
124.258411
20
165.077545
11
121.856810
21
165.164783
0
LINE
8
Calque 1
10
121.856810
20
165.164783
11
120.025078
21
164.669895
0
LINE
8
Calque 1
10
120.025078
20
164.669895
11
118.901119
21
164.321251
0
LINE
8
Calque 1
10
118.901119
20
164.321251
11
117.425445
21
164.105730
0
LINE
8
Calque 1
10
117.425445
20
164.105730
11
110.941220
21
163.850573
0
LINE
8
Calque 1
10
110.941220
20
163.850573
11
106.250528
21
163.707562
0
LINE
8
Calque 1
10
106.250528
20
163.707562
11
103.760238
21
163.448768
0
LINE
8
Calque 1
10
103.760238
20
163.448768
11
103.070954
21
163.214604
0
LINE
8
Calque 1
10
103.070954
20
163.214604
11
102.608623
21
162.877878
0
LINE
8
Calque 1
10
102.608623
20
162.877878
11
101.933956
21
161.798577
0
LINE
8
Calque 1
10
101.933956
20
161.798577
11
101.674497
21
160.962084
0
LINE
8
Calque 1
10
101.674497
20
160.962084
11
101.541574
21
159.788615
0
LINE
8
Calque 1
10
101.541574
20
159.788615
11
101.614551
21
156.878989
0
LINE
8
Calque 1
10
101.614551
20
156.878989
11
102.071323
21
153.966174
0
LINE
8
Calque 1
10
102.071323
20
153.966174
11
102.418142
21
152.788719
0
LINE
8
Calque 1
10
102.418142
20
152.788719
11
102.830322
21
151.946645
0
LINE
8
Calque 1
10
102.830322
20
151.946645
11
103.460616
21
150.848793
0
LINE
8
Calque 1
10
103.460616
20
150.848793
11
103.848125
21
149.698959
0
LINE
8
Calque 1
10
103.848125
20
149.698959
11
104.005759
21
148.440118
0
LINE
8
Calque 1
10
104.005759
20
148.440118
11
103.946427
21
147.015246
0
LINE
8
Calque 1
10
103.946427
20
147.015246
11
103.881822
21
145.603534
0
LINE
8
Calque 1
10
103.881822
20
145.603534
11
104.120981
21
145.036601
0
LINE
8
Calque 1
10
104.120981
20
145.036601
11
105.518486
21
144.806445
0
LINE
8
Calque 1
10
105.518486
20
144.806445
11
108.464843
21
144.554458
0
LINE
8
Calque 1
10
108.464843
20
144.554458
11
115.368411
21
144.241880
0
LINE
8
Calque 1
10
115.368411
20
144.241880
11
117.917570
21
144.358390
0
LINE
8
Calque 1
10
117.917570
20
144.358390
11
118.822986
21
144.618567
0
LINE
8
Calque 1
10
118.822986
20
144.618567
11
119.897344
21
145.091196
0
LINE
8
Calque 1
10
119.897344
20
145.091196
11
121.516139
21
145.985116
0
LINE
8
Calque 1
10
121.516139
20
145.985116
11
122.813349
21
146.904714
0
LINE
8
Calque 1
10
122.813349
20
146.904714
11
123.724444
21
147.581446
0
LINE
8
Calque 1
10
123.724444
20
147.581446
11
123.967974
21
147.601992
0
LINE
8
Calque 1
10
123.967974
20
147.601992
11
124.143519
21
147.440191
0
LINE
8
Calque 1
10
124.143519
20
147.440191
11
124.277099
21
146.929680
0
LINE
8
Calque 1
10
124.277099
20
146.929680
11
124.243471
21
146.057391
0
LINE
8
Calque 1
10
124.243471
20
146.057391
11
123.670091
21
143.187049
0
LINE
8
Calque 1
10
123.670091
20
143.187049
11
123.383678
21
141.566213
0
LINE
8
Calque 1
10
123.383678
20
141.566213
11
123.286223
21
139.884190
0
LINE
8
Calque 1
10
123.286223
20
139.884190
11
123.378098
21
138.356464
0
LINE
8
Calque 1
10
123.378098
20
138.356464
11
123.659677
21
137.198519
0
LINE
8
Calque 1
10
123.659677
20
137.198519
11
124.469380
21
136.129649
0
LINE
8
Calque 1
10
124.469380
20
136.129649
11
126.058566
21
134.805551
0
LINE
8
Calque 1
10
126.058566
20
134.805551
11
128.068411
21
133.343719
0
LINE
8
Calque 1
10
128.068411
20
133.343719
11
128.068411
21
131.958835
0
LINE
8
Calque 1
10
128.068411
20
131.958835
11
128.024204
21
130.605361
0
LINE
8
Calque 1
10
128.024204
20
130.605361
11
127.884521
21
130.199005
0
LINE
8
Calque 1
10
127.884521
20
130.199005
11
127.591410
21
129.933238
0
LINE
8
Calque 1
10
127.591410
20
129.933238
11
126.319776
21
129.704484
0
LINE
8
Calque 1
10
126.319776
20
129.704484
11
123.759047
21
129.681118
0
LINE
8
Calque 1
10
123.759047
20
129.681118
11
120.131843
21
129.571886
0
LINE
8
Calque 1
10
120.131843
20
129.571886
11
119.295450
21
129.319181
0
LINE
8
Calque 1
10
119.295450
20
129.319181
11
118.467719
21
128.831161
0
LINE
8
Calque 1
10
118.467719
20
128.831161
11
116.769998
21
127.996560
0
LINE
8
Calque 1
10
116.769998
20
127.996560
11
114.684760
21
127.361659
0
LINE
8
Calque 1
10
114.684760
20
127.361659
11
112.437962
21
126.979507
0
LINE
8
Calque 1
10
112.437962
20
126.979507
11
110.255561
21
126.903151
0
LINE
8
Calque 1
10
110.255561
20
126.903151
11
108.030634
21
126.922641
0
LINE
8
Calque 1
10
108.030634
20
126.922641
11
108.655361
21
125.086103
0
LINE
8
Calque 1
10
108.655361
20
125.086103
11
108.998606
21
123.920415
0
LINE
8
Calque 1
10
108.998606
20
123.920415
11
109.199690
21
122.390422
0
LINE
8
Calque 1
10
109.199690
20
122.390422
11
109.384313
21
115.485939
0
LINE
8
Calque 1
10
109.384313
20
115.485939
11
109.384387
21
108.529933
0
LINE
8
Calque 1
10
109.384387
20
108.529933
11
109.221066
21
106.966352
0
LINE
8
Calque 1
10
109.221066
20
106.966352
11
108.900697
21
105.705460
0
LINE
8
Calque 1
10
108.900697
20
105.705460
11
108.477320
21
104.108084
0
LINE
8
Calque 1
10
108.477320
20
104.108084
11
108.326353
21
102.975957
0
LINE
8
Calque 1
10
108.326353
20
102.975957
11
108.447156
21
102.270107
0
LINE
8
Calque 1
10
108.447156
20
102.270107
11
108.839087
21
101.951557
0
LINE
8
Calque 1
10
108.839087
20
101.951557
11
109.396194
21
101.388758
0
LINE
8
Calque 1
10
109.396194
20
101.388758
11
110.012229
21
100.013642
0
LINE
8
Calque 1
10
110.012229
20
100.013642
11
110.361702
21
98.865620
0
LINE
8
Calque 1
10
110.361702
20
98.865620
11
110.573572
21
97.499421
0
LINE
8
Calque 1
10
110.573572
20
97.499421
11
110.783909
21
92.056355
0
LINE
8
Calque 1
10
110.783909
20
92.056355
11
110.760986
21
85.622363
0
LINE
8
Calque 1
10
110.760986
20
85.622363
11
110.533195
21
84.255412
0
LINE
8
Calque 1
10
110.533195
20
84.255412
11
110.116058
21
83.546858
0
LINE
8
Calque 1
10
110.116058
20
83.546858
11
109.488777
21
83.139142
0
LINE
8
Calque 1
10
109.488777
20
83.139142
11
108.829407
21
83.467229
0
LINE
8
Calque 1
10
108.829407
20
83.467229
11
108.829407
21
83.467229
0
LINE
8
Calque 1
10
217.673967
20
83.791452
11
215.413886
21
84.768860
0
LINE
8
Calque 1
10
215.413886
20
84.768860
11
213.262918
21
86.392519
0
LINE
8
Calque 1
10
213.262918
20
86.392519
11
211.809163
21
87.683657
0
LINE
8
Calque 1
10
211.809163
20
87.683657
11
209.311356
21
87.485964
0
LINE
8
Calque 1
10
209.311356
20
87.485964
11
207.633780
21
87.405586
0
LINE
8
Calque 1
10
207.633780
20
87.405586
11
206.785992
21
87.577417
0
LINE
8
Calque 1
10
206.785992
20
87.577417
11
206.623340
21
87.792272
0
LINE
8
Calque 1
10
206.623340
20
87.792272
11
206.608220
21
88.111412
0
LINE
8
Calque 1
10
206.608220
20
88.111412
11
206.940689
21
89.117530
0
LINE
8
Calque 1
10
206.940689
20
89.117530
11
207.264643
21
90.513968
0
LINE
8
Calque 1
10
207.264643
20
90.513968
11
207.385027
21
92.267574
0
LINE
8
Calque 1
10
207.385027
20
92.267574
11
207.295956
21
93.767609
0
LINE
8
Calque 1
10
207.295956
20
93.767609
11
207.171036
21
94.231684
0
LINE
8
Calque 1
10
207.171036
20
94.231684
11
206.991545
21
94.403340
0
LINE
8
Calque 1
10
206.991545
20
94.403340
11
205.275239
21
95.113174
0
LINE
8
Calque 1
10
205.275239
20
95.113174
11
203.777936
21
95.704510
0
LINE
8
Calque 1
10
203.777936
20
95.704510
11
201.991933
21
96.086223
0
LINE
8
Calque 1
10
201.991933
20
96.086223
11
200.096683
21
96.232570
0
LINE
8
Calque 1
10
200.096683
20
96.232570
11
198.271641
21
96.117809
0
LINE
8
Calque 1
10
198.271641
20
96.117809
11
190.390924
21
94.421411
0
LINE
8
Calque 1
10
190.390924
20
94.421411
11
184.864605
21
93.181850
0
LINE
8
Calque 1
10
184.864605
20
93.181850
11
180.879083
21
92.487731
0
LINE
8
Calque 1
10
180.879083
20
92.487731
11
177.498852
21
92.216438
0
LINE
8
Calque 1
10
177.498852
20
92.216438
11
173.788411
21
92.245356
0
LINE
8
Calque 1
10
173.788411
20
92.245356
11
169.602477
21
92.507864
0
LINE
8
Calque 1
10
169.602477
20
92.507864
11
166.309523
21
92.976896
0
LINE
8
Calque 1
10
166.309523
20
92.976896
11
162.684181
21
93.555734
0
LINE
8
Calque 1
10
162.684181
20
93.555734
11
161.461077
21
93.296506
0
LINE
8
Calque 1
10
161.461077
20
93.296506
11
160.410027
21
92.494388
0
LINE
8
Calque 1
10
160.410027
20
92.494388
11
159.502243
21
91.117358
0
LINE
8
Calque 1
10
159.502243
20
91.117358
11
158.708939
21
89.133393
0
LINE
8
Calque 1
10
158.708939
20
89.133393
11
158.319244
21
88.126604
0
LINE
8
Calque 1
10
158.319244
20
88.126604
11
157.913489
21
87.463588
0
LINE
8
Calque 1
10
157.913489
20
87.463588
11
157.487954
21
87.139931
0
LINE
8
Calque 1
10
157.487954
20
87.139931
11
157.038918
21
87.151220
0
LINE
8
Calque 1
10
157.038918
20
87.151220
11
155.953456
21
89.439528
0
LINE
8
Calque 1
10
155.953456
20
89.439528
11
153.888273
21
94.732239
0
LINE
8
Calque 1
10
153.888273
20
94.732239
11
151.300318
21
101.486577
0
LINE
8
Calque 1
10
151.300318
20
101.486577
11
149.336784
21
105.966921
0
LINE
8
Calque 1
10
149.336784
20
105.966921
11
147.592971
21
108.992652
0
LINE
8
Calque 1
10
147.592971
20
108.992652
11
145.664177
21
111.383147
0
LINE
8
Calque 1
10
145.664177
20
111.383147
11
144.333993
21
113.126464
0
LINE
8
Calque 1
10
144.333993
20
113.126464
11
143.450680
21
115.334258
0
LINE
8
Calque 1
10
143.450680
20
115.334258
11
142.609792
21
118.172507
0
LINE
8
Calque 1
10
142.609792
20
118.172507
11
142.144890
21
120.500859
0
LINE
8
Calque 1
10
142.144890
20
120.500859
11
141.945583
21
123.145867
0
LINE
8
Calque 1
10
141.945583
20
123.145867
11
141.901477
21
126.934086
0
LINE
8
Calque 1
10
141.901477
20
126.934086
11
141.775232
21
132.402995
0
LINE
8
Calque 1
10
141.775232
20
132.402995
11
141.184040
21
136.379445
0
LINE
8
Calque 1
10
141.184040
20
136.379445
11
140.700685
21
139.204328
0
LINE
8
Calque 1
10
140.700685
20
139.204328
11
140.496709
21
141.551304
0
LINE
8
Calque 1
10
140.496709
20
141.551304
11
140.564820
21
143.659436
0
LINE
8
Calque 1
10
140.564820
20
143.659436
11
140.897726
21
145.767785
0
LINE
8
Calque 1
10
140.897726
20
145.767785
11
141.371201
21
147.800728
0
LINE
8
Calque 1
10
141.371201
20
147.800728
11
141.919236
21
149.303014
0
LINE
8
Calque 1
10
141.919236
20
149.303014
11
142.813060
21
150.847834
0
LINE
8
Calque 1
10
142.813060
20
150.847834
11
144.323903
21
153.008382
0
LINE
8
Calque 1
10
144.323903
20
153.008382
11
146.361894
21
156.073863
0
LINE
8
Calque 1
10
146.361894
20
156.073863
11
147.890995
21
158.750007
0
LINE
8
Calque 1
10
147.890995
20
158.750007
11
148.865886
21
160.552883
0
LINE
8
Calque 1
10
148.865886
20
160.552883
11
149.571346
21
161.518805
0
LINE
8
Calque 1
10
149.571346
20
161.518805
11
150.105749
21
162.060907
0
LINE
8
Calque 1
10
150.105749
20
162.060907
11
150.536422
21
162.803130
0
LINE
8
Calque 1
10
150.536422
20
162.803130
11
150.823824
21
163.657546
0
LINE
8
Calque 1
10
150.823824
20
163.657546
11
150.928411
21
164.536229
0
LINE
8
Calque 1
10
150.928411
20
164.536229
11
151.078377
21
165.425295
0
LINE
8
Calque 1
10
151.078377
20
165.425295
11
151.776771
21
165.848446
0
LINE
8
Calque 1
10
151.776771
20
165.848446
11
152.455654
21
166.256008
0
LINE
8
Calque 1
10
152.455654
20
166.256008
11
152.788143
21
166.892098
0
LINE
8
Calque 1
10
152.788143
20
166.892098
11
153.001393
21
167.775637
0
LINE
8
Calque 1
10
153.001393
20
167.775637
11
153.239342
21
168.209525
0
LINE
8
Calque 1
10
153.239342
20
168.209525
11
153.650937
21
168.318172
0
LINE
8
Calque 1
10
153.650937
20
168.318172
11
154.385126
21
168.225988
0
LINE
8
Calque 1
10
154.385126
20
168.225988
11
155.931428
21
167.808877
0
LINE
8
Calque 1
10
155.931428
20
167.808877
11
157.978746
21
167.073144
0
LINE
8
Calque 1
10
157.978746
20
167.073144
11
163.201042
21
165.217922
0
LINE
8
Calque 1
10
163.201042
20
165.217922
11
164.859553
21
164.720514
0
LINE
8
Calque 1
10
164.859553
20
164.720514
11
166.141487
21
164.468669
0
LINE
8
Calque 1
10
166.141487
20
164.468669
11
169.705333
21
164.450346
0
LINE
8
Calque 1
10
169.705333
20
164.450346
11
172.340668
21
164.625300
0
LINE
8
Calque 1
10
172.340668
20
164.625300
11
174.141253
21
164.982556
0
LINE
8
Calque 1
10
174.141253
20
164.982556
11
175.311018
21
165.588224
0
LINE
8
Calque 1
10
175.311018
20
165.588224
11
176.053894
21
166.508414
0
LINE
8
Calque 1
10
176.053894
20
166.508414
11
176.369012
21
166.981483
0
LINE
8
Calque 1
10
176.369012
20
166.981483
11
176.821203
21
167.278585
0
LINE
8
Calque 1
10
176.821203
20
167.278585
11
179.031000
21
167.704004
0
LINE
8
Calque 1
10
179.031000
20
167.704004
11
182.179218
21
168.305447
0
LINE
8
Calque 1
10
182.179218
20
168.305447
11
184.659167
21
169.117685
0
LINE
8
Calque 1
10
184.659167
20
169.117685
11
186.368258
21
170.096845
0
LINE
8
Calque 1
10
186.368258
20
170.096845
11
186.901672
21
170.635312
0
LINE
8
Calque 1
10
186.901672
20
170.635312
11
187.203901
21
171.199058
0
LINE
8
Calque 1
10
187.203901
20
171.199058
11
187.149852
21
171.911513
0
LINE
8
Calque 1
10
187.149852
20
171.911513
11
186.637481
21
172.899704
0
LINE
8
Calque 1
10
186.637481
20
172.899704
11
186.135224
21
173.877533
0
LINE
8
Calque 1
10
186.135224
20
173.877533
11
185.977476
21
174.642070
0
LINE
8
Calque 1
10
185.977476
20
174.642070
11
186.098152
21
175.060206
0
LINE
8
Calque 1
10
186.098152
20
175.060206
11
186.371668
21
175.392923
0
LINE
8
Calque 1
10
186.371668
20
175.392923
11
186.864679
21
175.652336
0
LINE
8
Calque 1
10
186.864679
20
175.652336
11
187.643840
21
175.850560
0
LINE
8
Calque 1
10
187.643840
20
175.850560
11
190.327230
21
176.111905
0
LINE
8
Calque 1
10
190.327230
20
176.111905
11
194.955078
21
176.273885
0
LINE
8
Calque 1
10
194.955078
20
176.273885
11
200.186212
21
176.463880
0
LINE
8
Calque 1
10
200.186212
20
176.463880
11
202.657233
21
176.667757
0
LINE
8
Calque 1
10
202.657233
20
176.667757
11
203.019310
21
176.680209
0
LINE
8
Calque 1
10
203.019310
20
176.680209
11
203.587935
21
176.472307
0
LINE
8
Calque 1
10
203.587935
20
176.472307
11
205.521365
21
175.311868
0
LINE
8
Calque 1
10
205.521365
20
175.311868
11
210.022217
21
172.692245
0
LINE
8
Calque 1
10
210.022217
20
172.692245
11
215.147231
21
170.330525
0
LINE
8
Calque 1
10
215.147231
20
170.330525
11
216.972521
21
169.453948
0
LINE
8
Calque 1
10
216.972521
20
169.453948
11
217.890798
21
168.666249
0
LINE
8
Calque 1
10
217.890798
20
168.666249
11
218.722761
21
167.428340
0
LINE
8
Calque 1
10
218.722761
20
167.428340
11
218.919433
21
166.873999
0
LINE
8
Calque 1
10
218.919433
20
166.873999
11
218.602422
21
166.287146
0
LINE
8
Calque 1
10
218.602422
20
166.287146
11
217.666455
21
165.557145
0
LINE
8
Calque 1
10
217.666455
20
165.557145
11
216.006259
21
164.573358
0
LINE
8
Calque 1
10
216.006259
20
164.573358
11
213.953613
21
163.240892
0
LINE
8
Calque 1
10
213.953613
20
163.240892
11
211.959313
21
161.558762
0
LINE
8
Calque 1
10
211.959313
20
161.558762
11
209.995905
21
159.501022
0
LINE
8
Calque 1
10
209.995905
20
159.501022
11
208.035937
21
157.041730
0
LINE
8
Calque 1
10
208.035937
20
157.041730
11
206.473407
21
155.133571
0
LINE
8
Calque 1
10
206.473407
20
155.133571
11
205.953121
21
154.855908
0
LINE
8
Calque 1
10
205.953121
20
154.855908
11
205.330950
21
154.800632
0
LINE
8
Calque 1
10
205.330950
20
154.800632
11
203.719242
21
155.089566
0
LINE
8
Calque 1
10
203.719242
20
155.089566
11
201.324495
21
155.786674
0
LINE
8
Calque 1
10
201.324495
20
155.786674
11
199.577372
21
156.304189
0
LINE
8
Calque 1
10
199.577372
20
156.304189
11
197.916654
21
156.632625
0
LINE
8
Calque 1
10
197.916654
20
156.632625
11
196.252124
21
156.762973
0
LINE
8
Calque 1
10
196.252124
20
156.762973
11
194.493567
21
156.686223
0
LINE
8
Calque 1
10
194.493567
20
156.686223
11
192.550768
21
156.393368
0
LINE
8
Calque 1
10
192.550768
20
156.393368
11
190.333510
21
155.875399
0
LINE
8
Calque 1
10
190.333510
20
155.875399
11
184.714758
21
154.128082
0
LINE
8
Calque 1
10
184.714758
20
154.128082
11
179.569721
21
152.444632
0
LINE
8
Calque 1
10
179.569721
20
152.444632
11
175.898506
21
151.433442
0
LINE
8
Calque 1
10
175.898506
20
151.433442
11
173.149062
21
150.967511
0
LINE
8
Calque 1
10
173.149062
20
150.967511
11
170.769339
21
150.919833
0
LINE
8
Calque 1
10
170.769339
20
150.919833
11
168.612392
21
150.943287
0
LINE
8
Calque 1
10
168.612392
20
150.943287
11
168.177214
21
150.824193
0
LINE
8
Calque 1
10
168.177214
20
150.824193
11
167.982705
21
150.596017
0
LINE
8
Calque 1
10
167.982705
20
150.596017
11
167.647030
21
144.946670
0
LINE
8
Calque 1
10
167.647030
20
144.946670
11
167.502250
21
139.751112
0
LINE
8
Calque 1
10
167.502250
20
139.751112
11
170.010331
21
139.935011
0
LINE
8
Calque 1
10
170.010331
20
139.935011
11
175.622856
21
140.667832
0
LINE
8
Calque 1
10
175.622856
20
140.667832
11
186.693569
21
142.565020
0
LINE
8
Calque 1
10
186.693569
20
142.565020
11
192.168726
21
143.262924
0
LINE
8
Calque 1
10
192.168726
20
143.262924
11
195.360582
21
143.455142
0
LINE
8
Calque 1
10
195.360582
20
143.455142
11
197.307118
21
143.262938
0
LINE
8
Calque 1
10
197.307118
20
143.262938
11
199.179749
21
142.566105
0
LINE
8
Calque 1
10
199.179749
20
142.566105
11
201.435380
21
141.296329
0
LINE
8
Calque 1
10
201.435380
20
141.296329
11
203.825504
21
139.611649
0
LINE
8
Calque 1
10
203.825504
20
139.611649
11
206.101614
21
137.670101
0
LINE
8
Calque 1
10
206.101614
20
137.670101
11
207.690100
21
136.079026
0
LINE
8
Calque 1
10
207.690100
20
136.079026
11
208.331702
21
135.063530
0
LINE
8
Calque 1
10
208.331702
20
135.063530
11
208.316336
21
134.689772
0
LINE
8
Calque 1
10
208.316336
20
134.689772
11
208.086946
21
134.361685
0
LINE
8
Calque 1
10
208.086946
20
134.361685
11
207.016353
21
133.711559
0
LINE
8
Calque 1
10
207.016353
20
133.711559
11
198.213288
21
129.574911
0
LINE
8
Calque 1
10
198.213288
20
129.574911
11
195.340223
21
128.358205
0
LINE
8
Calque 1
10
195.340223
20
128.358205
11
193.478520
21
127.705865
0
LINE
8
Calque 1
10
193.478520
20
127.705865
11
191.284239
21
127.265395
0
LINE
8
Calque 1
10
191.284239
20
127.265395
11
189.046128
21
127.083464
0
LINE
8
Calque 1
10
189.046128
20
127.083464
11
187.049645
21
127.166722
0
LINE
8
Calque 1
10
187.049645
20
127.166722
11
185.580249
21
127.521822
0
LINE
8
Calque 1
10
185.580249
20
127.521822
11
184.293578
21
127.839402
0
LINE
8
Calque 1
10
184.293578
20
127.839402
11
182.422443
21
127.976113
0
LINE
8
Calque 1
10
182.422443
20
127.976113
11
180.205307
21
127.926853
0
LINE
8
Calque 1
10
180.205307
20
127.926853
11
177.880634
21
127.686521
0
LINE
8
Calque 1
10
177.880634
20
127.686521
11
173.114775
21
127.149520
0
LINE
8
Calque 1
10
173.114775
20
127.149520
11
170.961310
21
126.861952
0
LINE
8
Calque 1
10
170.961310
20
126.861952
11
169.924959
21
126.503073
0
LINE
8
Calque 1
10
169.924959
20
126.503073
11
169.567380
21
125.688356
0
LINE
8
Calque 1
10
169.567380
20
125.688356
11
169.268707
21
124.290612
0
LINE
8
Calque 1
10
169.268707
20
124.290612
11
168.449585
21
120.082176
0
LINE
8
Calque 1
10
168.449585
20
120.082176
11
167.931094
21
117.680093
0
LINE
8
Calque 1
10
167.931094
20
117.680093
11
167.691092
21
115.963696
0
LINE
8
Calque 1
10
167.691092
20
115.963696
11
167.711366
21
114.684608
0
LINE
8
Calque 1
10
167.711366
20
114.684608
11
167.973702
21
113.594451
0
LINE
8
Calque 1
10
167.973702
20
113.594451
11
168.422069
21
111.865118
0
LINE
8
Calque 1
10
168.422069
20
111.865118
11
168.590231
21
111.245704
0
LINE
8
Calque 1
10
168.590231
20
111.245704
11
169.267667
21
110.952144
0
LINE
8
Calque 1
10
169.267667
20
110.952144
11
170.735195
21
110.945085
0
LINE
8
Calque 1
10
170.735195
20
110.945085
11
173.273638
21
111.185168
0
LINE
8
Calque 1
10
173.273638
20
111.185168
11
179.573967
21
112.039207
0
LINE
8
Calque 1
10
179.573967
20
112.039207
11
183.566121
21
112.322830
0
LINE
8
Calque 1
10
183.566121
20
112.322830
11
190.115828
21
112.453360
0
LINE
8
Calque 1
10
190.115828
20
112.453360
11
196.996645
21
112.415444
0
LINE
8
Calque 1
10
196.996645
20
112.415444
11
201.982129
21
112.193729
0
LINE
8
Calque 1
10
201.982129
20
112.193729
11
204.619979
21
111.759111
0
LINE
8
Calque 1
10
204.619979
20
111.759111
11
207.203240
21
110.666204
0
LINE
8
Calque 1
10
207.203240
20
110.666204
11
211.182856
21
108.566245
0
LINE
8
Calque 1
10
211.182856
20
108.566245
11
212.517386
21
107.920243
0
LINE
8
Calque 1
10
212.517386
20
107.920243
11
212.965706
21
107.931356
0
LINE
8
Calque 1
10
212.965706
20
107.931356
11
213.497501
21
108.121084
0
LINE
8
Calque 1
10
213.497501
20
108.121084
11
214.153359
21
108.523605
0
LINE
8
Calque 1
10
214.153359
20
108.523605
11
214.525256
21
109.484952
0
LINE
8
Calque 1
10
214.525256
20
109.484952
11
214.743419
21
111.707870
0
LINE
8
Calque 1
10
214.743419
20
111.707870
11
214.938077
21
115.895102
0
LINE
8
Calque 1
10
214.938077
20
115.895102
11
215.259411
21
120.965413
0
LINE
8
Calque 1
10
215.259411
20
120.965413
11
215.559222
21
122.143503
0
LINE
8
Calque 1
10
215.559222
20
122.143503
11
216.090757
21
123.310936
0
LINE
8
Calque 1
10
216.090757
20
123.310936
11
216.946546
21
124.766176
0
LINE
8
Calque 1
10
216.946546
20
124.766176
11
217.711615
21
125.639507
0
LINE
8
Calque 1
10
217.711615
20
125.639507
11
218.361355
21
126.261858
0
LINE
8
Calque 1
10
218.361355
20
126.261858
11
218.939931
21
127.113672
0
LINE
8
Calque 1
10
218.939931
20
127.113672
11
220.316826
21
128.825507
0
LINE
8
Calque 1
10
220.316826
20
128.825507
11
222.885934
21
131.515563
0
LINE
8
Calque 1
10
222.885934
20
131.515563
11
225.565680
21
134.321910
0
LINE
8
Calque 1
10
225.565680
20
134.321910
11
227.208619
21
136.313340
0
LINE
8
Calque 1
10
227.208619
20
136.313340
11
228.972197
21
138.591322
0
LINE
8
Calque 1
10
228.972197
20
138.591322
11
229.645110
21
139.476318
0
LINE
8
Calque 1
10
229.645110
20
139.476318
11
230.136050
21
140.558869
0
LINE
8
Calque 1
10
230.136050
20
140.558869
11
230.421478
21
141.769436
0
LINE
8
Calque 1
10
230.421478
20
141.769436
11
230.477853
21
143.038481
0
LINE
8
Calque 1
10
230.477853
20
143.038481
11
230.604013
21
144.259048
0
LINE
8
Calque 1
10
230.604013
20
144.259048
11
231.266579
21
145.503159
0
LINE
8
Calque 1
10
231.266579
20
145.503159
11
233.745020
21
149.572776
0
LINE
8
Calque 1
10
233.745020
20
149.572776
11
236.349232
21
154.714842
0
LINE
8
Calque 1
10
236.349232
20
154.714842
11
239.603759
21
161.947531
0
LINE
8
Calque 1
10
239.603759
20
161.947531
11
240.162070
21
163.772387
0
LINE
8
Calque 1
10
240.162070
20
163.772387
11
240.402000
21
165.446946
0
LINE
8
Calque 1
10
240.402000
20
165.446946
11
240.657759
21
167.283622
0
LINE
8
Calque 1
10
240.657759
20
167.283622
11
241.030114
21
168.913652
0
LINE
8
Calque 1
10
241.030114
20
168.913652
11
241.471261
21
170.167559
0
LINE
8
Calque 1
10
241.471261
20
170.167559
11
241.933394
21
170.875865
0
LINE
8
Calque 1
10
241.933394
20
170.875865
11
242.588908
21
170.997103
0
LINE
8
Calque 1
10
242.588908
20
170.997103
11
243.954246
21
170.615363
0
LINE
8
Calque 1
10
243.954246
20
170.615363
11
245.723861
21
170.181775
0
LINE
8
Calque 1
10
245.723861
20
170.181775
11
247.756852
21
170.038896
0
LINE
8
Calque 1
10
247.756852
20
170.038896
11
249.919295
21
170.038896
0
LINE
8
Calque 1
10
249.919295
20
170.038896
11
252.141061
21
171.599015
0
LINE
8
Calque 1
10
252.141061
20
171.599015
11
254.238482
21
173.023309
0
LINE
8
Calque 1
10
254.238482
20
173.023309
11
255.708343
21
173.701610
0
LINE
8
Calque 1
10
255.708343
20
173.701610
11
257.263940
21
173.822289
0
LINE
8
Calque 1
10
257.263940
20
173.822289
11
259.618567
21
173.573718
0
LINE
8
Calque 1
10
259.618567
20
173.573718
11
262.252960
21
173.325869
0
LINE
8
Calque 1
10
262.252960
20
173.325869
11
263.781627
21
173.324857
0
LINE
8
Calque 1
10
263.781627
20
173.324857
11
264.919553
21
173.848591
0
LINE
8
Calque 1
10
264.919553
20
173.848591
11
266.231203
21
174.831526
0
LINE
8
Calque 1
10
266.231203
20
174.831526
11
267.496457
21
176.082811
0
LINE
8
Calque 1
10
267.496457
20
176.082811
11
268.495190
21
177.411596
0
LINE
8
Calque 1
10
268.495190
20
177.411596
11
269.307828
21
178.592230
0
LINE
8
Calque 1
10
269.307828
20
178.592230
11
269.850379
21
179.086293
0
LINE
8
Calque 1
10
269.850379
20
179.086293
11
269.993814
21
179.066034
0
LINE
8
Calque 1
10
269.993814
20
179.066034
11
270.037859
21
178.862341
0
LINE
8
Calque 1
10
270.037859
20
178.862341
11
269.785284
21
177.888935
0
LINE
8
Calque 1
10
269.785284
20
177.888935
11
269.398150
21
176.701749
0
LINE
8
Calque 1
10
269.398150
20
176.701749
11
269.382984
21
175.855856
0
LINE
8
Calque 1
10
269.382984
20
175.855856
11
269.828266
21
175.001466
0
LINE
8
Calque 1
10
269.828266
20
175.001466
11
270.822479
21
173.788788
0
LINE
8
Calque 1
10
270.822479
20
173.788788
11
272.800801
21
171.256894
0
LINE
8
Calque 1
10
272.800801
20
171.256894
11
273.046445
21
170.373452
0
LINE
8
Calque 1
10
273.046445
20
170.373452
11
273.114361
21
169.065560
0
LINE
8
Calque 1
10
273.114361
20
169.065560
11
272.784689
21
165.602395
0
LINE
8
Calque 1
10
272.784689
20
165.602395
11
271.947150
21
161.719350
0
LINE
8
Calque 1
10
271.947150
20
161.719350
11
270.737107
21
158.268375
0
LINE
8
Calque 1
10
270.737107
20
158.268375
11
269.982995
21
156.363494
0
LINE
8
Calque 1
10
269.982995
20
156.363494
11
269.844241
21
155.284473
0
LINE
8
Calque 1
10
269.844241
20
155.284473
11
270.471264
21
154.238545
0
LINE
8
Calque 1
10
270.471264
20
154.238545
11
271.743427
21
152.661661
0
LINE
8
Calque 1
10
271.743427
20
152.661661
11
277.569805
21
145.702491
0
LINE
8
Calque 1
10
277.569805
20
145.702491
11
282.890214
21
138.889324
0
LINE
8
Calque 1
10
282.890214
20
138.889324
11
285.861767
21
134.624174
0
LINE
8
Calque 1
10
285.861767
20
134.624174
11
288.569224
21
130.289908
0
LINE
8
Calque 1
10
288.569224
20
130.289908
11
291.296884
21
125.404261
0
LINE
8
Calque 1
10
291.296884
20
125.404261
11
294.329048
21
119.484968
0
LINE
8
Calque 1
10
294.329048
20
119.484968
11
296.279291
21
115.837286
0
LINE
8
Calque 1
10
296.279291
20
115.837286
11
296.976303
21
114.827373
0
LINE
8
Calque 1
10
296.976303
20
114.827373
11
297.596588
21
114.183751
0
LINE
8
Calque 1
10
297.596588
20
114.183751
11
298.514836
21
113.504499
0
LINE
8
Calque 1
10
298.514836
20
113.504499
11
299.304318
21
113.185547
0
LINE
8
Calque 1
10
299.304318
20
113.185547
11
300.179002
21
113.185937
0
LINE
8
Calque 1
10
300.179002
20
113.185937
11
301.352853
21
113.464711
0
LINE
8
Calque 1
10
301.352853
20
113.464711
11
302.960372
21
113.899358
0
LINE
8
Calque 1
10
302.960372
20
113.899358
11
304.039203
21
114.047964
0
LINE
8
Calque 1
10
304.039203
20
114.047964
11
304.960856
21
113.913078
0
LINE
8
Calque 1
10
304.960856
20
113.913078
11
306.096839
21
113.497248
0
LINE
8
Calque 1
10
306.096839
20
113.497248
11
307.587844
21
112.969194
0
LINE
8
Calque 1
10
307.587844
20
112.969194
11
307.802517
21
113.040939
0
LINE
8
Calque 1
10
307.802517
20
113.040939
11
307.843964
21
113.317998
0
LINE
8
Calque 1
10
307.843964
20
113.317998
11
306.856186
21
116.577450
0
LINE
8
Calque 1
10
306.856186
20
116.577450
11
306.158568
21
118.767223
0
LINE
8
Calque 1
10
306.158568
20
118.767223
11
305.868409
21
120.200100
0
LINE
8
Calque 1
10
305.868409
20
120.200100
11
305.813139
21
120.694843
0
LINE
8
Calque 1
10
305.813139
20
120.694843
11
305.603603
21
121.123675
0
LINE
8
Calque 1
10
305.603603
20
121.123675
11
304.459386
21
122.145903
0
LINE
8
Calque 1
10
304.459386
20
122.145903
11
303.167754
21
123.367580
0
LINE
8
Calque 1
10
303.167754
20
123.367580
11
302.131053
21
124.957810
0
LINE
8
Calque 1
10
302.131053
20
124.957810
11
301.211742
21
126.717785
0
LINE
8
Calque 1
10
301.211742
20
126.717785
11
301.255261
21
134.070453
0
LINE
8
Calque 1
10
301.255261
20
134.070453
11
301.377237
21
140.212852
0
LINE
8
Calque 1
10
301.377237
20
140.212852
11
301.521373
21
141.658133
0
LINE
8
Calque 1
10
301.521373
20
141.658133
11
301.749150
21
142.501031
0
LINE
8
Calque 1
10
301.749150
20
142.501031
11
302.086126
21
143.941227
0
LINE
8
Calque 1
10
302.086126
20
143.941227
11
302.199520
21
146.095716
0
LINE
8
Calque 1
10
302.199520
20
146.095716
11
302.316917
21
148.319155
0
LINE
8
Calque 1
10
302.316917
20
148.319155
11
302.763964
21
149.718896
0
LINE
8
Calque 1
10
302.763964
20
149.718896
11
303.143884
21
150.808994
0
LINE
8
Calque 1
10
303.143884
20
150.808994
11
303.308558
21
152.051844
0
LINE
8
Calque 1
10
303.308558
20
152.051844
11
303.249759
21
153.257108
0
LINE
8
Calque 1
10
303.249759
20
153.257108
11
302.959262
21
154.234451
0
LINE
8
Calque 1
10
302.959262
20
154.234451
11
302.721206
21
154.603975
0
LINE
8
Calque 1
10
302.721206
20
154.603975
11
302.408953
21
154.817700
0
LINE
8
Calque 1
10
302.408953
20
154.817700
11
301.144545
21
154.940007
0
LINE
8
Calque 1
10
301.144545
20
154.940007
11
300.021731
21
155.035603
0
LINE
8
Calque 1
10
300.021731
20
155.035603
11
299.363779
21
155.265440
0
LINE
8
Calque 1
10
299.363779
20
155.265440
11
299.178629
21
156.143257
0
LINE
8
Calque 1
10
299.178629
20
156.143257
11
299.173847
21
157.898637
0
LINE
8
Calque 1
10
299.173847
20
157.898637
11
299.330890
21
160.055227
0
LINE
8
Calque 1
10
299.330890
20
160.055227
11
299.631213
21
162.136674
0
LINE
8
Calque 1
10
299.631213
20
162.136674
11
299.843887
21
163.549119
0
LINE
8
Calque 1
10
299.843887
20
163.549119
11
299.715957
21
164.307991
0
LINE
8
Calque 1
10
299.715957
20
164.307991
11
299.490982
21
164.490558
0
LINE
8
Calque 1
10
299.490982
20
164.490558
11
299.140914
21
164.567599
0
LINE
8
Calque 1
10
299.140914
20
164.567599
11
298.012245
21
164.482254
0
LINE
8
Calque 1
10
298.012245
20
164.482254
11
292.745075
21
164.272038
0
LINE
8
Calque 1
10
292.745075
20
164.272038
11
290.138690
21
164.352657
0
LINE
8
Calque 1
10
290.138690
20
164.352657
11
288.511100
21
164.613864
0
LINE
8
Calque 1
10
288.511100
20
164.613864
11
287.610934
21
165.133286
0
LINE
8
Calque 1
10
287.610934
20
165.133286
11
287.186822
21
165.988555
0
LINE
8
Calque 1
10
287.186822
20
165.988555
11
286.740189
21
166.884552
0
LINE
8
Calque 1
10
286.740189
20
166.884552
11
285.938158
21
167.744364
0
LINE
8
Calque 1
10
285.938158
20
167.744364
11
284.910807
21
168.456234
0
LINE
8
Calque 1
10
284.910807
20
168.456234
11
283.788217
21
168.908404
0
LINE
8
Calque 1
10
283.788217
20
168.908404
11
282.448973
21
169.281778
0
LINE
8
Calque 1
10
282.448973
20
169.281778
11
282.125343
21
169.464520
0
LINE
8
Calque 1
10
282.125343
20
169.464520
11
282.038589
21
169.694311
0
LINE
8
Calque 1
10
282.038589
20
169.694311
11
282.594347
21
170.444077
0
LINE
8
Calque 1
10
282.594347
20
170.444077
11
284.153525
21
171.829147
0
LINE
8
Calque 1
10
284.153525
20
171.829147
11
286.700299
21
174.042729
0
LINE
8
Calque 1
10
286.700299
20
174.042729
11
289.158228
21
174.472068
0
LINE
8
Calque 1
10
289.158228
20
174.472068
11
292.041680
21
174.735025
0
LINE
8
Calque 1
10
292.041680
20
174.735025
11
295.797058
21
174.762910
0
LINE
8
Calque 1
10
295.797058
20
174.762910
11
299.705011
21
174.571108
0
LINE
8
Calque 1
10
299.705011
20
174.571108
11
303.046186
21
174.175006
0
LINE
8
Calque 1
10
303.046186
20
174.175006
11
305.692135
21
173.830111
0
LINE
8
Calque 1
10
305.692135
20
173.830111
11
308.768627
21
173.589940
0
LINE
8
Calque 1
10
308.768627
20
173.589940
11
311.561215
21
173.495258
0
LINE
8
Calque 1
10
311.561215
20
173.495258
11
313.355454
21
173.586824
0
LINE
8
Calque 1
10
313.355454
20
173.586824
11
314.385621
21
173.780084
0
LINE
8
Calque 1
10
314.385621
20
173.780084
11
313.302001
21
174.387912
0
LINE
8
Calque 1
10
313.302001
20
174.387912
11
312.532924
21
174.924927
0
LINE
8
Calque 1
10
312.532924
20
174.924927
11
312.272799
21
175.392723
0
LINE
8
Calque 1
10
312.272799
20
175.392723
11
312.530503
21
175.793884
0
LINE
8
Calque 1
10
312.530503
20
175.793884
11
313.314916
21
176.130997
0
LINE
8
Calque 1
10
313.314916
20
176.130997
11
316.499381
21
176.623418
0
LINE
8
Calque 1
10
316.499381
20
176.623418
11
321.897220
21
176.890670
0
LINE
8
Calque 1
10
321.897220
20
176.890670
11
327.818898
21
177.176602
0
LINE
8
Calque 1
10
327.818898
20
177.176602
11
330.039888
21
177.504202
0
LINE
8
Calque 1
10
330.039888
20
177.504202
11
332.820631
21
178.068423
0
LINE
8
Calque 1
10
332.820631
20
178.068423
11
342.133964
21
179.959385
0
LINE
8
Calque 1
10
342.133964
20
179.959385
11
346.303021
21
180.892859
0
LINE
8
Calque 1
10
346.303021
20
180.892859
11
349.985499
21
181.922766
0
LINE
8
Calque 1
10
349.985499
20
181.922766
11
356.109101
21
183.704507
0
LINE
8
Calque 1
10
356.109101
20
183.704507
11
363.988689
21
185.425174
0
LINE
8
Calque 1
10
363.988689
20
185.425174
11
368.456457
21
186.406729
0
LINE
8
Calque 1
10
368.456457
20
186.406729
11
371.890911
21
187.310933
0
LINE
8
Calque 1
10
371.890911
20
187.310933
11
374.527595
21
187.970494
0
LINE
8
Calque 1
10
374.527595
20
187.970494
11
377.143423
21
188.314345
0
LINE
8
Calque 1
10
377.143423
20
188.314345
11
379.547292
21
188.328842
0
LINE
8
Calque 1
10
379.547292
20
188.328842
11
381.548104
21
188.000342
0
LINE
8
Calque 1
10
381.548104
20
188.000342
11
383.465664
21
187.179652
0
LINE
8
Calque 1
10
383.465664
20
187.179652
11
386.022398
21
185.763285
0
LINE
8
Calque 1
10
386.022398
20
185.763285
11
388.645300
21
184.092737
0
LINE
8
Calque 1
10
388.645300
20
184.092737
11
390.761361
21
182.509506
0
LINE
8
Calque 1
10
390.761361
20
182.509506
11
393.317702
21
180.486032
0
LINE
8
Calque 1
10
393.317702
20
180.486032
11
394.314430
21
179.578906
0
LINE
8
Calque 1
10
394.314430
20
179.578906
11
395.449806
21
178.202225
0
LINE
8
Calque 1
10
395.449806
20
178.202225
11
396.563465
21
176.570504
0
LINE
8
Calque 1
10
396.563465
20
176.570504
11
397.495042
21
174.898257
0
LINE
8
Calque 1
10
397.495042
20
174.898257
11
397.910533
21
173.953650
0
LINE
8
Calque 1
10
397.910533
20
173.953650
11
398.148560
21
173.081578
0
LINE
8
Calque 1
10
398.148560
20
173.081578
11
398.287409
21
170.462229
0
LINE
8
Calque 1
10
398.287409
20
170.462229
11
398.199272
21
168.321625
0
LINE
8
Calque 1
10
398.199272
20
168.321625
11
397.807145
21
166.443395
0
LINE
8
Calque 1
10
397.807145
20
166.443395
11
396.942313
21
164.285845
0
LINE
8
Calque 1
10
396.942313
20
164.285845
11
395.436062
21
161.307279
0
LINE
8
Calque 1
10
395.436062
20
161.307279
11
393.920936
21
158.606931
0
LINE
8
Calque 1
10
393.920936
20
158.606931
11
392.425488
21
156.290616
0
LINE
8
Calque 1
10
392.425488
20
156.290616
11
390.938448
21
154.342216
0
LINE
8
Calque 1
10
390.938448
20
154.342216
11
389.448548
21
152.745611
0
LINE
8
Calque 1
10
389.448548
20
152.745611
11
387.856748
21
151.443697
0
LINE
8
Calque 1
10
387.856748
20
151.443697
11
386.346502
21
150.883751
0
LINE
8
Calque 1
10
386.346502
20
150.883751
11
384.241746
21
150.564507
0
LINE
8
Calque 1
10
384.241746
20
150.564507
11
383.511499
21
150.402421
0
LINE
8
Calque 1
10
383.511499
20
150.402421
11
382.714472
21
149.996871
0
LINE
8
Calque 1
10
382.714472
20
149.996871
11
382.036232
21
149.465686
0
LINE
8
Calque 1
10
382.036232
20
149.465686
11
381.662347
21
148.926692
0
LINE
8
Calque 1
10
381.662347
20
148.926692
11
381.048383
21
148.312943
0
LINE
8
Calque 1
10
381.048383
20
148.312943
11
379.732173
21
147.595679
0
LINE
8
Calque 1
10
379.732173
20
147.595679
11
376.212439
21
146.011772
0
LINE
8
Calque 1
10
376.212439
20
146.011772
11
374.145541
21
145.167723
0
LINE
8
Calque 1
10
374.145541
20
145.167723
11
371.976784
21
144.455412
0
LINE
8
Calque 1
10
371.976784
20
144.455412
11
369.826791
21
143.909967
0
LINE
8
Calque 1
10
369.826791
20
143.909967
11
367.816186
21
143.566519
0
LINE
8
Calque 1
10
367.816186
20
143.566519
11
365.951739
21
143.289149
0
LINE
8
Calque 1
10
365.951739
20
143.289149
11
364.783067
21
142.968171
0
LINE
8
Calque 1
10
364.783067
20
142.968171
11
364.178454
21
142.548575
0
LINE
8
Calque 1
10
364.178454
20
142.548575
11
364.006186
21
141.975356
0
LINE
8
Calque 1
10
364.006186
20
141.975356
11
364.181793
21
140.995587
0
LINE
8
Calque 1
10
364.181793
20
140.995587
11
364.593438
21
139.722272
0
LINE
8
Calque 1
10
364.593438
20
139.722272
11
365.068355
21
138.618606
0
LINE
8
Calque 1
10
365.068355
20
138.618606
11
365.433779
21
138.147785
0
LINE
8
Calque 1
10
365.433779
20
138.147785
11
365.729890
21
137.878351
0
LINE
8
Calque 1
10
365.729890
20
137.878351
11
366.079278
21
137.230563
0
LINE
8
Calque 1
10
366.079278
20
137.230563
11
366.661875
21
136.358363
0
LINE
8
Calque 1
10
366.661875
20
136.358363
11
367.663222
21
135.333411
0
LINE
8
Calque 1
10
367.663222
20
135.333411
11
368.902440
21
134.320250
0
LINE
8
Calque 1
10
368.902440
20
134.320250
11
370.198650
21
133.483422
0
LINE
8
Calque 1
10
370.198650
20
133.483422
11
372.342015
21
132.003971
0
LINE
8
Calque 1
10
372.342015
20
132.003971
11
373.515819
21
131.231516
0
LINE
8
Calque 1
10
373.515819
20
131.231516
11
374.792240
21
130.648432
0
LINE
8
Calque 1
10
374.792240
20
130.648432
11
375.745322
21
130.267398
0
LINE
8
Calque 1
10
375.745322
20
130.267398
11
376.141742
21
129.980728
0
LINE
8
Calque 1
10
376.141742
20
129.980728
11
377.482298
21
129.064708
0
LINE
8
Calque 1
10
377.482298
20
129.064708
11
383.045998
21
126.028468
0
LINE
8
Calque 1
10
383.045998
20
126.028468
11
388.216179
21
123.263891
0
LINE
8
Calque 1
10
388.216179
20
123.263891
11
395.050631
21
119.862663
0
LINE
8
Calque 1
10
395.050631
20
119.862663
11
395.848376
21
119.225547
0
LINE
8
Calque 1
10
395.848376
20
119.225547
11
396.466191
21
118.073907
0
LINE
8
Calque 1
10
396.466191
20
118.073907
11
396.978241
21
116.209791
0
LINE
8
Calque 1
10
396.978241
20
116.209791
11
397.458692
21
113.435247
0
LINE
8
Calque 1
10
397.458692
20
113.435247
11
397.976593
21
110.578673
0
LINE
8
Calque 1
10
397.976593
20
110.578673
11
398.662081
21
108.510583
0
LINE
8
Calque 1
10
398.662081
20
108.510583
11
399.730484
21
106.762446
0
LINE
8
Calque 1
10
399.730484
20
106.762446
11
401.397131
21
104.865733
0
LINE
8
Calque 1
10
401.397131
20
104.865733
11
403.391349
21
102.545347
0
LINE
8
Calque 1
10
403.391349
20
102.545347
11
404.773638
21
100.411964
0
LINE
8
Calque 1
10
404.773638
20
100.411964
11
405.590506
21
98.996002
0
LINE
8
Calque 1
10
405.590506
20
98.996002
11
406.554107
21
97.914586
0
LINE
8
Calque 1
10
406.554107
20
97.914586
11
408.112555
21
96.772681
0
LINE
8
Calque 1
10
408.112555
20
96.772681
11
410.713964
21
95.175255
0
LINE
8
Calque 1
10
410.713964
20
95.175255
11
413.912746
21
93.192474
0
LINE
8
Calque 1
10
413.912746
20
93.192474
11
415.667991
21
91.871359
0
LINE
8
Calque 1
10
415.667991
20
91.871359
11
416.084815
21
91.381764
0
LINE
8
Calque 1
10
416.084815
20
91.381764
11
416.237389
21
90.964991
0
LINE
8
Calque 1
10
416.237389
20
90.964991
11
416.157924
21
90.590175
0
LINE
8
Calque 1
10
416.157924
20
90.590175
11
415.878631
21
90.226451
0
LINE
8
Calque 1
10
415.878631
20
90.226451
11
415.514433
21
89.956706
0
LINE
8
Calque 1
10
415.514433
20
89.956706
11
415.142990
21
89.977062
0
LINE
8
Calque 1
10
415.142990
20
89.977062
11
413.926782
21
91.087229
0
LINE
8
Calque 1
10
413.926782
20
91.087229
11
412.805838
21
92.088389
0
LINE
8
Calque 1
10
412.805838
20
92.088389
11
412.286037
21
92.230472
0
LINE
8
Calque 1
10
412.286037
20
92.230472
11
411.579568
21
92.238408
0
LINE
8
Calque 1
10
411.579568
20
92.238408
11
410.303438
21
92.060401
0
LINE
8
Calque 1
10
410.303438
20
92.060401
11
409.219619
21
91.641117
0
LINE
8
Calque 1
10
409.219619
20
91.641117
11
408.354165
21
90.994798
0
LINE
8
Calque 1
10
408.354165
20
90.994798
11
407.733133
21
90.135686
0
LINE
8
Calque 1
10
407.733133
20
90.135686
11
407.272815
21
89.464449
0
LINE
8
Calque 1
10
407.272815
20
89.464449
11
406.708300
21
88.992113
0
LINE
8
Calque 1
10
406.708300
20
88.992113
11
406.104795
21
88.758115
0
LINE
8
Calque 1
10
406.104795
20
88.758115
11
405.527510
21
88.801895
0
LINE
8
Calque 1
10
405.527510
20
88.801895
11
404.315958
21
90.300162
0
LINE
8
Calque 1
10
404.315958
20
90.300162
11
403.519355
21
91.319640
0
LINE
8
Calque 1
10
403.519355
20
91.319640
11
402.666747
21
92.055241
0
LINE
8
Calque 1
10
402.666747
20
92.055241
11
401.698246
21
92.547340
0
LINE
8
Calque 1
10
401.698246
20
92.547340
11
400.553964
21
92.836313
0
LINE
8
Calque 1
10
400.553964
20
92.836313
11
399.526287
21
92.879587
0
LINE
8
Calque 1
10
399.526287
20
92.879587
11
399.152139
21
92.748783
0
LINE
8
Calque 1
10
399.152139
20
92.748783
11
398.845888
21
92.485870
0
LINE
8
Calque 1
10
398.845888
20
92.485870
11
398.361393
21
91.472280
0
LINE
8
Calque 1
10
398.361393
20
91.472280
11
397.921424
21
89.655936
0
LINE
8
Calque 1
10
397.921424
20
89.655936
11
397.445420
21
87.703693
0
LINE
8
Calque 1
10
397.445420
20
87.703693
11
397.059968
21
86.704233
0
LINE
8
Calque 1
10
397.059968
20
86.704233
11
396.840161
21
86.622470
0
LINE
8
Calque 1
10
396.840161
20
86.622470
11
396.515414
21
86.752543
0
LINE
8
Calque 1
10
396.515414
20
86.752543
11
395.400925
21
87.742154
0
LINE
8
Calque 1
10
395.400925
20
87.742154
11
394.221427
21
88.788363
0
LINE
8
Calque 1
10
394.221427
20
88.788363
11
392.970620
21
89.625839
0
LINE
8
Calque 1
10
392.970620
20
89.625839
11
391.690245
21
90.245364
0
LINE
8
Calque 1
10
391.690245
20
90.245364
11
390.422045
21
90.637716
0
LINE
8
Calque 1
10
390.422045
20
90.637716
11
389.207762
21
90.793678
0
LINE
8
Calque 1
10
389.207762
20
90.793678
11
388.089138
21
90.704029
0
LINE
8
Calque 1
10
388.089138
20
90.704029
11
387.107915
21
90.359549
0
LINE
8
Calque 1
10
387.107915
20
90.359549
11
386.305834
21
89.751020
0
LINE
8
Calque 1
10
386.305834
20
89.751020
11
385.752231
21
88.812222
0
LINE
8
Calque 1
10
385.752231
20
88.812222
11
385.270615
21
87.459234
0
LINE
8
Calque 1
10
385.270615
20
87.459234
11
384.438948
21
85.071903
0
LINE
8
Calque 1
10
384.438948
20
85.071903
11
384.024102
21
84.453555
0
LINE
8
Calque 1
10
384.024102
20
84.453555
11
383.622522
21
84.243340
0
LINE
8
Calque 1
10
383.622522
20
84.243340
11
382.998857
21
84.688722
0
LINE
8
Calque 1
10
382.998857
20
84.688722
11
382.070836
21
85.759531
0
LINE
8
Calque 1
10
382.070836
20
85.759531
11
381.072976
21
87.403281
0
LINE
8
Calque 1
10
381.072976
20
87.403281
11
380.514239
21
89.428434
0
LINE
8
Calque 1
10
380.514239
20
89.428434
11
380.081667
21
91.163851
0
LINE
8
Calque 1
10
380.081667
20
91.163851
11
379.451341
21
92.805445
0
LINE
8
Calque 1
10
379.451341
20
92.805445
11
378.585419
21
94.435962
0
LINE
8
Calque 1
10
378.585419
20
94.435962
11
377.446060
21
96.138146
0
LINE
8
Calque 1
10
377.446060
20
96.138146
11
376.278355
21
97.478005
0
LINE
8
Calque 1
10
376.278355
20
97.478005
11
375.730874
21
97.835623
0
LINE
8
Calque 1
10
375.730874
20
97.835623
11
375.097548
21
98.075867
0
LINE
8
Calque 1
10
375.097548
20
98.075867
11
374.145062
21
98.454306
0
LINE
8
Calque 1
10
374.145062
20
98.454306
11
373.519559
21
98.881064
0
LINE
8
Calque 1
10
373.519559
20
98.881064
11
372.973688
21
99.994339
0
LINE
8
Calque 1
10
372.973688
20
99.994339
11
372.212701
21
102.023340
0
LINE
8
Calque 1
10
372.212701
20
102.023340
11
370.963049
21
105.167262
0
LINE
8
Calque 1
10
370.963049
20
105.167262
11
370.325213
21
106.290028
0
LINE
8
Calque 1
10
370.325213
20
106.290028
11
369.633493
21
107.160120
0
LINE
8
Calque 1
10
369.633493
20
107.160120
11
368.853982
21
107.812629
0
LINE
8
Calque 1
10
368.853982
20
107.812629
11
367.952771
21
108.282647
0
LINE
8
Calque 1
10
367.952771
20
108.282647
11
366.895954
21
108.605266
0
LINE
8
Calque 1
10
366.895954
20
108.605266
11
365.649623
21
108.815577
0
LINE
8
Calque 1
10
365.649623
20
108.815577
11
362.915122
21
109.222414
0
LINE
8
Calque 1
10
362.915122
20
109.222414
11
361.258386
21
109.727280
0
LINE
8
Calque 1
10
361.258386
20
109.727280
11
360.724503
21
110.070815
0
LINE
8
Calque 1
10
360.724503
20
110.070815
11
360.328450
21
110.504070
0
LINE
8
Calque 1
10
360.328450
20
110.504070
11
359.774349
21
111.726682
0
LINE
8
Calque 1
10
359.774349
20
111.726682
11
358.664221
21
113.471062
0
LINE
8
Calque 1
10
358.664221
20
113.471062
11
356.032336
21
116.517904
0
LINE
8
Calque 1
10
356.032336
20
116.517904
11
353.459683
21
119.505992
0
LINE
8
Calque 1
10
353.459683
20
119.505992
11
352.123756
21
121.423414
0
LINE
8
Calque 1
10
352.123756
20
121.423414
11
351.623831
21
123.002142
0
LINE
8
Calque 1
10
351.623831
20
123.002142
11
351.150089
21
125.098859
0
LINE
8
Calque 1
10
351.150089
20
125.098859
11
350.762408
21
126.892066
0
LINE
8
Calque 1
10
350.762408
20
126.892066
11
350.344313
21
128.017901
0
LINE
8
Calque 1
10
350.344313
20
128.017901
11
349.804885
21
128.642568
0
LINE
8
Calque 1
10
349.804885
20
128.642568
11
349.053206
21
128.932270
0
LINE
8
Calque 1
10
349.053206
20
128.932270
11
348.007993
21
129.471604
0
LINE
8
Calque 1
10
348.007993
20
129.471604
11
346.665663
21
130.664702
0
LINE
8
Calque 1
10
346.665663
20
130.664702
11
345.775392
21
131.553962
0
LINE
8
Calque 1
10
345.775392
20
131.553962
11
345.143346
21
132.017195
0
LINE
8
Calque 1
10
345.143346
20
132.017195
11
344.490371
21
132.193285
0
LINE
8
Calque 1
10
344.490371
20
132.193285
11
343.537314
21
132.221118
0
LINE
8
Calque 1
10
343.537314
20
132.221118
11
342.573239
21
132.250401
0
LINE
8
Calque 1
10
342.573239
20
132.250401
11
341.889913
21
132.450266
0
LINE
8
Calque 1
10
341.889913
20
132.450266
11
341.167407
21
132.988738
0
LINE
8
Calque 1
10
341.167407
20
132.988738
11
340.085793
21
134.033843
0
LINE
8
Calque 1
10
340.085793
20
134.033843
11
338.867395
21
135.189654
0
LINE
8
Calque 1
10
338.867395
20
135.189654
11
338.417249
21
135.486864
0
LINE
8
Calque 1
10
338.417249
20
135.486864
11
337.992014
21
135.601547
0
LINE
8
Calque 1
10
337.992014
20
135.601547
11
336.972912
21
135.297137
0
LINE
8
Calque 1
10
336.972912
20
135.297137
11
335.323349
21
134.304039
0
LINE
8
Calque 1
10
335.323349
20
134.304039
11
334.148624
21
133.441658
0
LINE
8
Calque 1
10
334.148624
20
133.441658
11
333.222519
21
132.504568
0
LINE
8
Calque 1
10
333.222519
20
132.504568
11
332.615316
21
131.578186
0
LINE
8
Calque 1
10
332.615316
20
131.578186
11
332.397298
21
130.747929
0
LINE
8
Calque 1
10
332.397298
20
130.747929
11
332.604554
21
129.774772
0
LINE
8
Calque 1
10
332.604554
20
129.774772
11
333.102853
21
128.438189
0
LINE
8
Calque 1
10
333.102853
20
128.438189
11
333.601152
21
127.027552
0
LINE
8
Calque 1
10
333.601152
20
127.027552
11
333.808409
21
125.876350
0
LINE
8
Calque 1
10
333.808409
20
125.876350
11
333.904597
21
124.982684
0
LINE
8
Calque 1
10
333.904597
20
124.982684
11
334.135871
21
124.191227
0
LINE
8
Calque 1
10
334.135871
20
124.191227
11
334.317273
21
123.389480
0
LINE
8
Calque 1
10
334.317273
20
123.389480
11
334.095598
21
122.358431
0
LINE
8
Calque 1
10
334.095598
20
122.358431
11
333.915625
21
121.688508
0
LINE
8
Calque 1
10
333.915625
20
121.688508
11
333.921329
21
121.073659
0
LINE
8
Calque 1
10
333.921329
20
121.073659
11
334.662159
21
118.981506
0
LINE
8
Calque 1
10
334.662159
20
118.981506
11
335.596399
21
116.718711
0
LINE
8
Calque 1
10
335.596399
20
116.718711
11
335.087948
21
115.591145
0
LINE
8
Calque 1
10
335.087948
20
115.591145
11
334.814326
21
114.820924
0
LINE
8
Calque 1
10
334.814326
20
114.820924
11
334.778149
21
113.681668
0
LINE
8
Calque 1
10
334.778149
20
113.681668
11
335.605064
21
107.298407
0
LINE
8
Calque 1
10
335.605064
20
107.298407
11
336.433294
21
100.634836
0
LINE
8
Calque 1
10
336.433294
20
100.634836
11
336.630631
21
95.574949
0
LINE
8
Calque 1
10
336.630631
20
95.574949
11
336.551595
21
91.674338
0
LINE
8
Calque 1
10
336.551595
20
91.674338
11
336.387648
21
91.120852
0
LINE
8
Calque 1
10
336.387648
20
91.120852
11
336.082838
21
91.016674
0
LINE
8
Calque 1
10
336.082838
20
91.016674
11
335.626703
21
91.102154
0
LINE
8
Calque 1
10
335.626703
20
91.102154
11
335.324404
21
91.429967
0
LINE
8
Calque 1
10
335.324404
20
91.429967
11
334.966338
21
93.240830
0
LINE
8
Calque 1
10
334.966338
20
93.240830
11
334.686455
21
94.616094
0
LINE
8
Calque 1
10
334.686455
20
94.616094
11
334.417536
21
94.951971
0
LINE
8
Calque 1
10
334.417536
20
94.951971
11
333.985418
21
95.208199
0
LINE
8
Calque 1
10
333.985418
20
95.208199
11
332.574307
21
95.562500
0
LINE
8
Calque 1
10
332.574307
20
95.562500
11
328.191757
21
95.220234
0
LINE
8
Calque 1
10
328.191757
20
95.220234
11
326.717070
21
94.981928
0
LINE
8
Calque 1
10
326.717070
20
94.981928
11
325.628893
21
94.662084
0
LINE
8
Calque 1
10
325.628893
20
94.662084
11
324.858815
21
94.233136
0
LINE
8
Calque 1
10
324.858815
20
94.233136
11
324.338425
21
93.667516
0
LINE
8
Calque 1
10
324.338425
20
93.667516
11
323.999312
21
92.937658
0
LINE
8
Calque 1
10
323.999312
20
92.937658
11
323.773066
21
92.015994
0
LINE
8
Calque 1
10
323.773066
20
92.015994
11
323.390045
21
90.989923
0
LINE
8
Calque 1
10
323.390045
20
90.989923
11
322.689672
21
90.110244
0
LINE
8
Calque 1
10
322.689672
20
90.110244
11
322.207245
21
89.613690
0
LINE
8
Calque 1
10
322.207245
20
89.613690
11
321.926310
21
89.082885
0
LINE
8
Calque 1
10
321.926310
20
89.082885
11
321.672853
21
87.018189
0
LINE
8
Calque 1
10
321.672853
20
87.018189
11
321.484140
21
85.268533
0
LINE
8
Calque 1
10
321.484140
20
85.268533
11
321.330836
21
84.756388
0
LINE
8
Calque 1
10
321.330836
20
84.756388
11
321.119204
21
84.472630
0
LINE
8
Calque 1
10
321.119204
20
84.472630
11
320.834970
21
84.407207
0
LINE
8
Calque 1
10
320.834970
20
84.407207
11
320.463861
21
84.550070
0
LINE
8
Calque 1
10
320.463861
20
84.550070
11
319.403928
21
85.420447
0
LINE
8
Calque 1
10
319.403928
20
85.420447
11
317.714799
21
86.690289
0
LINE
8
Calque 1
10
317.714799
20
86.690289
11
315.452816
21
88.027619
0
LINE
8
Calque 1
10
315.452816
20
88.027619
11
310.780264
21
90.716310
0
LINE
8
Calque 1
10
310.780264
20
90.716310
11
309.255466
21
91.830380
0
LINE
8
Calque 1
10
309.255466
20
91.830380
11
308.317025
21
92.760838
0
LINE
8
Calque 1
10
308.317025
20
92.760838
11
306.891224
21
95.470945
0
LINE
8
Calque 1
10
306.891224
20
95.470945
11
305.869368
21
97.994426
0
LINE
8
Calque 1
10
305.869368
20
97.994426
11
305.040425
21
98.485905
0
LINE
8
Calque 1
10
305.040425
20
98.485905
11
304.218114
21
98.771006
0
LINE
8
Calque 1
10
304.218114
20
98.771006
11
303.417647
21
98.507580
0
LINE
8
Calque 1
10
303.417647
20
98.507580
11
302.151683
21
97.963116
0
LINE
8
Calque 1
10
302.151683
20
97.963116
11
301.469326
21
97.259472
0
LINE
8
Calque 1
10
301.469326
20
97.259472
11
300.490467
21
95.761470
0
LINE
8
Calque 1
10
300.490467
20
95.761470
11
298.725223
21
93.062785
0
LINE
8
Calque 1
10
298.725223
20
93.062785
11
298.053021
21
92.592661
0
LINE
8
Calque 1
10
298.053021
20
92.592661
11
297.159684
21
92.447708
0
LINE
8
Calque 1
10
297.159684
20
92.447708
11
296.011293
21
92.628521
0
LINE
8
Calque 1
10
296.011293
20
92.628521
11
294.573932
21
93.135697
0
LINE
8
Calque 1
10
294.573932
20
93.135697
11
291.528687
21
94.122463
0
LINE
8
Calque 1
10
291.528687
20
94.122463
11
290.271073
21
94.327276
0
LINE
8
Calque 1
10
290.271073
20
94.327276
11
289.389227
21
94.295181
0
LINE
8
Calque 1
10
289.389227
20
94.295181
11
289.057658
21
94.146623
0
LINE
8
Calque 1
10
289.057658
20
94.146623
11
288.805588
21
93.852563
0
LINE
8
Calque 1
10
288.805588
20
93.852563
11
288.398627
21
92.583806
0
LINE
8
Calque 1
10
288.398627
20
92.583806
11
288.002158
21
91.302133
0
LINE
8
Calque 1
10
288.002158
20
91.302133
11
287.535987
21
90.396981
0
LINE
8
Calque 1
10
287.535987
20
90.396981
11
286.977003
21
89.917416
0
LINE
8
Calque 1
10
286.977003
20
89.917416
11
286.215582
21
90.176650
0
LINE
8
Calque 1
10
286.215582
20
90.176650
11
285.183897
21
90.926903
0
LINE
8
Calque 1
10
285.183897
20
90.926903
11
283.833316
21
92.145563
0
LINE
8
Calque 1
10
283.833316
20
92.145563
11
280.690266
21
94.912438
0
LINE
8
Calque 1
10
280.690266
20
94.912438
11
279.305360
21
96.182962
0
LINE
8
Calque 1
10
279.305360
20
96.182962
11
278.173860
21
97.531943
0
LINE
8
Calque 1
10
278.173860
20
97.531943
11
277.232099
21
98.684906
0
LINE
8
Calque 1
10
277.232099
20
98.684906
11
276.303291
21
99.484156
0
LINE
8
Calque 1
10
276.303291
20
99.484156
11
275.559043
21
100.078781
0
LINE
8
Calque 1
10
275.559043
20
100.078781
11
275.061005
21
100.739780
0
LINE
8
Calque 1
10
275.061005
20
100.739780
11
274.670921
21
101.291466
0
LINE
8
Calque 1
10
274.670921
20
101.291466
11
274.186201
21
101.623276
0
LINE
8
Calque 1
10
274.186201
20
101.623276
11
273.391862
21
102.640523
0
LINE
8
Calque 1
10
273.391862
20
102.640523
11
272.204899
21
104.793814
0
LINE
8
Calque 1
10
272.204899
20
104.793814
11
271.097010
21
107.155185
0
LINE
8
Calque 1
10
271.097010
20
107.155185
11
270.539890
21
108.796674
0
LINE
8
Calque 1
10
270.539890
20
108.796674
11
270.439052
21
109.190978
0
LINE
8
Calque 1
10
270.439052
20
109.190978
11
270.150801
21
109.423982
0
LINE
8
Calque 1
10
270.150801
20
109.423982
11
268.332856
21
109.677009
0
LINE
8
Calque 1
10
268.332856
20
109.677009
11
262.260245
21
109.871194
0
LINE
8
Calque 1
10
262.260245
20
109.871194
11
259.512484
21
109.754908
0
LINE
8
Calque 1
10
259.512484
20
109.754908
11
257.326189
21
109.502229
0
LINE
8
Calque 1
10
257.326189
20
109.502229
11
253.767914
21
109.090810
0
LINE
8
Calque 1
10
253.767914
20
109.090810
11
252.787951
21
109.184079
0
LINE
8
Calque 1
10
252.787951
20
109.184079
11
252.358034
21
109.476756
0
LINE
8
Calque 1
10
252.358034
20
109.476756
11
252.389015
21
110.026193
0
LINE
8
Calque 1
10
252.389015
20
110.026193
11
252.677933
21
110.788480
0
LINE
8
Calque 1
10
252.677933
20
110.788480
11
253.150514
21
111.702343
0
LINE
8
Calque 1
10
253.150514
20
111.702343
11
249.523337
21
111.547073
0
LINE
8
Calque 1
10
249.523337
20
111.547073
11
245.385593
21
111.186514
0
LINE
8
Calque 1
10
245.385593
20
111.186514
11
245.108884
21
110.932269
0
LINE
8
Calque 1
10
245.108884
20
110.932269
11
244.965502
21
110.183965
0
LINE
8
Calque 1
10
244.965502
20
110.183965
11
244.953821
21
105.585064
0
LINE
8
Calque 1
10
244.953821
20
105.585064
11
244.919376
21
100.633394
0
LINE
8
Calque 1
10
244.919376
20
100.633394
11
244.700543
21
99.389826
0
LINE
8
Calque 1
10
244.700543
20
99.389826
11
244.267965
21
98.102102
0
LINE
8
Calque 1
10
244.267965
20
98.102102
11
242.761547
21
94.749666
0
LINE
8
Calque 1
10
242.761547
20
94.749666
11
242.187489
21
93.508998
0
LINE
8
Calque 1
10
242.187489
20
93.508998
11
242.203069
21
93.018886
0
LINE
8
Calque 1
10
242.203069
20
93.018886
11
242.383200
21
92.382985
0
LINE
8
Calque 1
10
242.383200
20
92.382985
11
242.598860
21
91.445178
0
LINE
8
Calque 1
10
242.598860
20
91.445178
11
242.414301
21
90.949660
0
LINE
8
Calque 1
10
242.414301
20
90.949660
11
241.142833
21
90.654700
0
LINE
8
Calque 1
10
241.142833
20
90.654700
11
238.344656
21
90.420417
0
LINE
8
Calque 1
10
238.344656
20
90.420417
11
234.179706
21
90.077496
0
LINE
8
Calque 1
10
234.179706
20
90.077496
11
230.599318
21
89.540660
0
LINE
8
Calque 1
10
230.599318
20
89.540660
11
227.840594
21
88.855609
0
LINE
8
Calque 1
10
227.840594
20
88.855609
11
226.140634
21
88.068047
0
LINE
8
Calque 1
10
226.140634
20
88.068047
11
224.165078
21
86.849953
0
LINE
8
Calque 1
10
224.165078
20
86.849953
11
223.047997
21
86.018724
0
LINE
8
Calque 1
10
223.047997
20
86.018724
11
221.947489
21
84.833679
0
LINE
8
Calque 1
10
221.947489
20
84.833679
11
220.868910
21
83.639101
0
LINE
8
Calque 1
10
220.868910
20
83.639101
11
220.411071
21
83.450346
0
LINE
8
Calque 1
10
220.411071
20
83.450346
11
219.830822
21
83.415554
0
LINE
8
Calque 1
10
219.830822
20
83.415554
11
217.673967
21
83.791452
0
LINE
8
Calque 1
10
217.673967
20
83.791452
11
217.673967
21
83.791452
0
LINE
8
Calque 1
10
264.159354
20
126.828354
11
263.384259
21
127.740354
0
LINE
8
Calque 1
10
263.384259
20
127.740354
11
262.217665
21
128.786987
0
LINE
8
Calque 1
10
262.217665
20
128.786987
11
260.794348
21
130.137721
0
LINE
8
Calque 1
10
260.794348
20
130.137721
11
259.402018
21
131.780857
0
LINE
8
Calque 1
10
259.402018
20
131.780857
11
258.369298
21
133.036669
0
LINE
8
Calque 1
10
258.369298
20
133.036669
11
257.564886
21
133.558301
0
LINE
8
Calque 1
10
257.564886
20
133.558301
11
257.187278
21
133.557462
0
LINE
8
Calque 1
10
257.187278
20
133.557462
11
256.793526
21
133.389471
0
LINE
8
Calque 1
10
256.793526
20
133.389471
11
255.859960
21
132.573896
0
LINE
8
Calque 1
10
255.859960
20
132.573896
11
254.998106
21
131.456999
0
LINE
8
Calque 1
10
254.998106
20
131.456999
11
254.094635
21
129.975478
0
LINE
8
Calque 1
10
254.094635
20
129.975478
11
253.382051
21
128.547877
0
LINE
8
Calque 1
10
253.382051
20
128.547877
11
253.092856
21
127.592739
0
LINE
8
Calque 1
10
253.092856
20
127.592739
11
253.298516
21
127.328710
0
LINE
8
Calque 1
10
253.298516
20
127.328710
11
253.877944
21
127.065453
0
LINE
8
Calque 1
10
253.877944
20
127.065453
11
255.932791
21
126.580149
0
LINE
8
Calque 1
10
255.932791
20
126.580149
11
258.806772
21
126.214616
0
LINE
8
Calque 1
10
258.806772
20
126.214616
11
262.049263
21
126.046643
0
LINE
8
Calque 1
10
262.049263
20
126.046643
11
264.655670
21
126.012229
0
LINE
8
Calque 1
10
264.655670
20
126.012229
11
264.159354
21
126.828354
0
LINE
8
Calque 1
10
264.159354
20
126.828354
11
264.159354
21
126.828354
0
LINE
8
Calque 1
10
342.133964
20
147.386846
11
343.551087
21
148.191546
0
LINE
8
Calque 1
10
343.551087
20
148.191546
11
344.863561
21
148.791730
0
LINE
8
Calque 1
10
344.863561
20
148.791730
11
347.293212
21
149.272796
0
LINE
8
Calque 1
10
347.293212
20
149.272796
11
351.534903
21
150.071897
0
LINE
8
Calque 1
10
351.534903
20
150.071897
11
355.078369
21
151.123530
0
LINE
8
Calque 1
10
355.078369
20
151.123530
11
357.513918
21
151.850543
0
LINE
8
Calque 1
10
357.513918
20
151.850543
11
358.724243
21
152.275454
0
LINE
8
Calque 1
10
358.724243
20
152.275454
11
360.407014
21
153.060449
0
LINE
8
Calque 1
10
360.407014
20
153.060449
11
363.343416
21
154.782123
0
LINE
8
Calque 1
10
363.343416
20
154.782123
11
364.450348
21
155.363340
0
LINE
8
Calque 1
10
364.450348
20
155.363340
11
365.446956
21
155.963864
0
LINE
8
Calque 1
10
365.446956
20
155.963864
11
367.099187
21
157.393690
0
LINE
8
Calque 1
10
367.099187
20
157.393690
11
368.808440
21
159.095201
0
LINE
8
Calque 1
10
368.808440
20
159.095201
11
369.976118
21
160.510780
0
LINE
8
Calque 1
10
369.976118
20
160.510780
11
370.709634
21
162.004178
0
LINE
8
Calque 1
10
370.709634
20
162.004178
11
370.998524
21
163.861980
0
LINE
8
Calque 1
10
370.998524
20
163.861980
11
371.140087
21
165.840530
0
LINE
8
Calque 1
10
371.140087
20
165.840530
11
369.478137
21
167.392504
0
LINE
8
Calque 1
10
369.478137
20
167.392504
11
367.092710
21
169.330608
0
LINE
8
Calque 1
10
367.092710
20
169.330608
11
365.776849
21
169.759971
0
LINE
8
Calque 1
10
365.776849
20
169.759971
11
363.961957
21
169.958708
0
LINE
8
Calque 1
10
363.961957
20
169.958708
11
361.759633
21
169.940587
0
LINE
8
Calque 1
10
361.759633
20
169.940587
11
359.281476
21
169.719377
0
LINE
8
Calque 1
10
359.281476
20
169.719377
11
356.639087
21
169.308846
0
LINE
8
Calque 1
10
356.639087
20
169.308846
11
353.944066
21
168.722762
0
LINE
8
Calque 1
10
353.944066
20
168.722762
11
351.308013
21
167.974895
0
LINE
8
Calque 1
10
351.308013
20
167.974895
11
348.842528
21
167.079011
0
LINE
8
Calque 1
10
348.842528
20
167.079011
11
345.238409
21
165.679892
0
LINE
8
Calque 1
10
345.238409
20
165.679892
11
339.818077
21
163.801553
0
LINE
8
Calque 1
10
339.818077
20
163.801553
11
334.455855
21
162.424041
0
LINE
8
Calque 1
10
334.455855
20
162.424041
11
328.884777
21
161.125185
0
LINE
8
Calque 1
10
328.884777
20
161.125185
11
327.513269
21
160.714319
0
LINE
8
Calque 1
10
327.513269
20
160.714319
11
327.111275
21
160.469635
0
LINE
8
Calque 1
10
327.111275
20
160.469635
11
327.764264
21
159.171213
0
LINE
8
Calque 1
10
327.764264
20
159.171213
11
328.236598
21
157.910336
0
LINE
8
Calque 1
10
328.236598
20
157.910336
11
328.549721
21
156.617257
0
LINE
8
Calque 1
10
328.549721
20
156.617257
11
328.725078
21
155.222229
0
LINE
8
Calque 1
10
328.725078
20
155.222229
11
328.899689
21
152.964451
0
LINE
8
Calque 1
10
328.899689
20
152.964451
11
330.596325
21
151.250629
0
LINE
8
Calque 1
10
330.596325
20
151.250629
11
332.292932
21
149.536809
0
LINE
8
Calque 1
10
332.292932
20
149.536809
11
334.795763
21
149.186681
0
LINE
8
Calque 1
10
334.795763
20
149.186681
11
336.618514
21
148.880674
0
LINE
8
Calque 1
10
336.618514
20
148.880674
11
337.942816
21
148.525789
0
LINE
8
Calque 1
10
337.942816
20
148.525789
11
338.885409
21
148.080839
0
LINE
8
Calque 1
10
338.885409
20
148.080839
11
339.563033
21
147.504634
0
LINE
8
Calque 1
10
339.563033
20
147.504634
11
339.938714
21
147.168160
0
LINE
8
Calque 1
10
339.938714
20
147.168160
11
340.383721
21
147.041351
0
LINE
8
Calque 1
10
340.383721
20
147.041351
11
342.133964
21
147.386846
0
LINE
8
Calque 1
10
342.133964
20
147.386846
11
342.133964
21
147.386846
 0 
ENDSEC
 0 
EOF
