  0
SECTION
  2
HEADER
  9
$ACADVER
  1
AC1015
  9
$ACADMAINTVER
 70
    20
  9
$DWGCODEPAGE
  3
ANSI_1252
  9
$INSBASE
 10
0.0
 20
0.0
 30
0.0
  9
$EXTMIN
 10
63.69188247684417
 20
129.8093333704133
 30
-0.0015258207003583
  9
$EXTMAX
 10
137.2263990760821
 20
184.2982868883928
 30
0.0000000349246037
  9
$LIMMIN
 10
0.0
 20
0.0
  9
$LIMMAX
 10
12.0
 20
9.0
  9
$ORTHOMODE
 70
     0
  9
$REGENMODE
 70
     1
  9
$FILLMODE
 70
     1
  9
$QTEXTMODE
 70
     0
  9
$MIRRTEXT
 70
     0
  9
$LTSCALE
 40
1.0
  9
$ATTMODE
 70
     1
  9
$TEXTSIZE
 40
0.2
  9
$TRACEWID
 40
0.05
  9
$TEXTSTYLE
  7
Standard
  9
$CLAYER
  8
0
  9
$CELTYPE
  6
Continuous
  9
$CECOLOR
 62
   256
  9
$CELTSCALE
 40
1.0
  9
$DISPSILH
 70
     0
  9
$DIMSCALE
 40
1.0
  9
$DIMASZ
 40
0.18
  9
$DIMEXO
 40
0.0625
  9
$DIMDLI
 40
0.38
  9
$DIMRND
 40
0.0
  9
$DIMDLE
 40
0.0
  9
$DIMEXE
 40
0.18
  9
$DIMTP
 40
0.0
  9
$DIMTM
 40
0.0
  9
$DIMTXT
 40
0.18
  9
$DIMCEN
 40
0.09
  9
$DIMTSZ
 40
0.0
  9
$DIMTOL
 70
     0
  9
$DIMLIM
 70
     0
  9
$DIMTIH
 70
     1
  9
$DIMTOH
 70
     1
  9
$DIMSE1
 70
     0
  9
$DIMSE2
 70
     0
  9
$DIMTAD
 70
     0
  9
$DIMZIN
 70
     0
  9
$DIMBLK
  1

  9
$DIMASO
 70
     1
  9
$DIMSHO
 70
     1
  9
$DIMPOST
  1

  9
$DIMAPOST
  1

  9
$DIMALT
 70
     0
  9
$DIMALTD
 70
     2
  9
$DIMALTF
 40
25.4
  9
$DIMLFAC
 40
1.0
  9
$DIMTOFL
 70
     0
  9
$DIMTVP
 40
0.0
  9
$DIMTIX
 70
     0
  9
$DIMSOXD
 70
     0
  9
$DIMSAH
 70
     0
  9
$DIMBLK1
  1

  9
$DIMBLK2
  1

  9
$DIMSTYLE
  2
Standard
  9
$DIMCLRD
 70
     0
  9
$DIMCLRE
 70
     0
  9
$DIMCLRT
 70
     0
  9
$DIMTFAC
 40
1.0
  9
$DIMGAP
 40
0.09
  9
$DIMJUST
 70
     0
  9
$DIMSD1
 70
     0
  9
$DIMSD2
 70
     0
  9
$DIMTOLJ
 70
     1
  9
$DIMTZIN
 70
     0
  9
$DIMALTZ
 70
     0
  9
$DIMALTTZ
 70
     0
  9
$DIMUPT
 70
     0
  9
$DIMDEC
 70
     4
  9
$DIMTDEC
 70
     4
  9
$DIMALTU
 70
     2
  9
$DIMALTTD
 70
     2
  9
$DIMTXSTY
  7
Standard
  9
$DIMAUNIT
 70
     0
  9
$DIMADEC
 70
     0
  9
$DIMALTRND
 40
0.0
  9
$DIMAZIN
 70
     0
  9
$DIMDSEP
 70
    46
  9
$DIMATFIT
 70
     3
  9
$DIMFRAC
 70
     0
  9
$DIMLDRBLK
  1

  9
$DIMLUNIT
 70
     2
  9
$DIMLWD
 70
    -2
  9
$DIMLWE
 70
    -2
  9
$DIMTMOVE
 70
     0
  9
$LUNITS
 70
     2
  9
$LUPREC
 70
     4
  9
$SKETCHINC
 40
0.1
  9
$FILLETRAD
 40
0.0
  9
$AUNITS
 70
     0
  9
$AUPREC
 70
     0
  9
$MENU
  1
.
  9
$ELEVATION
 40
0.0
  9
$PELEVATION
 40
0.0
  9
$THICKNESS
 40
0.0
  9
$LIMCHECK
 70
     0
  9
$CHAMFERA
 40
0.0
  9
$CHAMFERB
 40
0.0
  9
$CHAMFERC
 40
0.0
  9
$CHAMFERD
 40
0.0
  9
$SKPOLY
 70
     0
  9
$TDCREATE
 40
2454976.007122407
  9
$TDUCREATE
 40
2454975.923789074
  9
$TDUPDATE
 40
2454976.007350347
  9
$TDUUPDATE
 40
2454975.924017014
  9
$TDINDWG
 40
0.0002284028
  9
$TDUSRTIMER
 40
0.0002284028
  9
$USRTIMER
 70
     1
  9
$ANGBASE
 50
0.0
  9
$ANGDIR
 70
     0
  9
$PDMODE
 70
     0
  9
$PDSIZE
 40
0.0
  9
$PLINEWID
 40
0.0
  9
$SPLFRAME
 70
     0
  9
$SPLINETYPE
 70
     6
  9
$SPLINESEGS
 70
     8
  9
$HANDSEED
  5
39D
  9
$SURFTAB1
 70
     6
  9
$SURFTAB2
 70
     6
  9
$SURFTYPE
 70
     6
  9
$SURFU
 70
     6
  9
$SURFV
 70
     6
  9
$UCSBASE
  2

  9
$UCSNAME
  2

  9
$UCSORG
 10
0.0
 20
0.0
 30
0.0
  9
$UCSXDIR
 10
1.0
 20
0.0
 30
0.0
  9
$UCSYDIR
 10
0.0
 20
1.0
 30
0.0
  9
$UCSORTHOREF
  2

  9
$UCSORTHOVIEW
 70
     0
  9
$UCSORGTOP
 10
0.0
 20
0.0
 30
0.0
  9
$UCSORGBOTTOM
 10
0.0
 20
0.0
 30
0.0
  9
$UCSORGLEFT
 10
0.0
 20
0.0
 30
0.0
  9
$UCSORGRIGHT
 10
0.0
 20
0.0
 30
0.0
  9
$UCSORGFRONT
 10
0.0
 20
0.0
 30
0.0
  9
$UCSORGBACK
 10
0.0
 20
0.0
 30
0.0
  9
$PUCSBASE
  2

  9
$PUCSNAME
  2

  9
$PUCSORG
 10
0.0
 20
0.0
 30
0.0
  9
$PUCSXDIR
 10
1.0
 20
0.0
 30
0.0
  9
$PUCSYDIR
 10
0.0
 20
1.0
 30
0.0
  9
$PUCSORTHOREF
  2

  9
$PUCSORTHOVIEW
 70
     0
  9
$PUCSORGTOP
 10
0.0
 20
0.0
 30
0.0
  9
$PUCSORGBOTTOM
 10
0.0
 20
0.0
 30
0.0
  9
$PUCSORGLEFT
 10
0.0
 20
0.0
 30
0.0
  9
$PUCSORGRIGHT
 10
0.0
 20
0.0
 30
0.0
  9
$PUCSORGFRONT
 10
0.0
 20
0.0
 30
0.0
  9
$PUCSORGBACK
 10
0.0
 20
0.0
 30
0.0
  9
$USERI1
 70
     0
  9
$USERI2
 70
     0
  9
$USERI3
 70
     0
  9
$USERI4
 70
     0
  9
$USERI5
 70
     0
  9
$USERR1
 40
0.0
  9
$USERR2
 40
0.0
  9
$USERR3
 40
0.0
  9
$USERR4
 40
0.0
  9
$USERR5
 40
0.0
  9
$WORLDVIEW
 70
     1
  9
$SHADEDGE
 70
     3
  9
$SHADEDIF
 70
    70
  9
$TILEMODE
 70
     1
  9
$MAXACTVP
 70
    64
  9
$PINSBASE
 10
0.0
 20
0.0
 30
0.0
  9
$PLIMCHECK
 70
     0
  9
$PEXTMIN
 10
1.000000000000000E+20
 20
1.000000000000000E+20
 30
1.000000000000000E+20
  9
$PEXTMAX
 10
-1.000000000000000E+20
 20
-1.000000000000000E+20
 30
-1.000000000000000E+20
  9
$PLIMMIN
 10
0.0
 20
0.0
  9
$PLIMMAX
 10
12.0
 20
9.0
  9
$UNITMODE
 70
     0
  9
$VISRETAIN
 70
     1
  9
$PLINEGEN
 70
     0
  9
$PSLTSCALE
 70
     1
  9
$TREEDEPTH
 70
  3020
  9
$CMLSTYLE
  2
Standard
  9
$CMLJUST
 70
     0
  9
$CMLSCALE
 40
1.0
  9
$PROXYGRAPHICS
 70
     1
  9
$MEASUREMENT
 70
     0
  9
$CELWEIGHT
370
    -1
  9
$ENDCAPS
280
     0
  9
$JOINSTYLE
280
     0
  9
$LWDISPLAY
290
     0
  9
$INSUNITS
 70
     0
  9
$HYPERLINKBASE
  1

  9
$STYLESHEET
  1

  9
$XEDIT
290
     1
  9
$CEPSNTYPE
380
     0
  9
$PSTYLEMODE
290
     1
  9
$FINGERPRINTGUID
  2
{C8B63171-A9DE-4589-BD87-596503564FDE}
  9
$VERSIONGUID
  2
{1C07C78A-9AC7-4AE4-8AC5-60F3A5A76C32}
  9
$EXTNAMES
290
     1
  9
$PSVPSCALE
 40
0.0
  9
$OLESTARTUP
290
     0
  0
ENDSEC
  0
SECTION
  2
CLASSES
  0
CLASS
  1
ACDBDICTIONARYWDFLT
  2
AcDbDictionaryWithDefault
  3
ObjectDBX Classes
 90
        0
280
     0
281
     0
  0
CLASS
  1
MATERIAL
  2
AcDbMaterial
  3
ObjectDBX Classes
 90
     1153
280
     0
281
     0
  0
CLASS
  1
VISUALSTYLE
  2
AcDbVisualStyle
  3
ObjectDBX Classes
 90
     4095
280
     0
281
     0
  0
CLASS
  1
SCALE
  2
AcDbScale
  3
ObjectDBX Classes
 90
     1153
280
     0
281
     0
  0
CLASS
  1
TABLESTYLE
  2
AcDbTableStyle
  3
ObjectDBX Classes
 90
     4095
280
     0
281
     0
  0
CLASS
  1
MLEADERSTYLE
  2
AcDbMLeaderStyle
  3
ACDB_MLEADERSTYLE_CLASS
 90
     4095
280
     0
281
     0
  0
CLASS
  1
DICTIONARYVAR
  2
AcDbDictionaryVar
  3
ObjectDBX Classes
 90
        0
280
     0
281
     0
  0
CLASS
  1
CELLSTYLEMAP
  2
AcDbCellStyleMap
  3
ObjectDBX Classes
 90
     1152
280
     0
281
     0
  0
CLASS
  1
ACDBPLACEHOLDER
  2
AcDbPlaceHolder
  3
ObjectDBX Classes
 90
        0
280
     0
281
     0
  0
CLASS
  1
LAYOUT
  2
AcDbLayout
  3
ObjectDBX Classes
 90
        0
280
     0
281
     0
  0
ENDSEC
  0
SECTION
  2
TABLES
  0
TABLE
  2
VPORT
  5
8
330
0
100
AcDbSymbolTable
 70
     1
  0
VPORT
  5
385
330
8
100
AcDbSymbolTableRecord
100
AcDbViewportTableRecord
  2
*Active
 70
     0
 10
0.0
 20
0.0
 11
1.0
 21
1.0
 12
100.4591407764631
 22
157.053810129403
 13
0.0
 23
0.0
 14
1.0
 24
1.0
 15
0.0
 25
0.0
 16
0.0
 26
0.0
 36
1.0
 17
0.0
 27
0.0
 37
0.0
 40
54.87631574678033
 41
1.986951364175563
 42
50.0
 43
0.0
 44
0.0
 50
0.0
 51
0.0
 71
     0
 72
  1000
 73
     1
 74
     3
 75
     0
 76
     0
 77
     0
 78
     0
281
     0
 65
     1
110
0.0
120
0.0
130
0.0
111
1.0
121
0.0
131
0.0
112
0.0
122
1.0
132
0.0
 79
     0
146
0.0
  0
ENDTAB
  0
TABLE
  2
LTYPE
  5
5
330
0
100
AcDbSymbolTable
 70
     1
  0
LTYPE
  5
62
330
5
100
AcDbSymbolTableRecord
100
AcDbLinetypeTableRecord
  2
ByBlock
 70
     0
  3

 72
    65
 73
     0
 40
0.0
  0
LTYPE
  5
63
330
5
100
AcDbSymbolTableRecord
100
AcDbLinetypeTableRecord
  2
ByLayer
 70
     0
  3

 72
    65
 73
     0
 40
0.0
  0
LTYPE
  5
64
330
5
100
AcDbSymbolTableRecord
100
AcDbLinetypeTableRecord
  2
Continuous
 70
     0
  3
Solid line
 72
    65
 73
     0
 40
0.0
  0
ENDTAB
  0
TABLE
  2
LAYER
  5
2
330
0
100
AcDbSymbolTable
 70
     2
  0
LAYER
  5
5C
102
{ACAD_XDICTIONARY
360
386
102
}
330
2
100
AcDbSymbolTableRecord
100
AcDbLayerTableRecord
  2
0
 70
     0
 62
     7
  6
Continuous
370
    -3
390
F
  0
LAYER
  5
78
102
{ACAD_XDICTIONARY
360
388
102
}
330
2
100
AcDbSymbolTableRecord
100
AcDbLayerTableRecord
  2
Calque 1
 70
     0
 62
     7
  6
Continuous
370
    -3
390
F
  0
ENDTAB
  0
TABLE
  2
STYLE
  5
3
330
0
100
AcDbSymbolTable
 70
     2
  0
STYLE
  5
5D
330
3
100
AcDbSymbolTableRecord
100
AcDbTextStyleTableRecord
  2
Standard
 70
     0
 40
0.0
 41
1.0
 50
0.0
 71
     0
 42
0.2
  3
txt
  4

  0
STYLE
  5
61
330
3
100
AcDbSymbolTableRecord
100
AcDbTextStyleTableRecord
  2
Annotative
 70
     0
 40
0.0
 41
1.0
 50
0.0
 71
     0
 42
0.2
  3
txt
  4

1001
AcadAnnotative
1000
AnnotativeData
1002
{
1070
     1
1070
     1
1002
}
  0
ENDTAB
  0
TABLE
  2
VIEW
  5
6
330
0
100
AcDbSymbolTable
 70
     0
  0
ENDTAB
  0
TABLE
  2
UCS
  5
7
330
0
100
AcDbSymbolTable
 70
     0
  0
ENDTAB
  0
TABLE
  2
APPID
  5
9
330
0
100
AcDbSymbolTable
 70
     3
  0
APPID
  5
5E
330
9
100
AcDbSymbolTableRecord
100
AcDbRegAppTableRecord
  2
ACAD
 70
     0
  0
APPID
  5
65
330
9
100
AcDbSymbolTableRecord
100
AcDbRegAppTableRecord
  2
AcadAnnotative
 70
     0
  0
APPID
  5
6F
330
9
100
AcDbSymbolTableRecord
100
AcDbRegAppTableRecord
  2
ACAD_MLEADERVER
 70
     0
  0
ENDTAB
  0
TABLE
  2
DIMSTYLE
  5
A
330
0
100
AcDbSymbolTable
 70
     2
100
AcDbDimStyleTable
 71
     0
  0
DIMSTYLE
105
5F
330
A
100
AcDbSymbolTableRecord
100
AcDbDimStyleTableRecord
  2
Standard
 70
     0
340
5D
  0
DIMSTYLE
105
60
330
A
100
AcDbSymbolTableRecord
100
AcDbDimStyleTableRecord
  2
Annotative
 70
     0
340
5D
1001
AcadAnnotative
1000
AnnotativeData
1002
{
1070
     1
1070
     1
1002
}
  0
ENDTAB
  0
TABLE
  2
BLOCK_RECORD
  5
1
330
0
100
AcDbSymbolTable
 70
     0
  0
BLOCK_RECORD
  5
74
330
1
100
AcDbSymbolTableRecord
100
AcDbBlockTableRecord
  2
*Model_Space
340
77
  0
BLOCK_RECORD
  5
70
330
1
100
AcDbSymbolTableRecord
100
AcDbBlockTableRecord
  2
*Paper_Space
340
73
  0
ENDTAB
  0
ENDSEC
  0
SECTION
  2
BLOCKS
  0
BLOCK
  5
75
330
74
100
AcDbEntity
  8
0
100
AcDbBlockBegin
  2
*Model_Space
 70
     0
 10
0.0
 20
0.0
 30
0.0
  3
*Model_Space
  1

  0
ENDBLK
  5
76
330
74
100
AcDbEntity
  8
0
100
AcDbBlockEnd
  0
BLOCK
  5
71
330
70
100
AcDbEntity
 67
     1
  8
0
100
AcDbBlockBegin
  2
*Paper_Space
 70
     0
 10
0.0
 20
0.0
 30
0.0
  3
*Paper_Space
  1

  0
ENDBLK
  5
72
330
70
100
AcDbEntity
 67
     1
  8
0
100
AcDbBlockEnd
  0
ENDSEC
  0
SECTION
  2
ENTITIES
  0
LINE
  5
82
330
74
100
AcDbEntity
  8
Calque 1
100
AcDbLine
 10
94.29400300000001
 20
131.149359
 30
0.0
 11
94.98257800000001
 21
132.550666
 31
0.0
  0
LINE
  5
83
330
74
100
AcDbEntity
  8
Calque 1
100
AcDbLine
 10
94.98257800000001
 20
132.550666
 30
0.0
 11
94.18158599999999
 21
132.932744
 31
0.0
  0
LINE
  5
84
330
74
100
AcDbEntity
  8
Calque 1
100
AcDbLine
 10
94.18158599999999
 20
132.932744
 30
0.0
 11
93.47603000000001
 21
133.251325
 31
0.0
  0
LINE
  5
85
330
74
100
AcDbEntity
  8
Calque 1
100
AcDbLine
 10
93.47603000000001
 20
133.251325
 30
0.0
 11
94.33680799999999
 21
133.270426
 31
0.0
  0
LINE
  5
86
330
74
100
AcDbEntity
  8
Calque 1
100
AcDbLine
 10
94.33680799999999
 20
133.270426
 30
0.0
 11
95.41540299999999
 21
133.559678
 31
0.0
  0
LINE
  5
87
330
74
100
AcDbEntity
  8
Calque 1
100
AcDbLine
 10
95.41540299999999
 20
133.559678
 30
0.0
 11
95.75066600000001
 21
133.850055
 31
0.0
  0
LINE
  5
88
330
74
100
AcDbEntity
  8
Calque 1
100
AcDbLine
 10
95.75066600000001
 20
133.850055
 30
0.0
 11
95.87491899999999
 21
134.192638
 31
0.0
  0
LINE
  5
89
330
74
100
AcDbEntity
  8
Calque 1
100
AcDbLine
 10
95.87491899999999
 20
134.192638
 30
0.0
 11
95.37750200000001
 21
134.352093
 31
0.0
  0
LINE
  5
8A
330
74
100
AcDbEntity
  8
Calque 1
100
AcDbLine
 10
95.37750200000001
 20
134.352093
 30
0.0
 11
94.18158599999999
 21
134.4184159999999
 31
0.0
  0
LINE
  5
8B
330
74
100
AcDbEntity
  8
Calque 1
100
AcDbLine
 10
94.18158599999999
 20
134.4184159999999
 30
0.0
 11
92.98214200000002
 21
134.50073
 31
0.0
  0
LINE
  5
8C
330
74
100
AcDbEntity
  8
Calque 1
100
AcDbLine
 10
92.98214200000002
 20
134.50073
 30
0.0
 11
92.488252
 21
134.700638
 31
0.0
  0
LINE
  5
8D
330
74
100
AcDbEntity
  8
Calque 1
100
AcDbLine
 10
92.488252
 20
134.700638
 30
0.0
 11
95.17617299999999
 21
134.899626
 31
0.0
  0
LINE
  5
8E
330
74
100
AcDbEntity
  8
Calque 1
100
AcDbLine
 10
95.17617299999999
 20
134.899626
 30
0.0
 11
103.00103
 21
134.939542
 31
0.0
  0
LINE
  5
8F
330
74
100
AcDbEntity
  8
Calque 1
100
AcDbLine
 10
103.00103
 20
134.939542
 30
0.0
 11
113.513808
 21
134.896224
 31
0.0
  0
LINE
  5
90
330
74
100
AcDbEntity
  8
Calque 1
100
AcDbLine
 10
113.513808
 20
134.896224
 30
0.0
 11
107.163808
 21
134.652076
 31
0.0
  0
LINE
  5
91
330
74
100
AcDbEntity
  8
Calque 1
100
AcDbLine
 10
107.163808
 20
134.652076
 30
0.0
 11
100.46103
 21
134.28092
 31
0.0
  0
LINE
  5
92
330
74
100
AcDbEntity
  8
Calque 1
100
AcDbLine
 10
100.46103
 20
134.28092
 30
0.0
 11
100.082924
 21
134.039466
 31
0.0
  0
LINE
  5
93
330
74
100
AcDbEntity
  8
Calque 1
100
AcDbLine
 10
100.082924
 20
134.039466
 30
0.0
 11
100.190757
 21
133.810205
 31
0.0
  0
LINE
  5
94
330
74
100
AcDbEntity
  8
Calque 1
100
AcDbLine
 10
100.190757
 20
133.810205
 30
0.0
 11
100.712421
 21
133.639008
 31
0.0
  0
LINE
  5
95
330
74
100
AcDbEntity
  8
Calque 1
100
AcDbLine
 10
100.712421
 20
133.639008
 30
0.0
 11
101.575808
 21
133.571749
 31
0.0
  0
LINE
  5
96
330
74
100
AcDbEntity
  8
Calque 1
100
AcDbLine
 10
101.575808
 20
133.571749
 30
0.0
 11
102.587804
 21
133.489147
 31
0.0
  0
LINE
  5
97
330
74
100
AcDbEntity
  8
Calque 1
100
AcDbLine
 10
102.587804
 20
133.489147
 30
0.0
 11
102.77323
 21
133.398598
 31
0.0
  0
LINE
  5
98
330
74
100
AcDbEntity
  8
Calque 1
100
AcDbLine
 10
102.77323
 20
133.398598
 30
0.0
 11
102.755856
 21
133.286507
 31
0.0
  0
LINE
  5
99
330
74
100
AcDbEntity
  8
Calque 1
100
AcDbLine
 10
102.755856
 20
133.286507
 30
0.0
 11
102.145457
 21
133.031574
 31
0.0
  0
LINE
  5
9A
330
74
100
AcDbEntity
  8
Calque 1
100
AcDbLine
 10
102.145457
 20
133.031574
 30
0.0
 11
100.8221
 21
132.792096
 31
0.0
  0
LINE
  5
9B
330
74
100
AcDbEntity
  8
Calque 1
100
AcDbLine
 10
100.8221
 20
132.792096
 30
0.0
 11
99.87098899999999
 21
132.651825
 31
0.0
  0
LINE
  5
9C
330
74
100
AcDbEntity
  8
Calque 1
100
AcDbLine
 10
99.87098899999999
 20
132.651825
 30
0.0
 11
99.33073700000001
 21
132.454506
 31
0.0
  0
LINE
  5
9D
330
74
100
AcDbEntity
  8
Calque 1
100
AcDbLine
 10
99.33073700000001
 20
132.454506
 30
0.0
 11
99.014471
 21
132.07409
 31
0.0
  0
LINE
  5
9E
330
74
100
AcDbEntity
  8
Calque 1
100
AcDbLine
 10
99.014471
 20
132.07409
 30
0.0
 11
98.735317
 21
131.384527
 31
0.0
  0
LINE
  5
9F
330
74
100
AcDbEntity
  8
Calque 1
100
AcDbLine
 10
98.735317
 20
131.384527
 30
0.0
 11
98.22603199999999
 21
130.390065
 31
0.0
  0
LINE
  5
A0
330
74
100
AcDbEntity
  8
Calque 1
100
AcDbLine
 10
98.22603199999999
 20
130.390065
 30
0.0
 11
97.905647
 21
130.223463
 31
0.0
  0
LINE
  5
A1
330
74
100
AcDbEntity
  8
Calque 1
100
AcDbLine
 10
97.905647
 20
130.223463
 30
0.0
 11
97.439376
 21
130.18263
 31
0.0
  0
LINE
  5
A2
330
74
100
AcDbEntity
  8
Calque 1
100
AcDbLine
 10
97.439376
 20
130.18263
 30
0.0
 11
95.045234
 21
129.995861
 31
0.0
  0
LINE
  5
A3
330
74
100
AcDbEntity
  8
Calque 1
100
AcDbLine
 10
95.045234
 20
129.995861
 30
0.0
 11
93.50999599999999
 21
129.811547
 31
0.0
  0
LINE
  5
A4
330
74
100
AcDbEntity
  8
Calque 1
100
AcDbLine
 10
93.50999599999999
 20
129.811547
 30
0.0
 11
94.29400300000001
 21
131.149359
 31
0.0
  0
LINE
  5
A5
330
74
100
AcDbEntity
  8
Calque 1
100
AcDbLine
 10
94.29400300000001
 20
131.149359
 30
0.0
 11
94.29400300000001
 21
131.149359
 31
0.0
  0
LINE
  5
A6
330
74
100
AcDbEntity
  8
Calque 1
100
AcDbLine
 10
102.36603
 20
130.012709
 30
0.0
 11
103.225981
 21
131.04597
 31
0.0
  0
LINE
  5
A7
330
74
100
AcDbEntity
  8
Calque 1
100
AcDbLine
 10
103.225981
 20
131.04597
 30
0.0
 11
103.789366
 21
131.810677
 31
0.0
  0
LINE
  5
A8
330
74
100
AcDbEntity
  8
Calque 1
100
AcDbLine
 10
103.789366
 20
131.810677
 30
0.0
 11
103.936295
 21
132.3565
 31
0.0
  0
LINE
  5
A9
330
74
100
AcDbEntity
  8
Calque 1
100
AcDbLine
 10
103.936295
 20
132.3565
 30
0.0
 11
103.974295
 21
132.683084
 31
0.0
  0
LINE
  5
AA
330
74
100
AcDbEntity
  8
Calque 1
100
AcDbLine
 10
103.974295
 20
132.683084
 30
0.0
 11
104.275788
 21
132.920688
 31
0.0
  0
LINE
  5
AB
330
74
100
AcDbEntity
  8
Calque 1
100
AcDbLine
 10
104.275788
 20
132.920688
 30
0.0
 11
105.161819
 21
133.403892
 31
0.0
  0
LINE
  5
AC
330
74
100
AcDbEntity
  8
Calque 1
100
AcDbLine
 10
105.161819
 20
133.403892
 30
0.0
 11
105.317507
 21
133.686959
 31
0.0
  0
LINE
  5
AD
330
74
100
AcDbEntity
  8
Calque 1
100
AcDbLine
 10
105.317507
 20
133.686959
 30
0.0
 11
104.738486
 21
133.891137
 31
0.0
  0
LINE
  5
AE
330
74
100
AcDbEntity
  8
Calque 1
100
AcDbLine
 10
104.738486
 20
133.891137
 30
0.0
 11
104.655976
 21
133.962992
 31
0.0
  0
LINE
  5
AF
330
74
100
AcDbEntity
  8
Calque 1
100
AcDbLine
 10
104.655976
 20
133.962992
 30
0.0
 11
105.037665
 21
134.026851
 31
0.0
  0
LINE
  5
B0
330
74
100
AcDbEntity
  8
Calque 1
100
AcDbLine
 10
105.037665
 20
134.026851
 30
0.0
 11
106.908786
 21
134.102804
 31
0.0
  0
LINE
  5
B1
330
74
100
AcDbEntity
  8
Calque 1
100
AcDbLine
 10
106.908786
 20
134.102804
 30
0.0
 11
112.52741
 21
134.322739
 31
0.0
  0
LINE
  5
B2
330
74
100
AcDbEntity
  8
Calque 1
100
AcDbLine
 10
112.52741
 20
134.322739
 30
0.0
 11
114.53291
 21
134.396187
 31
0.0
  0
LINE
  5
B3
330
74
100
AcDbEntity
  8
Calque 1
100
AcDbLine
 10
114.53291
 20
134.396187
 30
0.0
 11
114.913799
 21
134.326499
 31
0.0
  0
LINE
  5
B4
330
74
100
AcDbEntity
  8
Calque 1
100
AcDbLine
 10
114.913799
 20
134.326499
 30
0.0
 11
114.953
 21
134.181628
 31
0.0
  0
LINE
  5
B5
330
74
100
AcDbEntity
  8
Calque 1
100
AcDbLine
 10
114.953
 20
134.181628
 30
0.0
 11
114.091595
 21
133.938026
 31
0.0
  0
LINE
  5
B6
330
74
100
AcDbEntity
  8
Calque 1
100
AcDbLine
 10
114.091595
 20
133.938026
 30
0.0
 11
111.979487
 21
133.853971
 31
0.0
  0
LINE
  5
B7
330
74
100
AcDbEntity
  8
Calque 1
100
AcDbLine
 10
111.979487
 20
133.853971
 30
0.0
 11
109.724497
 21
133.763691
 31
0.0
  0
LINE
  5
B8
330
74
100
AcDbEntity
  8
Calque 1
100
AcDbLine
 10
109.724497
 20
133.763691
 30
0.0
 11
109.160383
 21
133.633344
 31
0.0
  0
LINE
  5
B9
330
74
100
AcDbEntity
  8
Calque 1
100
AcDbLine
 10
109.160383
 20
133.633344
 30
0.0
 11
108.857141
 21
133.430638
 31
0.0
  0
LINE
  5
BA
330
74
100
AcDbEntity
  8
Calque 1
100
AcDbLine
 10
108.857141
 20
133.430638
 30
0.0
 11
108.738315
 21
133.208134
 31
0.0
  0
LINE
  5
BB
330
74
100
AcDbEntity
  8
Calque 1
100
AcDbLine
 10
108.738315
 20
133.208134
 30
0.0
 11
108.902333
 21
133.077146
 31
0.0
  0
LINE
  5
BC
330
74
100
AcDbEntity
  8
Calque 1
100
AcDbLine
 10
108.902333
 20
133.077146
 30
0.0
 11
110.445364
 21
132.987467
 31
0.0
  0
LINE
  5
BD
330
74
100
AcDbEntity
  8
Calque 1
100
AcDbLine
 10
110.445364
 20
132.987467
 30
0.0
 11
111.674654
 21
132.899336
 31
0.0
  0
LINE
  5
BE
330
74
100
AcDbEntity
  8
Calque 1
100
AcDbLine
 10
111.674654
 20
132.899336
 30
0.0
 11
111.888198
 21
132.818537
 31
0.0
  0
LINE
  5
BF
330
74
100
AcDbEntity
  8
Calque 1
100
AcDbLine
 10
111.888198
 20
132.818537
 30
0.0
 11
111.856443
 21
132.727099
 31
0.0
  0
LINE
  5
C0
330
74
100
AcDbEntity
  8
Calque 1
100
AcDbLine
 10
111.856443
 20
132.727099
 30
0.0
 11
111.123335
 21
132.553854
 31
0.0
  0
LINE
  5
C1
330
74
100
AcDbEntity
  8
Calque 1
100
AcDbLine
 10
111.123335
 20
132.553854
 30
0.0
 11
109.607934
 21
132.462697
 31
0.0
  0
LINE
  5
C2
330
74
100
AcDbEntity
  8
Calque 1
100
AcDbLine
 10
109.607934
 20
132.462697
 30
0.0
 11
108.175581
 21
132.324189
 31
0.0
  0
LINE
  5
C3
330
74
100
AcDbEntity
  8
Calque 1
100
AcDbLine
 10
108.175581
 20
132.324189
 30
0.0
 11
107.763607
 21
132.127271
 31
0.0
  0
LINE
  5
C4
330
74
100
AcDbEntity
  8
Calque 1
100
AcDbLine
 10
107.763607
 20
132.127271
 30
0.0
 11
107.430102
 21
131.80786
 31
0.0
  0
LINE
  5
C5
330
74
100
AcDbEntity
  8
Calque 1
100
AcDbLine
 10
107.430102
 20
131.80786
 30
0.0
 11
106.890975
 21
130.970405
 31
0.0
  0
LINE
  5
C6
330
74
100
AcDbEntity
  8
Calque 1
100
AcDbLine
 10
106.890975
 20
130.970405
 30
0.0
 11
107.975278
 21
130.879605
 31
0.0
  0
LINE
  5
C7
330
74
100
AcDbEntity
  8
Calque 1
100
AcDbLine
 10
107.975278
 20
130.879605
 30
0.0
 11
110.595402
 21
130.945595
 31
0.0
  0
LINE
  5
C8
330
74
100
AcDbEntity
  8
Calque 1
100
AcDbLine
 10
110.595402
 20
130.945595
 30
0.0
 11
113.382557
 21
131.009548
 31
0.0
  0
LINE
  5
C9
330
74
100
AcDbEntity
  8
Calque 1
100
AcDbLine
 10
113.382557
 20
131.009548
 30
0.0
 11
113.99236
 21
130.947948
 31
0.0
  0
LINE
  5
CA
330
74
100
AcDbEntity
  8
Calque 1
100
AcDbLine
 10
113.99236
 20
130.947948
 30
0.0
 11
114.123315
 21
130.822439
 31
0.0
  0
LINE
  5
CB
330
74
100
AcDbEntity
  8
Calque 1
100
AcDbLine
 10
114.123315
 20
130.822439
 30
0.0
 11
113.142226
 21
130.563234
 31
0.0
  0
LINE
  5
CC
330
74
100
AcDbEntity
  8
Calque 1
100
AcDbLine
 10
113.142226
 20
130.563234
 30
0.0
 11
111.044499
 21
130.362439
 31
0.0
  0
LINE
  5
CD
330
74
100
AcDbEntity
  8
Calque 1
100
AcDbLine
 10
111.044499
 20
130.362439
 30
0.0
 11
104.020281
 21
130.000261
 31
0.0
  0
LINE
  5
CE
330
74
100
AcDbEntity
  8
Calque 1
100
AcDbLine
 10
104.020281
 20
130.000261
 30
0.0
 11
102.36603
 21
130.012709
 31
0.0
  0
LINE
  5
CF
330
74
100
AcDbEntity
  8
Calque 1
100
AcDbLine
 10
102.36603
 20
130.012709
 30
0.0
 11
102.36603
 21
130.012709
 31
0.0
  0
LINE
  5
D0
330
74
100
AcDbEntity
  8
Calque 1
100
AcDbLine
 10
117.513255
 20
130.90846
 30
0.0
 11
117.213785
 21
131.478257
 31
0.0
  0
LINE
  5
D1
330
74
100
AcDbEntity
  8
Calque 1
100
AcDbLine
 10
117.213785
 20
131.478257
 30
0.0
 11
116.924148
 21
131.77064
 31
0.0
  0
LINE
  5
D2
330
74
100
AcDbEntity
  8
Calque 1
100
AcDbLine
 10
116.924148
 20
131.77064
 30
0.0
 11
116.509122
 21
131.858596
 31
0.0
  0
LINE
  5
D3
330
74
100
AcDbEntity
  8
Calque 1
100
AcDbLine
 10
116.509122
 20
131.858596
 30
0.0
 11
115.833483
 21
131.815113
 31
0.0
  0
LINE
  5
D4
330
74
100
AcDbEntity
  8
Calque 1
100
AcDbLine
 10
115.833483
 20
131.815113
 30
0.0
 11
114.360475
 21
131.61285
 31
0.0
  0
LINE
  5
D5
330
74
100
AcDbEntity
  8
Calque 1
100
AcDbLine
 10
114.360475
 20
131.61285
 30
0.0
 11
112.339242
 21
131.573983
 31
0.0
  0
LINE
  5
D6
330
74
100
AcDbEntity
  8
Calque 1
100
AcDbLine
 10
112.339242
 20
131.573983
 30
0.0
 11
111.287408
 21
131.700919
 31
0.0
  0
LINE
  5
D7
330
74
100
AcDbEntity
  8
Calque 1
100
AcDbLine
 10
111.287408
 20
131.700919
 30
0.0
 11
110.832697
 21
131.878416
 31
0.0
  0
LINE
  5
D8
330
74
100
AcDbEntity
  8
Calque 1
100
AcDbLine
 10
110.832697
 20
131.878416
 30
0.0
 11
111.019228
 21
132.078076
 31
0.0
  0
LINE
  5
D9
330
74
100
AcDbEntity
  8
Calque 1
100
AcDbLine
 10
111.019228
 20
132.078076
 30
0.0
 11
111.467697
 21
132.161801
 31
0.0
  0
LINE
  5
DA
330
74
100
AcDbEntity
  8
Calque 1
100
AcDbLine
 10
111.467697
 20
132.161801
 30
0.0
 11
112.910999
 21
132.704533
 31
0.0
  0
LINE
  5
DB
330
74
100
AcDbEntity
  8
Calque 1
100
AcDbLine
 10
112.910999
 20
132.704533
 30
0.0
 11
115.489363
 21
134.007768
 31
0.0
  0
LINE
  5
DC
330
74
100
AcDbEntity
  8
Calque 1
100
AcDbLine
 10
115.489363
 20
134.007768
 30
0.0
 11
118.430131
 21
135.484563
 31
0.0
  0
LINE
  5
DD
330
74
100
AcDbEntity
  8
Calque 1
100
AcDbLine
 10
118.430131
 20
135.484563
 30
0.0
 11
119.209734
 21
135.700883
 31
0.0
  0
LINE
  5
DE
330
74
100
AcDbEntity
  8
Calque 1
100
AcDbLine
 10
119.209734
 20
135.700883
 30
0.0
 11
119.820752
 21
135.6819919999999
 31
0.0
  0
LINE
  5
DF
330
74
100
AcDbEntity
  8
Calque 1
100
AcDbLine
 10
119.820752
 20
135.6819919999999
 30
0.0
 11
120.568361
 21
135.459821
 31
0.0
  0
LINE
  5
E0
330
74
100
AcDbEntity
  8
Calque 1
100
AcDbLine
 10
120.568361
 20
135.459821
 30
0.0
 11
120.269962
 21
134.963878
 31
0.0
  0
LINE
  5
E1
330
74
100
AcDbEntity
  8
Calque 1
100
AcDbLine
 10
120.269962
 20
134.963878
 30
0.0
 11
120.014854
 21
134.622285
 31
0.0
  0
LINE
  5
E2
330
74
100
AcDbEntity
  8
Calque 1
100
AcDbLine
 10
120.014854
 20
134.622285
 30
0.0
 11
119.913547
 21
134.242277
 31
0.0
  0
LINE
  5
E3
330
74
100
AcDbEntity
  8
Calque 1
100
AcDbLine
 10
119.913547
 20
134.242277
 30
0.0
 11
120.137335
 21
132.794602
 31
0.0
  0
LINE
  5
E4
330
74
100
AcDbEntity
  8
Calque 1
100
AcDbLine
 10
120.137335
 20
132.794602
 30
0.0
 11
120.625757
 21
130.845578
 31
0.0
  0
LINE
  5
E5
330
74
100
AcDbEntity
  8
Calque 1
100
AcDbLine
 10
120.625757
 20
130.845578
 30
0.0
 11
120.623456
 21
130.626432
 31
0.0
  0
LINE
  5
E6
330
74
100
AcDbEntity
  8
Calque 1
100
AcDbLine
 10
120.623456
 20
130.626432
 30
0.0
 11
120.377493
 21
130.443467
 31
0.0
  0
LINE
  5
E7
330
74
100
AcDbEntity
  8
Calque 1
100
AcDbLine
 10
120.377493
 20
130.443467
 30
0.0
 11
118.862469
 21
130.055136
 31
0.0
  0
LINE
  5
E8
330
74
100
AcDbEntity
  8
Calque 1
100
AcDbLine
 10
118.862469
 20
130.055136
 30
0.0
 11
118.385615
 21
129.992385
 31
0.0
  0
LINE
  5
E9
330
74
100
AcDbEntity
  8
Calque 1
100
AcDbLine
 10
118.385615
 20
129.992385
 30
0.0
 11
118.061949
 21
130.075644
 31
0.0
  0
LINE
  5
EA
330
74
100
AcDbEntity
  8
Calque 1
100
AcDbLine
 10
118.061949
 20
130.075644
 30
0.0
 11
117.513255
 21
130.90846
 31
0.0
  0
LINE
  5
EB
330
74
100
AcDbEntity
  8
Calque 1
100
AcDbLine
 10
117.513255
 20
130.90846
 30
0.0
 11
117.513255
 21
130.90846
 31
0.0
  0
LINE
  5
EC
330
74
100
AcDbEntity
  8
Calque 1
100
AcDbLine
 10
117.323808
 20
132.727473
 30
0.0
 11
117.226871
 21
133.136425
 31
0.0
  0
LINE
  5
ED
330
74
100
AcDbEntity
  8
Calque 1
100
AcDbLine
 10
117.226871
 20
133.136425
 30
0.0
 11
116.759363
 21
132.941809
 31
0.0
  0
LINE
  5
EE
330
74
100
AcDbEntity
  8
Calque 1
100
AcDbLine
 10
116.759363
 20
132.941809
 30
0.0
 11
116.194919
 21
132.374972
 31
0.0
  0
LINE
  5
EF
330
74
100
AcDbEntity
  8
Calque 1
100
AcDbLine
 10
116.194919
 20
132.374972
 30
0.0
 11
116.360725
 21
132.223598
 31
0.0
  0
LINE
  5
F0
330
74
100
AcDbEntity
  8
Calque 1
100
AcDbLine
 10
116.360725
 20
132.223598
 30
0.0
 11
116.759363
 21
132.1606379999999
 31
0.0
  0
LINE
  5
F1
330
74
100
AcDbEntity
  8
Calque 1
100
AcDbLine
 10
116.759363
 20
132.1606379999999
 30
0.0
 11
117.182995
 21
132.302048
 31
0.0
  0
LINE
  5
F2
330
74
100
AcDbEntity
  8
Calque 1
100
AcDbLine
 10
117.182995
 20
132.302048
 30
0.0
 11
117.323808
 21
132.727473
 31
0.0
  0
LINE
  5
F3
330
74
100
AcDbEntity
  8
Calque 1
100
AcDbLine
 10
117.323808
 20
132.727473
 30
0.0
 11
117.323808
 21
132.727473
 31
0.0
  0
LINE
  5
F4
330
74
100
AcDbEntity
  8
Calque 1
100
AcDbLine
 10
122.68603
 20
130.620088
 30
0.0
 11
122.520225
 21
130.991502
 31
0.0
  0
LINE
  5
F5
330
74
100
AcDbEntity
  8
Calque 1
100
AcDbLine
 10
122.520225
 20
130.991502
 30
0.0
 11
122.121586
 21
131.232197
 31
0.0
  0
LINE
  5
F6
330
74
100
AcDbEntity
  8
Calque 1
100
AcDbLine
 10
122.121586
 20
131.232197
 30
0.0
 11
121.755236
 21
131.399101
 31
0.0
  0
LINE
  5
F7
330
74
100
AcDbEntity
  8
Calque 1
100
AcDbLine
 10
121.755236
 20
131.399101
 30
0.0
 11
121.572292
 21
131.613913
 31
0.0
  0
LINE
  5
F8
330
74
100
AcDbEntity
  8
Calque 1
100
AcDbLine
 10
121.572292
 20
131.613913
 30
0.0
 11
121.602258
 21
131.799421
 31
0.0
  0
LINE
  5
F9
330
74
100
AcDbEntity
  8
Calque 1
100
AcDbLine
 10
121.602258
 20
131.799421
 30
0.0
 11
121.874641
 21
131.878416
 31
0.0
  0
LINE
  5
FA
330
74
100
AcDbEntity
  8
Calque 1
100
AcDbLine
 10
121.874641
 20
131.878416
 30
0.0
 11
122.060131
 21
132.146121
 31
0.0
  0
LINE
  5
FB
330
74
100
AcDbEntity
  8
Calque 1
100
AcDbLine
 10
122.060131
 20
132.146121
 30
0.0
 11
122.010469
 21
132.78079
 31
0.0
  0
LINE
  5
FC
330
74
100
AcDbEntity
  8
Calque 1
100
AcDbLine
 10
122.010469
 20
132.78079
 30
0.0
 11
121.777304
 21
133.529751
 31
0.0
  0
LINE
  5
FD
330
74
100
AcDbEntity
  8
Calque 1
100
AcDbLine
 10
121.777304
 20
133.529751
 30
0.0
 11
121.412285
 21
134.140331
 31
0.0
  0
LINE
  5
FE
330
74
100
AcDbEntity
  8
Calque 1
100
AcDbLine
 10
121.412285
 20
134.140331
 30
0.0
 11
121.165268
 21
134.584157
 31
0.0
  0
LINE
  5
FF
330
74
100
AcDbEntity
  8
Calque 1
100
AcDbLine
 10
121.165268
 20
134.584157
 30
0.0
 11
121.627305
 21
134.943388
 31
0.0
  0
LINE
  5
100
330
74
100
AcDbEntity
  8
Calque 1
100
AcDbLine
 10
121.627305
 20
134.943388
 30
0.0
 11
122.190622
 21
135.068759
 31
0.0
  0
LINE
  5
101
330
74
100
AcDbEntity
  8
Calque 1
100
AcDbLine
 10
122.190622
 20
135.068759
 30
0.0
 11
123.292094
 21
135.002812
 31
0.0
  0
LINE
  5
102
330
74
100
AcDbEntity
  8
Calque 1
100
AcDbLine
 10
123.292094
 20
135.002812
 30
0.0
 11
128.294313
 21
134.157264
 31
0.0
  0
LINE
  5
103
330
74
100
AcDbEntity
  8
Calque 1
100
AcDbLine
 10
128.294313
 20
134.157264
 30
0.0
 11
134.453918
 21
132.904604
 31
0.0
  0
LINE
  5
104
330
74
100
AcDbEntity
  8
Calque 1
100
AcDbLine
 10
134.453918
 20
132.904604
 30
0.0
 11
134.392673
 21
132.758711
 31
0.0
  0
LINE
  5
105
330
74
100
AcDbEntity
  8
Calque 1
100
AcDbLine
 10
134.392673
 20
132.758711
 30
0.0
 11
133.860635
 21
132.593032
 31
0.0
  0
LINE
  5
106
330
74
100
AcDbEntity
  8
Calque 1
100
AcDbLine
 10
133.860635
 20
132.593032
 30
0.0
 11
131.011586
 21
132.117083
 31
0.0
  0
LINE
  5
107
330
74
100
AcDbEntity
  8
Calque 1
100
AcDbLine
 10
131.011586
 20
132.117083
 30
0.0
 11
128.471586
 21
131.747402
 31
0.0
  0
LINE
  5
108
330
74
100
AcDbEntity
  8
Calque 1
100
AcDbLine
 10
128.471586
 20
131.747402
 30
0.0
 11
130.588252
 21
131.567573
 31
0.0
  0
LINE
  5
109
330
74
100
AcDbEntity
  8
Calque 1
100
AcDbLine
 10
130.588252
 20
131.567573
 30
0.0
 11
134.962697
 21
131.327078
 31
0.0
  0
LINE
  5
10A
330
74
100
AcDbEntity
  8
Calque 1
100
AcDbLine
 10
134.962697
 20
131.327078
 30
0.0
 11
137.220475
 21
131.266411
 31
0.0
  0
LINE
  5
10B
330
74
100
AcDbEntity
  8
Calque 1
100
AcDbLine
 10
137.220475
 20
131.266411
 30
0.0
 11
136.091586
 21
130.747122
 31
0.0
  0
LINE
  5
10C
330
74
100
AcDbEntity
  8
Calque 1
100
AcDbLine
 10
136.091586
 20
130.747122
 30
0.0
 11
135.366704
 21
130.463453
 31
0.0
  0
LINE
  5
10D
330
74
100
AcDbEntity
  8
Calque 1
100
AcDbLine
 10
135.366704
 20
130.463453
 30
0.0
 11
134.522905
 21
130.370277
 31
0.0
  0
LINE
  5
10E
330
74
100
AcDbEntity
  8
Calque 1
100
AcDbLine
 10
134.522905
 20
130.370277
 30
0.0
 11
130.588252
 21
130.759746
 31
0.0
  0
LINE
  5
10F
330
74
100
AcDbEntity
  8
Calque 1
100
AcDbLine
 10
130.588252
 20
130.759746
 30
0.0
 11
126.059486
 21
131.257381
 31
0.0
  0
LINE
  5
110
330
74
100
AcDbEntity
  8
Calque 1
100
AcDbLine
 10
126.059486
 20
131.257381
 30
0.0
 11
125.609906
 21
131.152144
 31
0.0
  0
LINE
  5
111
330
74
100
AcDbEntity
  8
Calque 1
100
AcDbLine
 10
125.609906
 20
131.152144
 30
0.0
 11
125.610166
 21
130.820082
 31
0.0
  0
LINE
  5
112
330
74
100
AcDbEntity
  8
Calque 1
100
AcDbLine
 10
125.610166
 20
130.820082
 30
0.0
 11
125.568274
 21
130.569369
 31
0.0
  0
LINE
  5
113
330
74
100
AcDbEntity
  8
Calque 1
100
AcDbLine
 10
125.568274
 20
130.569369
 30
0.0
 11
125.354262
 21
130.405473
 31
0.0
  0
LINE
  5
114
330
74
100
AcDbEntity
  8
Calque 1
100
AcDbLine
 10
125.354262
 20
130.405473
 30
0.0
 11
124.167697
 21
130.240889
 31
0.0
  0
LINE
  5
115
330
74
100
AcDbEntity
  8
Calque 1
100
AcDbLine
 10
124.167697
 20
130.240889
 30
0.0
 11
122.968686
 21
130.260471
 31
0.0
  0
LINE
  5
116
330
74
100
AcDbEntity
  8
Calque 1
100
AcDbLine
 10
122.968686
 20
130.260471
 30
0.0
 11
122.745724
 21
130.389352
 31
0.0
  0
LINE
  5
117
330
74
100
AcDbEntity
  8
Calque 1
100
AcDbLine
 10
122.745724
 20
130.389352
 30
0.0
 11
122.68603
 21
130.620088
 31
0.0
  0
LINE
  5
118
330
74
100
AcDbEntity
  8
Calque 1
100
AcDbLine
 10
122.68603
 20
130.620088
 30
0.0
 11
122.68603
 21
130.620088
 31
0.0
  0
LINE
  5
119
330
74
100
AcDbEntity
  8
Calque 1
100
AcDbLine
 10
127.224669
 20
132.44286
 30
0.0
 11
128.005644
 21
132.511901
 31
0.0
  0
LINE
  5
11A
330
74
100
AcDbEntity
  8
Calque 1
100
AcDbLine
 10
128.005644
 20
132.511901
 30
0.0
 11
128.330475
 21
132.677892
 31
0.0
  0
LINE
  5
11B
330
74
100
AcDbEntity
  8
Calque 1
100
AcDbLine
 10
128.330475
 20
132.677892
 30
0.0
 11
127.836105
 21
132.914732
 31
0.0
  0
LINE
  5
11C
330
74
100
AcDbEntity
  8
Calque 1
100
AcDbLine
 10
127.836105
 20
132.914732
 30
0.0
 11
126.733666
 21
133.202075
 31
0.0
  0
LINE
  5
11D
330
74
100
AcDbEntity
  8
Calque 1
100
AcDbLine
 10
126.733666
 20
133.202075
 30
0.0
 11
125.594161
 21
133.413012
 31
0.0
  0
LINE
  5
11E
330
74
100
AcDbEntity
  8
Calque 1
100
AcDbLine
 10
125.594161
 20
133.413012
 30
0.0
 11
124.988594
 21
133.420636
 31
0.0
  0
LINE
  5
11F
330
74
100
AcDbEntity
  8
Calque 1
100
AcDbLine
 10
124.988594
 20
133.420636
 30
0.0
 11
125.084648
 21
132.7259399999999
 31
0.0
  0
LINE
  5
120
330
74
100
AcDbEntity
  8
Calque 1
100
AcDbLine
 10
125.084648
 20
132.7259399999999
 30
0.0
 11
125.336626
 21
132.320017
 31
0.0
  0
LINE
  5
121
330
74
100
AcDbEntity
  8
Calque 1
100
AcDbLine
 10
125.336626
 20
132.320017
 30
0.0
 11
125.697942
 21
132.281339
 31
0.0
  0
LINE
  5
122
330
74
100
AcDbEntity
  8
Calque 1
100
AcDbLine
 10
125.697942
 20
132.281339
 30
0.0
 11
127.224669
 21
132.44286
 31
0.0
  0
LINE
  5
123
330
74
100
AcDbEntity
  8
Calque 1
100
AcDbLine
 10
127.224669
 20
132.44286
 30
0.0
 11
127.224669
 21
132.44286
 31
0.0
  0
LINE
  5
124
330
74
100
AcDbEntity
  8
Calque 1
100
AcDbLine
 10
95.59269699999999
 20
135.966867
 30
0.0
 11
97.11855400000001
 21
138.30684
 31
0.0
  0
LINE
  5
125
330
74
100
AcDbEntity
  8
Calque 1
100
AcDbLine
 10
97.11855400000001
 20
138.30684
 30
0.0
 11
98.26907900000001
 21
140.149888
 31
0.0
  0
LINE
  5
126
330
74
100
AcDbEntity
  8
Calque 1
100
AcDbLine
 10
98.26907900000001
 20
140.149888
 30
0.0
 11
98.433135
 21
140.65469
 31
0.0
  0
LINE
  5
127
330
74
100
AcDbEntity
  8
Calque 1
100
AcDbLine
 10
98.433135
 20
140.65469
 30
0.0
 11
98.37453000000001
 21
140.991721
 31
0.0
  0
LINE
  5
128
330
74
100
AcDbEntity
  8
Calque 1
100
AcDbLine
 10
98.37453000000001
 20
140.991721
 30
0.0
 11
98.27759
 21
141.247429
 31
0.0
  0
LINE
  5
129
330
74
100
AcDbEntity
  8
Calque 1
100
AcDbLine
 10
98.27759
 20
141.247429
 30
0.0
 11
98.394749
 21
141.393163
 31
0.0
  0
LINE
  5
12A
330
74
100
AcDbEntity
  8
Calque 1
100
AcDbLine
 10
98.394749
 20
141.393163
 30
0.0
 11
99.566022
 21
141.473971
 31
0.0
  0
LINE
  5
12B
330
74
100
AcDbEntity
  8
Calque 1
100
AcDbLine
 10
99.566022
 20
141.473971
 30
0.0
 11
100.431962
 21
141.43607
 31
0.0
  0
LINE
  5
12C
330
74
100
AcDbEntity
  8
Calque 1
100
AcDbLine
 10
100.431962
 20
141.43607
 30
0.0
 11
101.102316
 21
141.214755
 31
0.0
  0
LINE
  5
12D
330
74
100
AcDbEntity
  8
Calque 1
100
AcDbLine
 10
101.102316
 20
141.214755
 30
0.0
 11
101.872334
 21
140.648612
 31
0.0
  0
LINE
  5
12E
330
74
100
AcDbEntity
  8
Calque 1
100
AcDbLine
 10
101.872334
 20
140.648612
 30
0.0
 11
103.037267
 21
139.576227
 31
0.0
  0
LINE
  5
12F
330
74
100
AcDbEntity
  8
Calque 1
100
AcDbLine
 10
103.037267
 20
139.576227
 30
0.0
 11
105.047141
 21
137.678486
 31
0.0
  0
LINE
  5
130
330
74
100
AcDbEntity
  8
Calque 1
100
AcDbLine
 10
105.047141
 20
137.678486
 30
0.0
 11
105.131424
 21
139.612707
 31
0.0
  0
LINE
  5
131
330
74
100
AcDbEntity
  8
Calque 1
100
AcDbLine
 10
105.131424
 20
139.612707
 30
0.0
 11
105.215704
 21
141.546931
 31
0.0
  0
LINE
  5
132
330
74
100
AcDbEntity
  8
Calque 1
100
AcDbLine
 10
105.215704
 20
141.546931
 30
0.0
 11
106.511369
 21
141.36934
 31
0.0
  0
LINE
  5
133
330
74
100
AcDbEntity
  8
Calque 1
100
AcDbLine
 10
106.511369
 20
141.36934
 30
0.0
 11
108.863232
 21
141.191749
 31
0.0
  0
LINE
  5
134
330
74
100
AcDbEntity
  8
Calque 1
100
AcDbLine
 10
108.863232
 20
141.191749
 30
0.0
 11
109.919429
 21
141.191749
 31
0.0
  0
LINE
  5
135
330
74
100
AcDbEntity
  8
Calque 1
100
AcDbLine
 10
109.919429
 20
141.191749
 30
0.0
 11
109.164114
 21
138.581193
 31
0.0
  0
LINE
  5
136
330
74
100
AcDbEntity
  8
Calque 1
100
AcDbLine
 10
109.164114
 20
138.581193
 30
0.0
 11
108.4088
 21
135.9706379999999
 31
0.0
  0
LINE
  5
137
330
74
100
AcDbEntity
  8
Calque 1
100
AcDbLine
 10
108.4088
 20
135.9706379999999
 30
0.0
 11
107.235673
 21
135.884529
 31
0.0
  0
LINE
  5
138
330
74
100
AcDbEntity
  8
Calque 1
100
AcDbLine
 10
107.235673
 20
135.884529
 30
0.0
 11
106.551698
 21
135.893699
 31
0.0
  0
LINE
  5
139
330
74
100
AcDbEntity
  8
Calque 1
100
AcDbLine
 10
106.551698
 20
135.893699
 30
0.0
 11
105.851174
 21
136.065133
 31
0.0
  0
LINE
  5
13A
330
74
100
AcDbEntity
  8
Calque 1
100
AcDbLine
 10
105.851174
 20
136.065133
 30
0.0
 11
103.775916
 21
137.117349
 31
0.0
  0
LINE
  5
13B
330
74
100
AcDbEntity
  8
Calque 1
100
AcDbLine
 10
103.775916
 20
137.117349
 30
0.0
 11
102.296219
 21
137.926629
 31
0.0
  0
LINE
  5
13C
330
74
100
AcDbEntity
  8
Calque 1
100
AcDbLine
 10
102.296219
 20
137.926629
 30
0.0
 11
101.437989
 21
138.141568
 31
0.0
  0
LINE
  5
13D
330
74
100
AcDbEntity
  8
Calque 1
100
AcDbLine
 10
101.437989
 20
138.141568
 30
0.0
 11
101.146846
 21
138.011879
 31
0.0
  0
LINE
  5
13E
330
74
100
AcDbEntity
  8
Calque 1
100
AcDbLine
 10
101.146846
 20
138.011879
 30
0.0
 11
100.896976
 21
137.71647
 31
0.0
  0
LINE
  5
13F
330
74
100
AcDbEntity
  8
Calque 1
100
AcDbLine
 10
100.896976
 20
137.71647
 30
0.0
 11
100.368927
 21
136.605638
 31
0.0
  0
LINE
  5
140
330
74
100
AcDbEntity
  8
Calque 1
100
AcDbLine
 10
100.368927
 20
136.605638
 30
0.0
 11
100.138748
 21
136.1666379999999
 31
0.0
  0
LINE
  5
141
330
74
100
AcDbEntity
  8
Calque 1
100
AcDbLine
 10
100.138748
 20
136.1666379999999
 30
0.0
 11
99.78195200000001
 21
135.935153
 31
0.0
  0
LINE
  5
142
330
74
100
AcDbEntity
  8
Calque 1
100
AcDbLine
 10
99.78195200000001
 20
135.935153
 30
0.0
 11
97.816235
 21
135.829527
 31
0.0
  0
LINE
  5
143
330
74
100
AcDbEntity
  8
Calque 1
100
AcDbLine
 10
97.816235
 20
135.829527
 30
0.0
 11
95.59269699999999
 21
135.966867
 31
0.0
  0
LINE
  5
144
330
74
100
AcDbEntity
  8
Calque 1
100
AcDbLine
 10
95.59269699999999
 20
135.966867
 30
0.0
 11
95.59269699999999
 21
135.966867
 31
0.0
  0
LINE
  5
145
330
74
100
AcDbEntity
  8
Calque 1
100
AcDbLine
 10
110.209578
 20
136.464527
 30
0.0
 11
109.583677
 21
137.416067
 31
0.0
  0
LINE
  5
146
330
74
100
AcDbEntity
  8
Calque 1
100
AcDbLine
 10
109.583677
 20
137.416067
 30
0.0
 11
109.563966
 21
137.766929
 31
0.0
  0
LINE
  5
147
330
74
100
AcDbEntity
  8
Calque 1
100
AcDbLine
 10
109.563966
 20
137.766929
 30
0.0
 11
109.784792
 21
138.121353
 31
0.0
  0
LINE
  5
148
330
74
100
AcDbEntity
  8
Calque 1
100
AcDbLine
 10
109.784792
 20
138.121353
 30
0.0
 11
111.284662
 21
139.192402
 31
0.0
  0
LINE
  5
149
330
74
100
AcDbEntity
  8
Calque 1
100
AcDbLine
 10
111.284662
 20
139.192402
 30
0.0
 11
113.130432
 21
140.168591
 31
0.0
  0
LINE
  5
14A
330
74
100
AcDbEntity
  8
Calque 1
100
AcDbLine
 10
113.130432
 20
140.168591
 30
0.0
 11
114.916247
 21
140.79643
 31
0.0
  0
LINE
  5
14B
330
74
100
AcDbEntity
  8
Calque 1
100
AcDbLine
 10
114.916247
 20
140.79643
 30
0.0
 11
116.432742
 21
141.021825
 31
0.0
  0
LINE
  5
14C
330
74
100
AcDbEntity
  8
Calque 1
100
AcDbLine
 10
116.432742
 20
141.021825
 30
0.0
 11
117.024567
 21
140.966701
 31
0.0
  0
LINE
  5
14D
330
74
100
AcDbEntity
  8
Calque 1
100
AcDbLine
 10
117.024567
 20
140.966701
 30
0.0
 11
117.470549
 21
140.79068
 31
0.0
  0
LINE
  5
14E
330
74
100
AcDbEntity
  8
Calque 1
100
AcDbLine
 10
117.470549
 20
140.79068
 30
0.0
 11
117.916714
 21
140.34032
 31
0.0
  0
LINE
  5
14F
330
74
100
AcDbEntity
  8
Calque 1
100
AcDbLine
 10
117.916714
 20
140.34032
 30
0.0
 11
117.987541
 21
139.847612
 31
0.0
  0
LINE
  5
150
330
74
100
AcDbEntity
  8
Calque 1
100
AcDbLine
 10
117.987541
 20
139.847612
 30
0.0
 11
118.12971
 21
139.28173
 31
0.0
  0
LINE
  5
151
330
74
100
AcDbEntity
  8
Calque 1
100
AcDbLine
 10
118.12971
 20
139.28173
 30
0.0
 11
118.869658
 21
138.608064
 31
0.0
  0
LINE
  5
152
330
74
100
AcDbEntity
  8
Calque 1
100
AcDbLine
 10
118.869658
 20
138.608064
 30
0.0
 11
119.886688
 21
137.884435
 31
0.0
  0
LINE
  5
153
330
74
100
AcDbEntity
  8
Calque 1
100
AcDbLine
 10
119.886688
 20
137.884435
 30
0.0
 11
118.534694
 21
137.308188
 31
0.0
  0
LINE
  5
154
330
74
100
AcDbEntity
  8
Calque 1
100
AcDbLine
 10
118.534694
 20
137.308188
 30
0.0
 11
116.053808
 21
136.423418
 31
0.0
  0
LINE
  5
155
330
74
100
AcDbEntity
  8
Calque 1
100
AcDbLine
 10
116.053808
 20
136.423418
 30
0.0
 11
114.563113
 21
136.188614
 31
0.0
  0
LINE
  5
156
330
74
100
AcDbEntity
  8
Calque 1
100
AcDbLine
 10
114.563113
 20
136.188614
 30
0.0
 11
112.758266
 21
136.119547
 31
0.0
  0
LINE
  5
157
330
74
100
AcDbEntity
  8
Calque 1
100
AcDbLine
 10
112.758266
 20
136.119547
 30
0.0
 11
111.140132
 21
136.212692
 31
0.0
  0
LINE
  5
158
330
74
100
AcDbEntity
  8
Calque 1
100
AcDbLine
 10
111.140132
 20
136.212692
 30
0.0
 11
110.209578
 21
136.464527
 31
0.0
  0
LINE
  5
159
330
74
100
AcDbEntity
  8
Calque 1
100
AcDbLine
 10
110.209578
 20
136.464527
 30
0.0
 11
110.209578
 21
136.464527
 31
0.0
  0
LINE
  5
15A
330
74
100
AcDbEntity
  8
Calque 1
100
AcDbLine
 10
115.033623
 20
137.142399
 30
0.0
 11
116.053107
 21
137.539836
 31
0.0
  0
LINE
  5
15B
330
74
100
AcDbEntity
  8
Calque 1
100
AcDbLine
 10
116.053107
 20
137.539836
 30
0.0
 11
116.477141
 21
137.840707
 31
0.0
  0
LINE
  5
15C
330
74
100
AcDbEntity
  8
Calque 1
100
AcDbLine
 10
116.477141
 20
137.840707
 30
0.0
 11
116.22952
 21
138.132679
 31
0.0
  0
LINE
  5
15D
330
74
100
AcDbEntity
  8
Calque 1
100
AcDbLine
 10
116.22952
 20
138.132679
 30
0.0
 11
115.634175
 21
138.508724
 31
0.0
  0
LINE
  5
15E
330
74
100
AcDbEntity
  8
Calque 1
100
AcDbLine
 10
115.634175
 20
138.508724
 30
0.0
 11
114.77162
 21
138.801094
 31
0.0
  0
LINE
  5
15F
330
74
100
AcDbEntity
  8
Calque 1
100
AcDbLine
 10
114.77162
 20
138.801094
 30
0.0
 11
113.834184
 21
138.544767
 31
0.0
  0
LINE
  5
160
330
74
100
AcDbEntity
  8
Calque 1
100
AcDbLine
 10
113.834184
 20
138.544767
 30
0.0
 11
112.740491
 21
137.866691
 31
0.0
  0
LINE
  5
161
330
74
100
AcDbEntity
  8
Calque 1
100
AcDbLine
 10
112.740491
 20
137.866691
 30
0.0
 11
112.572111
 21
137.499547
 31
0.0
  0
LINE
  5
162
330
74
100
AcDbEntity
  8
Calque 1
100
AcDbLine
 10
112.572111
 20
137.499547
 30
0.0
 11
112.633275
 21
137.086011
 31
0.0
  0
LINE
  5
163
330
74
100
AcDbEntity
  8
Calque 1
100
AcDbLine
 10
112.633275
 20
137.086011
 30
0.0
 11
112.844252
 21
136.792412
 31
0.0
  0
LINE
  5
164
330
74
100
AcDbEntity
  8
Calque 1
100
AcDbLine
 10
112.844252
 20
136.792412
 30
0.0
 11
113.244519
 21
136.702297
 31
0.0
  0
LINE
  5
165
330
74
100
AcDbEntity
  8
Calque 1
100
AcDbLine
 10
113.244519
 20
136.702297
 30
0.0
 11
115.033623
 21
137.142399
 31
0.0
  0
LINE
  5
166
330
74
100
AcDbEntity
  8
Calque 1
100
AcDbLine
 10
115.033623
 20
137.142399
 30
0.0
 11
115.033623
 21
137.142399
 31
0.0
  0
LINE
  5
167
330
74
100
AcDbEntity
  8
Calque 1
100
AcDbLine
 10
70.31825699999998
 20
137.528538
 30
0.0
 11
69.355194
 21
137.981194
 31
0.0
  0
LINE
  5
168
330
74
100
AcDbEntity
  8
Calque 1
100
AcDbLine
 10
69.355194
 20
137.981194
 30
0.0
 11
68.648021
 21
138.667853
 31
0.0
  0
LINE
  5
169
330
74
100
AcDbEntity
  8
Calque 1
100
AcDbLine
 10
68.648021
 20
138.667853
 30
0.0
 11
68.200562
 21
139.58321
 31
0.0
  0
LINE
  5
16A
330
74
100
AcDbEntity
  8
Calque 1
100
AcDbLine
 10
68.200562
 20
139.58321
 30
0.0
 11
68.01664200000001
 21
140.721959
 31
0.0
  0
LINE
  5
16B
330
74
100
AcDbEntity
  8
Calque 1
100
AcDbLine
 10
68.01664200000001
 20
140.721959
 30
0.0
 11
67.87553100000001
 21
143.449527
 31
0.0
  0
LINE
  5
16C
330
74
100
AcDbEntity
  8
Calque 1
100
AcDbLine
 10
67.87553100000001
 20
143.449527
 30
0.0
 11
67.793808
 21
144.719527
 31
0.0
  0
LINE
  5
16D
330
74
100
AcDbEntity
  8
Calque 1
100
AcDbLine
 10
67.793808
 20
144.719527
 30
0.0
 11
71.321586
 21
144.70659
 31
0.0
  0
LINE
  5
16E
330
74
100
AcDbEntity
  8
Calque 1
100
AcDbLine
 10
71.321586
 20
144.70659
 30
0.0
 11
73.375191
 21
144.678202
 31
0.0
  0
LINE
  5
16F
330
74
100
AcDbEntity
  8
Calque 1
100
AcDbLine
 10
73.375191
 20
144.678202
 30
0.0
 11
74.73559300000001
 21
144.547645
 31
0.0
  0
LINE
  5
170
330
74
100
AcDbEntity
  8
Calque 1
100
AcDbLine
 10
74.73559300000001
 20
144.547645
 30
0.0
 11
75.94121300000001
 21
144.218448
 31
0.0
  0
LINE
  5
171
330
74
100
AcDbEntity
  8
Calque 1
100
AcDbLine
 10
75.94121300000001
 20
144.218448
 30
0.0
 11
77.530475
 21
143.594143
 31
0.0
  0
LINE
  5
172
330
74
100
AcDbEntity
  8
Calque 1
100
AcDbLine
 10
77.530475
 20
143.594143
 30
0.0
 11
80.16466499999999
 21
142.676622
 31
0.0
  0
LINE
  5
173
330
74
100
AcDbEntity
  8
Calque 1
100
AcDbLine
 10
80.16466499999999
 20
142.676622
 30
0.0
 11
82.610475
 21
142.489765
 31
0.0
  0
LINE
  5
174
330
74
100
AcDbEntity
  8
Calque 1
100
AcDbLine
 10
82.610475
 20
142.489765
 30
0.0
 11
84.961449
 21
142.645307
 31
0.0
  0
LINE
  5
175
330
74
100
AcDbEntity
  8
Calque 1
100
AcDbLine
 10
84.961449
 20
142.645307
 30
0.0
 11
87.12602999999999
 21
143.424861
 31
0.0
  0
LINE
  5
176
330
74
100
AcDbEntity
  8
Calque 1
100
AcDbLine
 10
87.12602999999999
 20
143.424861
 30
0.0
 11
91.43371
 21
145.4720659999999
 31
0.0
  0
LINE
  5
177
330
74
100
AcDbEntity
  8
Calque 1
100
AcDbLine
 10
91.43371
 20
145.4720659999999
 30
0.0
 11
93.81738100000001
 21
147.010655
 31
0.0
  0
LINE
  5
178
330
74
100
AcDbEntity
  8
Calque 1
100
AcDbLine
 10
93.81738100000001
 20
147.010655
 30
0.0
 11
95.26159699999999
 21
148.543756
 31
0.0
  0
LINE
  5
179
330
74
100
AcDbEntity
  8
Calque 1
100
AcDbLine
 10
95.26159699999999
 20
148.543756
 30
0.0
 11
96.220534
 21
150.273786
 31
0.0
  0
LINE
  5
17A
330
74
100
AcDbEntity
  8
Calque 1
100
AcDbLine
 10
96.220534
 20
150.273786
 30
0.0
 11
96.603518
 21
151.969278
 31
0.0
  0
LINE
  5
17B
330
74
100
AcDbEntity
  8
Calque 1
100
AcDbLine
 10
96.603518
 20
151.969278
 30
0.0
 11
96.550691
 21
152.7317379999999
 31
0.0
  0
LINE
  5
17C
330
74
100
AcDbEntity
  8
Calque 1
100
AcDbLine
 10
96.550691
 20
152.7317379999999
 30
0.0
 11
96.319873
 21
153.398763
 31
0.0
  0
LINE
  5
17D
330
74
100
AcDbEntity
  8
Calque 1
100
AcDbLine
 10
96.319873
 20
153.398763
 30
0.0
 11
96.11473700000001
 21
153.854251
 31
0.0
  0
LINE
  5
17E
330
74
100
AcDbEntity
  8
Calque 1
100
AcDbLine
 10
96.11473700000001
 20
153.854251
 30
0.0
 11
96.065909
 21
154.258996
 31
0.0
  0
LINE
  5
17F
330
74
100
AcDbEntity
  8
Calque 1
100
AcDbLine
 10
96.065909
 20
154.258996
 30
0.0
 11
96.479995
 21
155.470094
 31
0.0
  0
LINE
  5
180
330
74
100
AcDbEntity
  8
Calque 1
100
AcDbLine
 10
96.479995
 20
155.470094
 30
0.0
 11
97.052534
 21
156.764413
 31
0.0
  0
LINE
  5
181
330
74
100
AcDbEntity
  8
Calque 1
100
AcDbLine
 10
97.052534
 20
156.764413
 30
0.0
 11
95.49293699999999
 21
158.22086
 31
0.0
  0
LINE
  5
182
330
74
100
AcDbEntity
  8
Calque 1
100
AcDbLine
 10
95.49293699999999
 20
158.22086
 30
0.0
 11
94.30358000000001
 21
159.482852
 31
0.0
  0
LINE
  5
183
330
74
100
AcDbEntity
  8
Calque 1
100
AcDbLine
 10
94.30358000000001
 20
159.482852
 30
0.0
 11
93.634131
 21
160.4717879999999
 31
0.0
  0
LINE
  5
184
330
74
100
AcDbEntity
  8
Calque 1
100
AcDbLine
 10
93.634131
 20
160.4717879999999
 30
0.0
 11
93.33609100000002
 21
161.992846
 31
0.0
  0
LINE
  5
185
330
74
100
AcDbEntity
  8
Calque 1
100
AcDbLine
 10
93.33609100000002
 20
161.992846
 30
0.0
 11
93.575774
 21
163.62492
 31
0.0
  0
LINE
  5
186
330
74
100
AcDbEntity
  8
Calque 1
100
AcDbLine
 10
93.575774
 20
163.62492
 30
0.0
 11
94.373131
 21
165.434211
 31
0.0
  0
LINE
  5
187
330
74
100
AcDbEntity
  8
Calque 1
100
AcDbLine
 10
94.373131
 20
165.434211
 30
0.0
 11
95.74811099999999
 21
167.486921
 31
0.0
  0
LINE
  5
188
330
74
100
AcDbEntity
  8
Calque 1
100
AcDbLine
 10
95.74811099999999
 20
167.486921
 30
0.0
 11
96.91527499999999
 21
169.314355
 31
0.0
  0
LINE
  5
189
330
74
100
AcDbEntity
  8
Calque 1
100
AcDbLine
 10
96.91527499999999
 20
169.314355
 30
0.0
 11
96.38154100000001
 21
168.957706
 31
0.0
  0
LINE
  5
18A
330
74
100
AcDbEntity
  8
Calque 1
100
AcDbLine
 10
96.38154100000001
 20
168.957706
 30
0.0
 11
95.394594
 21
167.825934
 31
0.0
  0
LINE
  5
18B
330
74
100
AcDbEntity
  8
Calque 1
100
AcDbLine
 10
95.394594
 20
167.825934
 30
0.0
 11
94.322396
 21
166.379719
 31
0.0
  0
LINE
  5
18C
330
74
100
AcDbEntity
  8
Calque 1
100
AcDbLine
 10
94.322396
 20
166.379719
 30
0.0
 11
93.53291199999999
 21
165.079741
 31
0.0
  0
LINE
  5
18D
330
74
100
AcDbEntity
  8
Calque 1
100
AcDbLine
 10
93.53291199999999
 20
165.079741
 30
0.0
 11
92.70509699999999
 21
162.971562
 31
0.0
  0
LINE
  5
18E
330
74
100
AcDbEntity
  8
Calque 1
100
AcDbLine
 10
92.70509699999999
 20
162.971562
 30
0.0
 11
92.53407199999999
 21
162.06018
 31
0.0
  0
LINE
  5
18F
330
74
100
AcDbEntity
  8
Calque 1
100
AcDbLine
 10
92.53407199999999
 20
162.06018
 30
0.0
 11
92.52778599999999
 21
161.213791
 31
0.0
  0
LINE
  5
190
330
74
100
AcDbEntity
  8
Calque 1
100
AcDbLine
 10
92.52778599999999
 20
161.213791
 30
0.0
 11
92.688353
 21
160.409785
 31
0.0
  0
LINE
  5
191
330
74
100
AcDbEntity
  8
Calque 1
100
AcDbLine
 10
92.688353
 20
160.409785
 30
0.0
 11
93.017886
 21
159.625552
 31
0.0
  0
LINE
  5
192
330
74
100
AcDbEntity
  8
Calque 1
100
AcDbLine
 10
93.017886
 20
159.625552
 30
0.0
 11
94.19230699999999
 21
158.025969
 31
0.0
  0
LINE
  5
193
330
74
100
AcDbEntity
  8
Calque 1
100
AcDbLine
 10
94.19230699999999
 20
158.025969
 30
0.0
 11
95.181333
 21
156.821541
 31
0.0
  0
LINE
  5
194
330
74
100
AcDbEntity
  8
Calque 1
100
AcDbLine
 10
95.181333
 20
156.821541
 30
0.0
 11
95.59269699999999
 21
156.077461
 31
0.0
  0
LINE
  5
195
330
74
100
AcDbEntity
  8
Calque 1
100
AcDbLine
 10
95.59269699999999
 20
156.077461
 30
0.0
 11
95.424196
 21
155.569266
 31
0.0
  0
LINE
  5
196
330
74
100
AcDbEntity
  8
Calque 1
100
AcDbLine
 10
95.424196
 20
155.569266
 30
0.0
 11
95.019077
 21
154.931964
 31
0.0
  0
LINE
  5
197
330
74
100
AcDbEntity
  8
Calque 1
100
AcDbLine
 10
95.019077
 20
154.931964
 30
0.0
 11
94.63572199999999
 21
154.512998
 31
0.0
  0
LINE
  5
198
330
74
100
AcDbEntity
  8
Calque 1
100
AcDbLine
 10
94.63572199999999
 20
154.512998
 30
0.0
 11
94.10335400000001
 21
154.314708
 31
0.0
  0
LINE
  5
199
330
74
100
AcDbEntity
  8
Calque 1
100
AcDbLine
 10
94.10335400000001
 20
154.314708
 30
0.0
 11
91.135592
 21
154.369145
 31
0.0
  0
LINE
  5
19A
330
74
100
AcDbEntity
  8
Calque 1
100
AcDbLine
 10
91.135592
 20
154.369145
 30
0.0
 11
89.18250699999999
 21
154.403785
 31
0.0
  0
LINE
  5
19B
330
74
100
AcDbEntity
  8
Calque 1
100
AcDbLine
 10
89.18250699999999
 20
154.403785
 30
0.0
 11
87.490205
 21
154.281465
 31
0.0
  0
LINE
  5
19C
330
74
100
AcDbEntity
  8
Calque 1
100
AcDbLine
 10
87.490205
 20
154.281465
 30
0.0
 11
86.01264999999999
 21
153.979406
 31
0.0
  0
LINE
  5
19D
330
74
100
AcDbEntity
  8
Calque 1
100
AcDbLine
 10
86.01264999999999
 20
153.979406
 30
0.0
 11
84.703805
 21
153.474831
 31
0.0
  0
LINE
  5
19E
330
74
100
AcDbEntity
  8
Calque 1
100
AcDbLine
 10
84.703805
 20
153.474831
 30
0.0
 11
83.517633
 21
152.744963
 31
0.0
  0
LINE
  5
19F
330
74
100
AcDbEntity
  8
Calque 1
100
AcDbLine
 10
83.517633
 20
152.744963
 30
0.0
 11
82.408096
 21
151.767025
 31
0.0
  0
LINE
  5
1A0
330
74
100
AcDbEntity
  8
Calque 1
100
AcDbLine
 10
82.408096
 20
151.767025
 30
0.0
 11
81.32915799999999
 21
150.518239
 31
0.0
  0
LINE
  5
1A1
330
74
100
AcDbEntity
  8
Calque 1
100
AcDbLine
 10
81.32915799999999
 20
150.518239
 30
0.0
 11
80.23478199999999
 21
148.975827
 31
0.0
  0
LINE
  5
1A2
330
74
100
AcDbEntity
  8
Calque 1
100
AcDbLine
 10
80.23478199999999
 20
148.975827
 30
0.0
 11
78.94592800000001
 21
147.185109
 31
0.0
  0
LINE
  5
1A3
330
74
100
AcDbEntity
  8
Calque 1
100
AcDbLine
 10
78.94592800000001
 20
147.185109
 30
0.0
 11
78.073408
 21
146.260237
 31
0.0
  0
LINE
  5
1A4
330
74
100
AcDbEntity
  8
Calque 1
100
AcDbLine
 10
78.073408
 20
146.260237
 30
0.0
 11
77.32551099999999
 21
146.065191
 31
0.0
  0
LINE
  5
1A5
330
74
100
AcDbEntity
  8
Calque 1
100
AcDbLine
 10
77.32551099999999
 20
146.065191
 30
0.0
 11
76.46489100000001
 21
146.245266
 31
0.0
  0
LINE
  5
1A6
330
74
100
AcDbEntity
  8
Calque 1
100
AcDbLine
 10
76.46489100000001
 20
146.245266
 30
0.0
 11
75.45146599999999
 21
146.816531
 31
0.0
  0
LINE
  5
1A7
330
74
100
AcDbEntity
  8
Calque 1
100
AcDbLine
 10
75.45146599999999
 20
146.816531
 30
0.0
 11
74.245151
 21
147.795058
 31
0.0
  0
LINE
  5
1A8
330
74
100
AcDbEntity
  8
Calque 1
100
AcDbLine
 10
74.245151
 20
147.795058
 30
0.0
 11
72.559239
 21
149.197183
 31
0.0
  0
LINE
  5
1A9
330
74
100
AcDbEntity
  8
Calque 1
100
AcDbLine
 10
72.559239
 20
149.197183
 30
0.0
 11
71.265406
 21
149.858048
 31
0.0
  0
LINE
  5
1AA
330
74
100
AcDbEntity
  8
Calque 1
100
AcDbLine
 10
71.265406
 20
149.858048
 30
0.0
 11
70.65573499999999
 21
149.939532
 31
0.0
  0
LINE
  5
1AB
330
74
100
AcDbEntity
  8
Calque 1
100
AcDbLine
 10
70.65573499999999
 20
149.939532
 30
0.0
 11
70.012344
 21
149.87053
 31
0.0
  0
LINE
  5
1AC
330
74
100
AcDbEntity
  8
Calque 1
100
AcDbLine
 10
70.012344
 20
149.87053
 30
0.0
 11
68.44874399999999
 21
149.327507
 31
0.0
  0
LINE
  5
1AD
330
74
100
AcDbEntity
  8
Calque 1
100
AcDbLine
 10
68.44874399999999
 20
149.327507
 30
0.0
 11
67.236814
 21
148.915319
 31
0.0
  0
LINE
  5
1AE
330
74
100
AcDbEntity
  8
Calque 1
100
AcDbLine
 10
67.236814
 20
148.915319
 30
0.0
 11
66.561978
 21
149.009028
 31
0.0
  0
LINE
  5
1AF
330
74
100
AcDbEntity
  8
Calque 1
100
AcDbLine
 10
66.561978
 20
149.009028
 30
0.0
 11
66.231541
 21
149.483639
 31
0.0
  0
LINE
  5
1B0
330
74
100
AcDbEntity
  8
Calque 1
100
AcDbLine
 10
66.231541
 20
149.483639
 30
0.0
 11
66.13334399999999
 21
150.261807
 31
0.0
  0
LINE
  5
1B1
330
74
100
AcDbEntity
  8
Calque 1
100
AcDbLine
 10
66.13334399999999
 20
150.261807
 30
0.0
 11
66.26523500000001
 21
151.231732
 31
0.0
  0
LINE
  5
1B2
330
74
100
AcDbEntity
  8
Calque 1
100
AcDbLine
 10
66.26523500000001
 20
151.231732
 30
0.0
 11
66.62505799999999
 21
152.281612
 31
0.0
  0
LINE
  5
1B3
330
74
100
AcDbEntity
  8
Calque 1
100
AcDbLine
 10
66.62505799999999
 20
152.281612
 30
0.0
 11
67.106391
 21
153.352586
 31
0.0
  0
LINE
  5
1B4
330
74
100
AcDbEntity
  8
Calque 1
100
AcDbLine
 10
67.106391
 20
153.352586
 30
0.0
 11
66.28215199999999
 21
154.116056
 31
0.0
  0
LINE
  5
1B5
330
74
100
AcDbEntity
  8
Calque 1
100
AcDbLine
 10
66.28215199999999
 20
154.116056
 30
0.0
 11
64.579751
 21
155.623134
 31
0.0
  0
LINE
  5
1B6
330
74
100
AcDbEntity
  8
Calque 1
100
AcDbLine
 10
64.579751
 20
155.623134
 30
0.0
 11
63.95954599999999
 21
156.232913
 31
0.0
  0
LINE
  5
1B7
330
74
100
AcDbEntity
  8
Calque 1
100
AcDbLine
 10
63.95954599999999
 20
156.232913
 30
0.0
 11
63.70158599999999
 21
156.654764
 31
0.0
  0
LINE
  5
1B8
330
74
100
AcDbEntity
  8
Calque 1
100
AcDbLine
 10
63.70158599999999
 20
156.654764
 30
0.0
 11
64.66775099999999
 21
158.099214
 31
0.0
  0
LINE
  5
1B9
330
74
100
AcDbEntity
  8
Calque 1
100
AcDbLine
 10
64.66775099999999
 20
158.099214
 30
0.0
 11
65.406499
 21
159.105517
 31
0.0
  0
LINE
  5
1BA
330
74
100
AcDbEntity
  8
Calque 1
100
AcDbLine
 10
65.406499
 20
159.105517
 30
0.0
 11
65.90757299999999
 21
160.207365
 31
0.0
  0
LINE
  5
1BB
330
74
100
AcDbEntity
  8
Calque 1
100
AcDbLine
 10
65.90757299999999
 20
160.207365
 30
0.0
 11
66.283525
 21
161.743272
 31
0.0
  0
LINE
  5
1BC
330
74
100
AcDbEntity
  8
Calque 1
100
AcDbLine
 10
66.283525
 20
161.743272
 30
0.0
 11
66.64690799999999
 21
164.051749
 31
0.0
  0
LINE
  5
1BD
330
74
100
AcDbEntity
  8
Calque 1
100
AcDbLine
 10
66.64690799999999
 20
164.051749
 30
0.0
 11
67.025993
 21
166.39202
 31
0.0
  0
LINE
  5
1BE
330
74
100
AcDbEntity
  8
Calque 1
100
AcDbLine
 10
67.025993
 20
166.39202
 30
0.0
 11
67.45059999999999
 21
168.206293
 31
0.0
  0
LINE
  5
1BF
330
74
100
AcDbEntity
  8
Calque 1
100
AcDbLine
 10
67.45059999999999
 20
168.206293
 30
0.0
 11
67.97675500000001
 21
169.688839
 31
0.0
  0
LINE
  5
1C0
330
74
100
AcDbEntity
  8
Calque 1
100
AcDbLine
 10
67.97675500000001
 20
169.688839
 30
0.0
 11
68.660484
 21
171.033932
 31
0.0
  0
LINE
  5
1C1
330
74
100
AcDbEntity
  8
Calque 1
100
AcDbLine
 10
68.660484
 20
171.033932
 30
0.0
 11
69.6405
 21
172.391999
 31
0.0
  0
LINE
  5
1C2
330
74
100
AcDbEntity
  8
Calque 1
100
AcDbLine
 10
69.6405
 20
172.391999
 30
0.0
 11
71.100673
 21
174.083796
 31
0.0
  0
LINE
  5
1C3
330
74
100
AcDbEntity
  8
Calque 1
100
AcDbLine
 10
71.100673
 20
174.083796
 30
0.0
 11
72.66047399999999
 21
175.693343
 31
0.0
  0
LINE
  5
1C4
330
74
100
AcDbEntity
  8
Calque 1
100
AcDbLine
 10
72.66047399999999
 20
175.693343
 30
0.0
 11
73.93937199999999
 21
176.804654
 31
0.0
  0
LINE
  5
1C5
330
74
100
AcDbEntity
  8
Calque 1
100
AcDbLine
 10
73.93937199999999
 20
176.804654
 30
0.0
 11
74.722716
 21
177.364928
 31
0.0
  0
LINE
  5
1C6
330
74
100
AcDbEntity
  8
Calque 1
100
AcDbLine
 10
74.722716
 20
177.364928
 30
0.0
 11
74.54293199999999
 21
176.240622
 31
0.0
  0
LINE
  5
1C7
330
74
100
AcDbEntity
  8
Calque 1
100
AcDbLine
 10
74.54293199999999
 20
176.240622
 30
0.0
 11
74.500414
 21
175.092352
 31
0.0
  0
LINE
  5
1C8
330
74
100
AcDbEntity
  8
Calque 1
100
AcDbLine
 10
74.500414
 20
175.092352
 30
0.0
 11
74.727554
 21
174.053426
 31
0.0
  0
LINE
  5
1C9
330
74
100
AcDbEntity
  8
Calque 1
100
AcDbLine
 10
74.727554
 20
174.053426
 30
0.0
 11
75.19296700000001
 21
173.2091889999999
 31
0.0
  0
LINE
  5
1CA
330
74
100
AcDbEntity
  8
Calque 1
100
AcDbLine
 10
75.19296700000001
 20
173.2091889999999
 30
0.0
 11
75.86526500000001
 21
172.644984
 31
0.0
  0
LINE
  5
1CB
330
74
100
AcDbEntity
  8
Calque 1
100
AcDbLine
 10
75.86526500000001
 20
172.644984
 30
0.0
 11
76.764057
 21
172.361761
 31
0.0
  0
LINE
  5
1CC
330
74
100
AcDbEntity
  8
Calque 1
100
AcDbLine
 10
76.764057
 20
172.361761
 30
0.0
 11
77.88786999999999
 21
172.537463
 31
0.0
  0
LINE
  5
1CD
330
74
100
AcDbEntity
  8
Calque 1
100
AcDbLine
 10
77.88786999999999
 20
172.537463
 30
0.0
 11
78.637134
 21
172.849537
 31
0.0
  0
LINE
  5
1CE
330
74
100
AcDbEntity
  8
Calque 1
100
AcDbLine
 10
78.637134
 20
172.849537
 30
0.0
 11
79.55261999999999
 21
173.50797
 31
0.0
  0
LINE
  5
1CF
330
74
100
AcDbEntity
  8
Calque 1
100
AcDbLine
 10
79.55261999999999
 20
173.50797
 30
0.0
 11
82.72863499999999
 21
176.568765
 31
0.0
  0
LINE
  5
1D0
330
74
100
AcDbEntity
  8
Calque 1
100
AcDbLine
 10
82.72863499999999
 20
176.568765
 30
0.0
 11
86.374574
 21
180.279527
 31
0.0
  0
LINE
  5
1D1
330
74
100
AcDbEntity
  8
Calque 1
100
AcDbLine
 10
86.374574
 20
180.279527
 30
0.0
 11
86.55436400000001
 21
179.104506
 31
0.0
  0
LINE
  5
1D2
330
74
100
AcDbEntity
  8
Calque 1
100
AcDbLine
 10
86.55436400000001
 20
179.104506
 30
0.0
 11
86.76495
 21
178.179824
 31
0.0
  0
LINE
  5
1D3
330
74
100
AcDbEntity
  8
Calque 1
100
AcDbLine
 10
86.76495
 20
178.179824
 30
0.0
 11
87.10733299999999
 21
177.531726
 31
0.0
  0
LINE
  5
1D4
330
74
100
AcDbEntity
  8
Calque 1
100
AcDbLine
 10
87.10733299999999
 20
177.531726
 30
0.0
 11
87.64810899999998
 21
177.077056
 31
0.0
  0
LINE
  5
1D5
330
74
100
AcDbEntity
  8
Calque 1
100
AcDbLine
 10
87.64810899999998
 20
177.077056
 30
0.0
 11
88.45387399999999
 21
176.732659
 31
0.0
  0
LINE
  5
1D6
330
74
100
AcDbEntity
  8
Calque 1
100
AcDbLine
 10
88.45387399999999
 20
176.732659
 30
0.0
 11
89.690063
 21
176.527114
 31
0.0
  0
LINE
  5
1D7
330
74
100
AcDbEntity
  8
Calque 1
100
AcDbLine
 10
89.690063
 20
176.527114
 30
0.0
 11
91.36530400000001
 21
176.789546
 31
0.0
  0
LINE
  5
1D8
330
74
100
AcDbEntity
  8
Calque 1
100
AcDbLine
 10
91.36530400000001
 20
176.789546
 30
0.0
 11
94.006626
 21
177.658033
 31
0.0
  0
LINE
  5
1D9
330
74
100
AcDbEntity
  8
Calque 1
100
AcDbLine
 10
94.006626
 20
177.658033
 30
0.0
 11
98.14105600000001
 21
179.270653
 31
0.0
  0
LINE
  5
1DA
330
74
100
AcDbEntity
  8
Calque 1
100
AcDbLine
 10
98.14105600000001
 20
179.270653
 30
0.0
 11
104.751947
 21
181.723371
 31
0.0
  0
LINE
  5
1DB
330
74
100
AcDbEntity
  8
Calque 1
100
AcDbLine
 10
104.751947
 20
181.723371
 30
0.0
 11
110.336888
 21
183.351492
 31
0.0
  0
LINE
  5
1DC
330
74
100
AcDbEntity
  8
Calque 1
100
AcDbLine
 10
110.336888
 20
183.351492
 30
0.0
 11
112.768534
 21
183.86206
 31
0.0
  0
LINE
  5
1DD
330
74
100
AcDbEntity
  8
Calque 1
100
AcDbLine
 10
112.768534
 20
183.86206
 30
0.0
 11
114.972379
 21
184.173355
 31
0.0
  0
LINE
  5
1DE
330
74
100
AcDbEntity
  8
Calque 1
100
AcDbLine
 10
114.972379
 20
184.173355
 30
0.0
 11
116.957987
 21
184.287671
 31
0.0
  0
LINE
  5
1DF
330
74
100
AcDbEntity
  8
Calque 1
100
AcDbLine
 10
116.957987
 20
184.287671
 30
0.0
 11
118.734919
 21
184.207298
 31
0.0
  0
LINE
  5
1E0
330
74
100
AcDbEntity
  8
Calque 1
100
AcDbLine
 10
118.734919
 20
184.207298
 30
0.0
 11
120.426803
 21
183.986585
 31
0.0
  0
LINE
  5
1E1
330
74
100
AcDbEntity
  8
Calque 1
100
AcDbLine
 10
120.426803
 20
183.986585
 30
0.0
 11
121.134362
 21
183.774213
 31
0.0
  0
LINE
  5
1E2
330
74
100
AcDbEntity
  8
Calque 1
100
AcDbLine
 10
121.134362
 20
183.774213
 30
0.0
 11
121.125266
 21
183.665118
 31
0.0
  0
LINE
  5
1E3
330
74
100
AcDbEntity
  8
Calque 1
100
AcDbLine
 10
121.125266
 20
183.665118
 30
0.0
 11
120.877584
 21
183.550862
 31
0.0
  0
LINE
  5
1E4
330
74
100
AcDbEntity
  8
Calque 1
100
AcDbLine
 10
120.877584
 20
183.550862
 30
0.0
 11
119.676458
 21
183.297213
 31
0.0
  0
LINE
  5
1E5
330
74
100
AcDbEntity
  8
Calque 1
100
AcDbLine
 10
119.676458
 20
183.297213
 30
0.0
 11
117.027694
 21
182.760245
 31
0.0
  0
LINE
  5
1E6
330
74
100
AcDbEntity
  8
Calque 1
100
AcDbLine
 10
117.027694
 20
182.760245
 30
0.0
 11
114.516471
 21
182.056589
 31
0.0
  0
LINE
  5
1E7
330
74
100
AcDbEntity
  8
Calque 1
100
AcDbLine
 10
114.516471
 20
182.056589
 30
0.0
 11
112.184012
 21
181.207554
 31
0.0
  0
LINE
  5
1E8
330
74
100
AcDbEntity
  8
Calque 1
100
AcDbLine
 10
112.184012
 20
181.207554
 30
0.0
 11
110.071539
 21
180.23445
 31
0.0
  0
LINE
  5
1E9
330
74
100
AcDbEntity
  8
Calque 1
100
AcDbLine
 10
110.071539
 20
180.23445
 30
0.0
 11
108.220275
 21
179.158586
 31
0.0
  0
LINE
  5
1EA
330
74
100
AcDbEntity
  8
Calque 1
100
AcDbLine
 10
108.220275
 20
179.158586
 30
0.0
 11
106.671444
 21
178.001271
 31
0.0
  0
LINE
  5
1EB
330
74
100
AcDbEntity
  8
Calque 1
100
AcDbLine
 10
106.671444
 20
178.001271
 30
0.0
 11
105.466267
 21
176.783814
 31
0.0
  0
LINE
  5
1EC
330
74
100
AcDbEntity
  8
Calque 1
100
AcDbLine
 10
105.466267
 20
176.783814
 30
0.0
 11
104.645968
 21
175.527525
 31
0.0
  0
LINE
  5
1ED
330
74
100
AcDbEntity
  8
Calque 1
100
AcDbLine
 10
104.645968
 20
175.527525
 30
0.0
 11
104.10628
 21
173.895063
 31
0.0
  0
LINE
  5
1EE
330
74
100
AcDbEntity
  8
Calque 1
100
AcDbLine
 10
104.10628
 20
173.895063
 30
0.0
 11
104.133639
 21
172.451175
 31
0.0
  0
LINE
  5
1EF
330
74
100
AcDbEntity
  8
Calque 1
100
AcDbLine
 10
104.133639
 20
172.451175
 30
0.0
 11
104.356124
 21
171.816603
 31
0.0
  0
LINE
  5
1F0
330
74
100
AcDbEntity
  8
Calque 1
100
AcDbLine
 10
104.356124
 20
171.816603
 30
0.0
 11
104.715766
 21
171.249162
 31
0.0
  0
LINE
  5
1F1
330
74
100
AcDbEntity
  8
Calque 1
100
AcDbLine
 10
104.715766
 20
171.249162
 30
0.0
 11
105.840383
 21
170.342327
 31
0.0
  0
LINE
  5
1F2
330
74
100
AcDbEntity
  8
Calque 1
100
AcDbLine
 10
105.840383
 20
170.342327
 30
0.0
 11
107.183289
 21
169.995247
 31
0.0
  0
LINE
  5
1F3
330
74
100
AcDbEntity
  8
Calque 1
100
AcDbLine
 10
107.183289
 20
169.995247
 30
0.0
 11
109.351863
 21
169.883622
 31
0.0
  0
LINE
  5
1F4
330
74
100
AcDbEntity
  8
Calque 1
100
AcDbLine
 10
109.351863
 20
169.883622
 30
0.0
 11
112.174011
 21
170.007044
 31
0.0
  0
LINE
  5
1F5
330
74
100
AcDbEntity
  8
Calque 1
100
AcDbLine
 10
112.174011
 20
170.007044
 30
0.0
 11
115.47764
 21
170.365108
 31
0.0
  0
LINE
  5
1F6
330
74
100
AcDbEntity
  8
Calque 1
100
AcDbLine
 10
115.47764
 20
170.365108
 30
0.0
 11
118.234893
 21
170.655981
 31
0.0
  0
LINE
  5
1F7
330
74
100
AcDbEntity
  8
Calque 1
100
AcDbLine
 10
118.234893
 20
170.655981
 30
0.0
 11
120.86006
 21
170.787555
 31
0.0
  0
LINE
  5
1F8
330
74
100
AcDbEntity
  8
Calque 1
100
AcDbLine
 10
120.86006
 20
170.787555
 30
0.0
 11
122.98417
 21
170.752343
 31
0.0
  0
LINE
  5
1F9
330
74
100
AcDbEntity
  8
Calque 1
100
AcDbLine
 10
122.98417
 20
170.752343
 30
0.0
 11
124.238252
 21
170.54286
 31
0.0
  0
LINE
  5
1FA
330
74
100
AcDbEntity
  8
Calque 1
100
AcDbLine
 10
124.238252
 20
170.54286
 30
0.0
 11
124.335098
 21
170.435412
 31
0.0
  0
LINE
  5
1FB
330
74
100
AcDbEntity
  8
Calque 1
100
AcDbLine
 10
124.335098
 20
170.435412
 30
0.0
 11
124.060082
 21
170.355912
 31
0.0
  0
LINE
  5
1FC
330
74
100
AcDbEntity
  8
Calque 1
100
AcDbLine
 10
124.060082
 20
170.355912
 30
0.0
 11
122.392547
 21
170.280475
 31
0.0
  0
LINE
  5
1FD
330
74
100
AcDbEntity
  8
Calque 1
100
AcDbLine
 10
122.392547
 20
170.280475
 30
0.0
 11
120.196269
 21
170.140865
 31
0.0
  0
LINE
  5
1FE
330
74
100
AcDbEntity
  8
Calque 1
100
AcDbLine
 10
120.196269
 20
170.140865
 30
0.0
 11
118.300325
 21
169.833063
 31
0.0
  0
LINE
  5
1FF
330
74
100
AcDbEntity
  8
Calque 1
100
AcDbLine
 10
118.300325
 20
169.833063
 30
0.0
 11
116.272694
 21
169.173072
 31
0.0
  0
LINE
  5
200
330
74
100
AcDbEntity
  8
Calque 1
100
AcDbLine
 10
116.272694
 20
169.173072
 30
0.0
 11
114.394249
 21
168.288756
 31
0.0
  0
LINE
  5
201
330
74
100
AcDbEntity
  8
Calque 1
100
AcDbLine
 10
114.394249
 20
168.288756
 30
0.0
 11
112.722172
 21
167.235006
 31
0.0
  0
LINE
  5
202
330
74
100
AcDbEntity
  8
Calque 1
100
AcDbLine
 10
112.722172
 20
167.235006
 30
0.0
 11
111.313647
 21
166.066713
 31
0.0
  0
LINE
  5
203
330
74
100
AcDbEntity
  8
Calque 1
100
AcDbLine
 10
111.313647
 20
166.066713
 30
0.0
 11
110.225856
 21
164.838767
 31
0.0
  0
LINE
  5
204
330
74
100
AcDbEntity
  8
Calque 1
100
AcDbLine
 10
110.225856
 20
164.838767
 30
0.0
 11
109.515984
 21
163.60606
 31
0.0
  0
LINE
  5
205
330
74
100
AcDbEntity
  8
Calque 1
100
AcDbLine
 10
109.515984
 20
163.60606
 30
0.0
 11
109.241214
 21
162.423482
 31
0.0
  0
LINE
  5
206
330
74
100
AcDbEntity
  8
Calque 1
100
AcDbLine
 10
109.241214
 20
162.423482
 30
0.0
 11
109.458729
 21
161.345924
 31
0.0
  0
LINE
  5
207
330
74
100
AcDbEntity
  8
Calque 1
100
AcDbLine
 10
109.458729
 20
161.345924
 30
0.0
 11
109.812789
 21
160.78104
 31
0.0
  0
LINE
  5
208
330
74
100
AcDbEntity
  8
Calque 1
100
AcDbLine
 10
109.812789
 20
160.78104
 30
0.0
 11
110.267726
 21
160.35808
 31
0.0
  0
LINE
  5
209
330
74
100
AcDbEntity
  8
Calque 1
100
AcDbLine
 10
110.267726
 20
160.35808
 30
0.0
 11
110.827485
 21
160.076664
 31
0.0
  0
LINE
  5
20A
330
74
100
AcDbEntity
  8
Calque 1
100
AcDbLine
 10
110.827485
 20
160.076664
 30
0.0
 11
111.496009
 21
159.936412
 31
0.0
  0
LINE
  5
20B
330
74
100
AcDbEntity
  8
Calque 1
100
AcDbLine
 10
111.496009
 20
159.936412
 30
0.0
 11
113.175136
 21
160.077878
 31
0.0
  0
LINE
  5
20C
330
74
100
AcDbEntity
  8
Calque 1
100
AcDbLine
 10
113.175136
 20
160.077878
 30
0.0
 11
115.3366639999999
 21
160.779436
 31
0.0
  0
LINE
  5
20D
330
74
100
AcDbEntity
  8
Calque 1
100
AcDbLine
 10
115.3366639999999
 20
160.779436
 30
0.0
 11
117.041586
 21
161.311425
 31
0.0
  0
LINE
  5
20E
330
74
100
AcDbEntity
  8
Calque 1
100
AcDbLine
 10
117.041586
 20
161.311425
 30
0.0
 11
116.889703
 21
161.039923
 31
0.0
  0
LINE
  5
20F
330
74
100
AcDbEntity
  8
Calque 1
100
AcDbLine
 10
116.889703
 20
161.039923
 30
0.0
 11
116.44777
 21
160.675933
 31
0.0
  0
LINE
  5
210
330
74
100
AcDbEntity
  8
Calque 1
100
AcDbLine
 10
116.44777
 20
160.675933
 30
0.0
 11
114.77604
 21
159.71246
 31
0.0
  0
LINE
  5
211
330
74
100
AcDbEntity
  8
Calque 1
100
AcDbLine
 10
114.77604
 20
159.71246
 30
0.0
 11
112.190972
 21
158.504938
 31
0.0
  0
LINE
  5
212
330
74
100
AcDbEntity
  8
Calque 1
100
AcDbLine
 10
112.190972
 20
158.504938
 30
0.0
 11
108.857141
 21
157.137305
 31
0.0
  0
LINE
  5
213
330
74
100
AcDbEntity
  8
Calque 1
100
AcDbLine
 10
108.857141
 20
157.137305
 30
0.0
 11
103.320582
 21
154.786726
 31
0.0
  0
LINE
  5
214
330
74
100
AcDbEntity
  8
Calque 1
100
AcDbLine
 10
103.320582
 20
154.786726
 30
0.0
 11
101.116813
 21
153.426865
 31
0.0
  0
LINE
  5
215
330
74
100
AcDbEntity
  8
Calque 1
100
AcDbLine
 10
101.116813
 20
153.426865
 30
0.0
 11
99.48827299999999
 21
151.901284
 31
0.0
  0
LINE
  5
216
330
74
100
AcDbEntity
  8
Calque 1
100
AcDbLine
 10
99.48827299999999
 20
151.901284
 30
0.0
 11
98.478916
 21
150.262706
 31
0.0
  0
LINE
  5
217
330
74
100
AcDbEntity
  8
Calque 1
100
AcDbLine
 10
98.478916
 20
150.262706
 30
0.0
 11
98.220167
 21
149.417519
 31
0.0
  0
LINE
  5
218
330
74
100
AcDbEntity
  8
Calque 1
100
AcDbLine
 10
98.220167
 20
149.417519
 30
0.0
 11
98.13269699999999
 21
148.563853
 31
0.0
  0
LINE
  5
219
330
74
100
AcDbEntity
  8
Calque 1
100
AcDbLine
 10
98.13269699999999
 20
148.563853
 30
0.0
 11
98.181547
 21
147.587308
 31
0.0
  0
LINE
  5
21A
330
74
100
AcDbEntity
  8
Calque 1
100
AcDbLine
 10
98.181547
 20
147.587308
 30
0.0
 11
98.37179300000002
 21
146.954886
 31
0.0
  0
LINE
  5
21B
330
74
100
AcDbEntity
  8
Calque 1
100
AcDbLine
 10
98.37179300000002
 20
146.954886
 30
0.0
 11
98.76897599999999
 21
146.550957
 31
0.0
  0
LINE
  5
21C
330
74
100
AcDbEntity
  8
Calque 1
100
AcDbLine
 10
98.76897599999999
 20
146.550957
 30
0.0
 11
99.438641
 21
146.259887
 31
0.0
  0
LINE
  5
21D
330
74
100
AcDbEntity
  8
Calque 1
100
AcDbLine
 10
99.438641
 20
146.259887
 30
0.0
 11
100.448583
 21
146.115489
 31
0.0
  0
LINE
  5
21E
330
74
100
AcDbEntity
  8
Calque 1
100
AcDbLine
 10
100.448583
 20
146.115489
 30
0.0
 11
101.704878
 21
146.24474
 31
0.0
  0
LINE
  5
21F
330
74
100
AcDbEntity
  8
Calque 1
100
AcDbLine
 10
101.704878
 20
146.24474
 30
0.0
 11
103.141903
 21
146.634982
 31
0.0
  0
LINE
  5
220
330
74
100
AcDbEntity
  8
Calque 1
100
AcDbLine
 10
103.141903
 20
146.634982
 30
0.0
 11
104.694039
 21
147.273559
 31
0.0
  0
LINE
  5
221
330
74
100
AcDbEntity
  8
Calque 1
100
AcDbLine
 10
104.694039
 20
147.273559
 30
0.0
 11
105.577783
 21
147.641189
 31
0.0
  0
LINE
  5
222
330
74
100
AcDbEntity
  8
Calque 1
100
AcDbLine
 10
105.577783
 20
147.641189
 30
0.0
 11
105.758352
 21
147.643115
 31
0.0
  0
LINE
  5
223
330
74
100
AcDbEntity
  8
Calque 1
100
AcDbLine
 10
105.758352
 20
147.643115
 30
0.0
 11
105.756522
 21
147.505511
 31
0.0
  0
LINE
  5
224
330
74
100
AcDbEntity
  8
Calque 1
100
AcDbLine
 10
105.756522
 20
147.505511
 30
0.0
 11
103.802265
 21
145.285704
 31
0.0
  0
LINE
  5
225
330
74
100
AcDbEntity
  8
Calque 1
100
AcDbLine
 10
103.802265
 20
145.285704
 30
0.0
 11
102.106596
 21
143.697877
 31
0.0
  0
LINE
  5
226
330
74
100
AcDbEntity
  8
Calque 1
100
AcDbLine
 10
102.106596
 20
143.697877
 30
0.0
 11
101.587791
 21
143.528636
 31
0.0
  0
LINE
  5
227
330
74
100
AcDbEntity
  8
Calque 1
100
AcDbLine
 10
101.587791
 20
143.528636
 30
0.0
 11
100.983971
 21
143.59304
 31
0.0
  0
LINE
  5
228
330
74
100
AcDbEntity
  8
Calque 1
100
AcDbLine
 10
100.983971
 20
143.59304
 30
0.0
 11
99.97500100000001
 21
143.782323
 31
0.0
  0
LINE
  5
229
330
74
100
AcDbEntity
  8
Calque 1
100
AcDbLine
 10
99.97500100000001
 20
143.782323
 30
0.0
 11
100.535514
 21
143.153637
 31
0.0
  0
LINE
  5
22A
330
74
100
AcDbEntity
  8
Calque 1
100
AcDbLine
 10
100.535514
 20
143.153637
 30
0.0
 11
101.09603
 21
142.524947
 31
0.0
  0
LINE
  5
22B
330
74
100
AcDbEntity
  8
Calque 1
100
AcDbLine
 10
101.09603
 20
142.524947
 30
0.0
 11
98.487199
 21
142.669484
 31
0.0
  0
LINE
  5
22C
330
74
100
AcDbEntity
  8
Calque 1
100
AcDbLine
 10
98.487199
 20
142.669484
 30
0.0
 11
95.87836800000001
 21
142.814022
 31
0.0
  0
LINE
  5
22D
330
74
100
AcDbEntity
  8
Calque 1
100
AcDbLine
 10
95.87836800000001
 20
142.814022
 30
0.0
 11
96.61384699999999
 21
141.462699
 31
0.0
  0
LINE
  5
22E
330
74
100
AcDbEntity
  8
Calque 1
100
AcDbLine
 10
96.61384699999999
 20
141.462699
 30
0.0
 11
97.07690799999999
 21
140.417116
 31
0.0
  0
LINE
  5
22F
330
74
100
AcDbEntity
  8
Calque 1
100
AcDbLine
 10
97.07690799999999
 20
140.417116
 30
0.0
 11
97.15741899999999
 21
139.800865
 31
0.0
  0
LINE
  5
230
330
74
100
AcDbEntity
  8
Calque 1
100
AcDbLine
 10
97.15741899999999
 20
139.800865
 30
0.0
 11
95.785215
 21
138.876127
 31
0.0
  0
LINE
  5
231
330
74
100
AcDbEntity
  8
Calque 1
100
AcDbLine
 10
95.785215
 20
138.876127
 30
0.0
 11
94.27739800000001
 21
138.367918
 31
0.0
  0
LINE
  5
232
330
74
100
AcDbEntity
  8
Calque 1
100
AcDbLine
 10
94.27739800000001
 20
138.367918
 30
0.0
 11
91.893221
 21
138.143385
 31
0.0
  0
LINE
  5
233
330
74
100
AcDbEntity
  8
Calque 1
100
AcDbLine
 10
91.893221
 20
138.143385
 30
0.0
 11
90.32790699999999
 21
138.108899
 31
0.0
  0
LINE
  5
234
330
74
100
AcDbEntity
  8
Calque 1
100
AcDbLine
 10
90.32790699999999
 20
138.108899
 30
0.0
 11
89.03314499999998
 21
138.207034
 31
0.0
  0
LINE
  5
235
330
74
100
AcDbEntity
  8
Calque 1
100
AcDbLine
 10
89.03314499999998
 20
138.207034
 30
0.0
 11
85.543221
 21
139.043987
 31
0.0
  0
LINE
  5
236
330
74
100
AcDbEntity
  8
Calque 1
100
AcDbLine
 10
85.543221
 20
139.043987
 30
0.0
 11
82.763223
 21
139.725351
 31
0.0
  0
LINE
  5
237
330
74
100
AcDbEntity
  8
Calque 1
100
AcDbLine
 10
82.763223
 20
139.725351
 30
0.0
 11
80.569921
 21
140.036393
 31
0.0
  0
LINE
  5
238
330
74
100
AcDbEntity
  8
Calque 1
100
AcDbLine
 10
80.569921
 20
140.036393
 30
0.0
 11
78.88399599999999
 21
139.982369
 31
0.0
  0
LINE
  5
239
330
74
100
AcDbEntity
  8
Calque 1
100
AcDbLine
 10
78.88399599999999
 20
139.982369
 30
0.0
 11
77.62612800000001
 21
139.568534
 31
0.0
  0
LINE
  5
23A
330
74
100
AcDbEntity
  8
Calque 1
100
AcDbLine
 10
77.62612800000001
 20
139.568534
 30
0.0
 11
74.377751
 21
137.884455
 31
0.0
  0
LINE
  5
23B
330
74
100
AcDbEntity
  8
Calque 1
100
AcDbLine
 10
74.377751
 20
137.884455
 30
0.0
 11
73.43166100000001
 21
137.55587
 31
0.0
  0
LINE
  5
23C
330
74
100
AcDbEntity
  8
Calque 1
100
AcDbLine
 10
73.43166100000001
 20
137.55587
 30
0.0
 11
72.55972599999999
 21
137.4084639999999
 31
0.0
  0
LINE
  5
23D
330
74
100
AcDbEntity
  8
Calque 1
100
AcDbLine
 10
72.55972599999999
 20
137.4084639999999
 30
0.0
 11
71.33235299999999
 21
137.384294
 31
0.0
  0
LINE
  5
23E
330
74
100
AcDbEntity
  8
Calque 1
100
AcDbLine
 10
71.33235299999999
 20
137.384294
 30
0.0
 11
70.31825699999998
 21
137.528538
 31
0.0
  0
LINE
  5
23F
330
74
100
AcDbEntity
  8
Calque 1
100
AcDbLine
 10
70.31825699999998
 20
137.528538
 30
0.0
 11
70.31825699999998
 21
137.528538
 31
0.0
  0
LINE
  5
240
330
74
100
AcDbEntity
  8
Calque 1
100
AcDbLine
 10
72.944363
 20
150.4007419999999
 30
0.0
 11
73.35701
 21
150.686533
 31
0.0
  0
LINE
  5
241
330
74
100
AcDbEntity
  8
Calque 1
100
AcDbLine
 10
73.35701
 20
150.686533
 30
0.0
 11
73.576717
 21
151.167591
 31
0.0
  0
LINE
  5
242
330
74
100
AcDbEntity
  8
Calque 1
100
AcDbLine
 10
73.576717
 20
151.167591
 30
0.0
 11
73.56844200000001
 21
151.679365
 31
0.0
  0
LINE
  5
243
330
74
100
AcDbEntity
  8
Calque 1
100
AcDbLine
 10
73.56844200000001
 20
151.679365
 30
0.0
 11
73.297141
 21
152.057305
 31
0.0
  0
LINE
  5
244
330
74
100
AcDbEntity
  8
Calque 1
100
AcDbLine
 10
73.297141
 20
152.057305
 30
0.0
 11
73.09782199999999
 21
152.449913
 31
0.0
  0
LINE
  5
245
330
74
100
AcDbEntity
  8
Calque 1
100
AcDbLine
 10
73.09782199999999
 20
152.449913
 30
0.0
 11
73.01491899999999
 21
153.148909
 31
0.0
  0
LINE
  5
246
330
74
100
AcDbEntity
  8
Calque 1
100
AcDbLine
 10
73.01491899999999
 20
153.148909
 30
0.0
 11
72.941544
 21
153.895565
 31
0.0
  0
LINE
  5
247
330
74
100
AcDbEntity
  8
Calque 1
100
AcDbLine
 10
72.941544
 20
153.895565
 30
0.0
 11
72.73886899999999
 21
154.454405
 31
0.0
  0
LINE
  5
248
330
74
100
AcDbEntity
  8
Calque 1
100
AcDbLine
 10
72.73886899999999
 20
154.454405
 30
0.0
 11
72.433065
 21
154.820987
 31
0.0
  0
LINE
  5
249
330
74
100
AcDbEntity
  8
Calque 1
100
AcDbLine
 10
72.433065
 20
154.820987
 30
0.0
 11
72.050306
 21
154.990866
 31
0.0
  0
LINE
  5
24A
330
74
100
AcDbEntity
  8
Calque 1
100
AcDbLine
 10
72.050306
 20
154.990866
 30
0.0
 11
71.616765
 21
154.959597
 31
0.0
  0
LINE
  5
24B
330
74
100
AcDbEntity
  8
Calque 1
100
AcDbLine
 10
71.616765
 20
154.959597
 30
0.0
 11
71.158614
 21
154.722736
 31
0.0
  0
LINE
  5
24C
330
74
100
AcDbEntity
  8
Calque 1
100
AcDbLine
 10
71.158614
 20
154.722736
 30
0.0
 11
70.702027
 21
154.27584
 31
0.0
  0
LINE
  5
24D
330
74
100
AcDbEntity
  8
Calque 1
100
AcDbLine
 10
70.702027
 20
154.27584
 30
0.0
 11
70.27317499999999
 21
153.614463
 31
0.0
  0
LINE
  5
24E
330
74
100
AcDbEntity
  8
Calque 1
100
AcDbLine
 10
70.27317499999999
 20
153.614463
 30
0.0
 11
69.680784
 21
152.653265
 31
0.0
  0
LINE
  5
24F
330
74
100
AcDbEntity
  8
Calque 1
100
AcDbLine
 10
69.680784
 20
152.653265
 30
0.0
 11
69.193692
 21
152.118773
 31
0.0
  0
LINE
  5
250
330
74
100
AcDbEntity
  8
Calque 1
100
AcDbLine
 10
69.193692
 20
152.118773
 30
0.0
 11
68.895628
 21
151.787585
 31
0.0
  0
LINE
  5
251
330
74
100
AcDbEntity
  8
Calque 1
100
AcDbLine
 10
68.895628
 20
151.787585
 30
0.0
 11
68.793787
 21
151.331862
 31
0.0
  0
LINE
  5
252
330
74
100
AcDbEntity
  8
Calque 1
100
AcDbLine
 10
68.793787
 20
151.331862
 30
0.0
 11
68.88919099999999
 21
150.893802
 31
0.0
  0
LINE
  5
253
330
74
100
AcDbEntity
  8
Calque 1
100
AcDbLine
 10
68.88919099999999
 20
150.893802
 30
0.0
 11
69.182866
 21
150.615603
 31
0.0
  0
LINE
  5
254
330
74
100
AcDbEntity
  8
Calque 1
100
AcDbLine
 10
69.182866
 20
150.615603
 30
0.0
 11
69.739055
 21
150.57306
 31
0.0
  0
LINE
  5
255
330
74
100
AcDbEntity
  8
Calque 1
100
AcDbLine
 10
69.739055
 20
150.57306
 30
0.0
 11
70.237251
 21
150.851497
 31
0.0
  0
LINE
  5
256
330
74
100
AcDbEntity
  8
Calque 1
100
AcDbLine
 10
70.237251
 20
150.851497
 30
0.0
 11
70.628506
 21
151.405127
 31
0.0
  0
LINE
  5
257
330
74
100
AcDbEntity
  8
Calque 1
100
AcDbLine
 10
70.628506
 20
151.405127
 30
0.0
 11
70.863878
 21
152.188163
 31
0.0
  0
LINE
  5
258
330
74
100
AcDbEntity
  8
Calque 1
100
AcDbLine
 10
70.863878
 20
152.188163
 30
0.0
 11
71.08331800000001
 21
152.992681
 31
0.0
  0
LINE
  5
259
330
74
100
AcDbEntity
  8
Calque 1
100
AcDbLine
 10
71.08331800000001
 20
152.992681
 30
0.0
 11
71.35511700000001
 21
153.327305
 31
0.0
  0
LINE
  5
25A
330
74
100
AcDbEntity
  8
Calque 1
100
AcDbLine
 10
71.35511700000001
 20
153.327305
 30
0.0
 11
71.522017
 21
153.191396
 31
0.0
  0
LINE
  5
25B
330
74
100
AcDbEntity
  8
Calque 1
100
AcDbLine
 10
71.522017
 20
153.191396
 30
0.0
 11
71.456598
 21
152.833416
 31
0.0
  0
LINE
  5
25C
330
74
100
AcDbEntity
  8
Calque 1
100
AcDbLine
 10
71.456598
 20
152.833416
 30
0.0
 11
71.05102099999999
 21
151.491438
 31
0.0
  0
LINE
  5
25D
330
74
100
AcDbEntity
  8
Calque 1
100
AcDbLine
 10
71.05102099999999
 20
151.491438
 30
0.0
 11
71.16506
 21
150.636588
 31
0.0
  0
LINE
  5
25E
330
74
100
AcDbEntity
  8
Calque 1
100
AcDbLine
 10
71.16506
 20
150.636588
 30
0.0
 11
71.41634
 21
150.39281
 31
0.0
  0
LINE
  5
25F
330
74
100
AcDbEntity
  8
Calque 1
100
AcDbLine
 10
71.41634
 20
150.39281
 30
0.0
 11
71.79680999999999
 21
150.271984
 31
0.0
  0
LINE
  5
260
330
74
100
AcDbEntity
  8
Calque 1
100
AcDbLine
 10
71.79680999999999
 20
150.271984
 30
0.0
 11
72.944363
 21
150.4007419999999
 31
0.0
  0
LINE
  5
261
330
74
100
AcDbEntity
  8
Calque 1
100
AcDbLine
 10
72.944363
 20
150.4007419999999
 30
0.0
 11
72.944363
 21
150.4007419999999
 31
0.0
  0
LINE
  5
262
330
74
100
AcDbEntity
  8
Calque 1
100
AcDbLine
 10
77.027721
 20
154.556983
 30
0.0
 11
77.96747899999999
 21
155.493438
 31
0.0
  0
LINE
  5
263
330
74
100
AcDbEntity
  8
Calque 1
100
AcDbLine
 10
77.96747899999999
 20
155.493438
 30
0.0
 11
79.12643599999999
 21
156.248685
 31
0.0
  0
LINE
  5
264
330
74
100
AcDbEntity
  8
Calque 1
100
AcDbLine
 10
79.12643599999999
 20
156.248685
 30
0.0
 11
80.65593599999999
 21
156.902021
 31
0.0
  0
LINE
  5
265
330
74
100
AcDbEntity
  8
Calque 1
100
AcDbLine
 10
80.65593599999999
 20
156.902021
 30
0.0
 11
82.70732499999999
 21
157.53274
 31
0.0
  0
LINE
  5
266
330
74
100
AcDbEntity
  8
Calque 1
100
AcDbLine
 10
82.70732499999999
 20
157.53274
 30
0.0
 11
85.68518799999999
 21
158.568301
 31
0.0
  0
LINE
  5
267
330
74
100
AcDbEntity
  8
Calque 1
100
AcDbLine
 10
85.68518799999999
 20
158.568301
 30
0.0
 11
86.78271399999999
 21
159.17317
 31
0.0
  0
LINE
  5
268
330
74
100
AcDbEntity
  8
Calque 1
100
AcDbLine
 10
86.78271399999999
 20
159.17317
 30
0.0
 11
87.654378
 21
159.870466
 31
0.0
  0
LINE
  5
269
330
74
100
AcDbEntity
  8
Calque 1
100
AcDbLine
 10
87.654378
 20
159.870466
 30
0.0
 11
88.32648199999999
 21
160.685968
 31
0.0
  0
LINE
  5
26A
330
74
100
AcDbEntity
  8
Calque 1
100
AcDbLine
 10
88.32648199999999
 20
160.685968
 30
0.0
 11
88.82533100000001
 21
161.645451
 31
0.0
  0
LINE
  5
26B
330
74
100
AcDbEntity
  8
Calque 1
100
AcDbLine
 10
88.82533100000001
 20
161.645451
 30
0.0
 11
89.17723100000001
 21
162.774692
 31
0.0
  0
LINE
  5
26C
330
74
100
AcDbEntity
  8
Calque 1
100
AcDbLine
 10
89.17723100000001
 20
162.774692
 30
0.0
 11
89.40848499999999
 21
164.09947
 31
0.0
  0
LINE
  5
26D
330
74
100
AcDbEntity
  8
Calque 1
100
AcDbLine
 10
89.40848499999999
 20
164.09947
 30
0.0
 11
89.71139499999999
 21
165.714825
 31
0.0
  0
LINE
  5
26E
330
74
100
AcDbEntity
  8
Calque 1
100
AcDbLine
 10
89.71139499999999
 20
165.714825
 30
0.0
 11
90.10018399999999
 21
166.894895
 31
0.0
  0
LINE
  5
26F
330
74
100
AcDbEntity
  8
Calque 1
100
AcDbLine
 10
90.10018399999999
 20
166.894895
 30
0.0
 11
90.70185999999999
 21
167.617207
 31
0.0
  0
LINE
  5
270
330
74
100
AcDbEntity
  8
Calque 1
100
AcDbLine
 10
90.70185999999999
 20
167.617207
 30
0.0
 11
91.62998599999999
 21
168.238176
 31
0.0
  0
LINE
  5
271
330
74
100
AcDbEntity
  8
Calque 1
100
AcDbLine
 10
91.62998599999999
 20
168.238176
 30
0.0
 11
92.72536800000001
 21
168.674614
 31
0.0
  0
LINE
  5
272
330
74
100
AcDbEntity
  8
Calque 1
100
AcDbLine
 10
92.72536800000001
 20
168.674614
 30
0.0
 11
93.828808
 21
168.843329
 31
0.0
  0
LINE
  5
273
330
74
100
AcDbEntity
  8
Calque 1
100
AcDbLine
 10
93.828808
 20
168.843329
 30
0.0
 11
94.47659599999999
 21
168.920941
 31
0.0
  0
LINE
  5
274
330
74
100
AcDbEntity
  8
Calque 1
100
AcDbLine
 10
94.47659599999999
 20
168.920941
 30
0.0
 11
94.74603
 21
169.098833
 31
0.0
  0
LINE
  5
275
330
74
100
AcDbEntity
  8
Calque 1
100
AcDbLine
 10
94.74603
 20
169.098833
 30
0.0
 11
94.564622
 21
169.348706
 31
0.0
  0
LINE
  5
276
330
74
100
AcDbEntity
  8
Calque 1
100
AcDbLine
 10
94.564622
 20
169.348706
 30
0.0
 11
94.06624499999999
 21
169.530586
 31
0.0
  0
LINE
  5
277
330
74
100
AcDbEntity
  8
Calque 1
100
AcDbLine
 10
94.06624499999999
 20
169.530586
 30
0.0
 11
92.393683
 21
169.687831
 31
0.0
  0
LINE
  5
278
330
74
100
AcDbEntity
  8
Calque 1
100
AcDbLine
 10
92.393683
 20
169.687831
 30
0.0
 11
90.27853099999999
 21
169.565498
 31
0.0
  0
LINE
  5
279
330
74
100
AcDbEntity
  8
Calque 1
100
AcDbLine
 10
90.27853099999999
 20
169.565498
 30
0.0
 11
88.27097700000001
 21
169.158515
 31
0.0
  0
LINE
  5
27A
330
74
100
AcDbEntity
  8
Calque 1
100
AcDbLine
 10
88.27097700000001
 20
169.158515
 30
0.0
 11
86.46047499999999
 21
168.439682
 31
0.0
  0
LINE
  5
27B
330
74
100
AcDbEntity
  8
Calque 1
100
AcDbLine
 10
86.46047499999999
 20
168.439682
 30
0.0
 11
84.538934
 21
167.408282
 31
0.0
  0
LINE
  5
27C
330
74
100
AcDbEntity
  8
Calque 1
100
AcDbLine
 10
84.538934
 20
167.408282
 30
0.0
 11
82.675665
 21
166.166027
 31
0.0
  0
LINE
  5
27D
330
74
100
AcDbEntity
  8
Calque 1
100
AcDbLine
 10
82.675665
 20
166.166027
 30
0.0
 11
81.03998100000001
 21
164.81463
 31
0.0
  0
LINE
  5
27E
330
74
100
AcDbEntity
  8
Calque 1
100
AcDbLine
 10
81.03998100000001
 20
164.81463
 30
0.0
 11
79.33501099999999
 21
162.907067
 31
0.0
  0
LINE
  5
27F
330
74
100
AcDbEntity
  8
Calque 1
100
AcDbLine
 10
79.33501099999999
 20
162.907067
 30
0.0
 11
77.43823899999999
 21
160.38286
 31
0.0
  0
LINE
  5
280
330
74
100
AcDbEntity
  8
Calque 1
100
AcDbLine
 10
77.43823899999999
 20
160.38286
 30
0.0
 11
75.592691
 21
157.901356
 31
0.0
  0
LINE
  5
281
330
74
100
AcDbEntity
  8
Calque 1
100
AcDbLine
 10
75.592691
 20
157.901356
 30
0.0
 11
75.04031999999999
 21
157.471619
 31
0.0
  0
LINE
  5
282
330
74
100
AcDbEntity
  8
Calque 1
100
AcDbLine
 10
75.04031999999999
 20
157.471619
 30
0.0
 11
74.492121
 21
157.33109
 31
0.0
  0
LINE
  5
283
330
74
100
AcDbEntity
  8
Calque 1
100
AcDbLine
 10
74.492121
 20
157.33109
 30
0.0
 11
73.98090899999999
 21
157.255284
 31
0.0
  0
LINE
  5
284
330
74
100
AcDbEntity
  8
Calque 1
100
AcDbLine
 10
73.98090899999999
 20
157.255284
 30
0.0
 11
73.70810300000001
 21
157.083889
 31
0.0
  0
LINE
  5
285
330
74
100
AcDbEntity
  8
Calque 1
100
AcDbLine
 10
73.70810300000001
 20
157.083889
 30
0.0
 11
73.579363
 21
156.028595
 31
0.0
  0
LINE
  5
286
330
74
100
AcDbEntity
  8
Calque 1
100
AcDbLine
 10
73.579363
 20
156.028595
 30
0.0
 11
73.726478
 21
155.004406
 31
0.0
  0
LINE
  5
287
330
74
100
AcDbEntity
  8
Calque 1
100
AcDbLine
 10
73.726478
 20
155.004406
 30
0.0
 11
74.121266
 21
154.1427389999999
 31
0.0
  0
LINE
  5
288
330
74
100
AcDbEntity
  8
Calque 1
100
AcDbLine
 10
74.121266
 20
154.1427389999999
 30
0.0
 11
74.693894
 21
153.548677
 31
0.0
  0
LINE
  5
289
330
74
100
AcDbEntity
  8
Calque 1
100
AcDbLine
 10
74.693894
 20
153.548677
 30
0.0
 11
75.374528
 21
153.327305
 31
0.0
  0
LINE
  5
28A
330
74
100
AcDbEntity
  8
Calque 1
100
AcDbLine
 10
75.374528
 20
153.327305
 30
0.0
 11
76.106329
 21
153.652588
 31
0.0
  0
LINE
  5
28B
330
74
100
AcDbEntity
  8
Calque 1
100
AcDbLine
 10
76.106329
 20
153.652588
 30
0.0
 11
77.027721
 21
154.556983
 31
0.0
  0
LINE
  5
28C
330
74
100
AcDbEntity
  8
Calque 1
100
AcDbLine
 10
77.027721
 20
154.556983
 30
0.0
 11
77.027721
 21
154.556983
 31
0.0
  0
LINE
  5
28D
330
74
100
AcDbEntity
  8
Calque 1
100
AcDbLine
 10
69.652989
 20
154.48093
 30
0.0
 11
70.19400400000001
 21
155.195982
 31
0.0
  0
LINE
  5
28E
330
74
100
AcDbEntity
  8
Calque 1
100
AcDbLine
 10
70.19400400000001
 20
155.195982
 30
0.0
 11
70.66738
 21
156.087788
 31
0.0
  0
LINE
  5
28F
330
74
100
AcDbEntity
  8
Calque 1
100
AcDbLine
 10
70.66738
 20
156.087788
 30
0.0
 11
70.93411500000001
 21
157.044456
 31
0.0
  0
LINE
  5
290
330
74
100
AcDbEntity
  8
Calque 1
100
AcDbLine
 10
70.93411500000001
 20
157.044456
 30
0.0
 11
70.754263
 21
157.327233
 31
0.0
  0
LINE
  5
291
330
74
100
AcDbEntity
  8
Calque 1
100
AcDbLine
 10
70.754263
 20
157.327233
 30
0.0
 11
70.32558399999999
 21
157.664191
 31
0.0
  0
LINE
  5
292
330
74
100
AcDbEntity
  8
Calque 1
100
AcDbLine
 10
70.32558399999999
 20
157.664191
 30
0.0
 11
69.745974
 21
158.23355
 31
0.0
  0
LINE
  5
293
330
74
100
AcDbEntity
  8
Calque 1
100
AcDbLine
 10
69.745974
 20
158.23355
 30
0.0
 11
69.300216
 21
158.988556
 31
0.0
  0
LINE
  5
294
330
74
100
AcDbEntity
  8
Calque 1
100
AcDbLine
 10
69.300216
 20
158.988556
 30
0.0
 11
68.98994
 21
159.911321
 31
0.0
  0
LINE
  5
295
330
74
100
AcDbEntity
  8
Calque 1
100
AcDbLine
 10
68.98994
 20
159.911321
 30
0.0
 11
68.816776
 21
160.983956
 31
0.0
  0
LINE
  5
296
330
74
100
AcDbEntity
  8
Calque 1
100
AcDbLine
 10
68.816776
 20
160.983956
 30
0.0
 11
68.88831
 21
163.507283
 31
0.0
  0
LINE
  5
297
330
74
100
AcDbEntity
  8
Calque 1
100
AcDbLine
 10
68.88831
 20
163.507283
 30
0.0
 11
69.52786299999999
 21
166.415425
 31
0.0
  0
LINE
  5
298
330
74
100
AcDbEntity
  8
Calque 1
100
AcDbLine
 10
69.52786299999999
 20
166.415425
 30
0.0
 11
69.573498
 21
166.841179
 31
0.0
  0
LINE
  5
299
330
74
100
AcDbEntity
  8
Calque 1
100
AcDbLine
 10
69.573498
 20
166.841179
 30
0.0
 11
69.3005
 21
166.658359
 31
0.0
  0
LINE
  5
29A
330
74
100
AcDbEntity
  8
Calque 1
100
AcDbLine
 10
69.3005
 20
166.658359
 30
0.0
 11
68.107865
 21
164.815451
 31
0.0
  0
LINE
  5
29B
330
74
100
AcDbEntity
  8
Calque 1
100
AcDbLine
 10
68.107865
 20
164.815451
 30
0.0
 11
67.320171
 21
163.232212
 31
0.0
  0
LINE
  5
29C
330
74
100
AcDbEntity
  8
Calque 1
100
AcDbLine
 10
67.320171
 20
163.232212
 30
0.0
 11
66.711996
 21
161.668536
 31
0.0
  0
LINE
  5
29D
330
74
100
AcDbEntity
  8
Calque 1
100
AcDbLine
 10
66.711996
 20
161.668536
 30
0.0
 11
66.286512
 21
160.154581
 31
0.0
  0
LINE
  5
29E
330
74
100
AcDbEntity
  8
Calque 1
100
AcDbLine
 10
66.286512
 20
160.154581
 30
0.0
 11
66.04689300000001
 21
158.720505
 31
0.0
  0
LINE
  5
29F
330
74
100
AcDbEntity
  8
Calque 1
100
AcDbLine
 10
66.04689300000001
 20
158.720505
 30
0.0
 11
65.99631200000001
 21
157.396466
 31
0.0
  0
LINE
  5
2A0
330
74
100
AcDbEntity
  8
Calque 1
100
AcDbLine
 10
65.99631200000001
 20
157.396466
 30
0.0
 11
66.13794099999999
 21
156.212623
 31
0.0
  0
LINE
  5
2A1
330
74
100
AcDbEntity
  8
Calque 1
100
AcDbLine
 10
66.13794099999999
 20
156.212623
 30
0.0
 11
66.47495500000001
 21
155.199133
 31
0.0
  0
LINE
  5
2A2
330
74
100
AcDbEntity
  8
Calque 1
100
AcDbLine
 10
66.47495500000001
 20
155.199133
 30
0.0
 11
67.010526
 21
154.386154
 31
0.0
  0
LINE
  5
2A3
330
74
100
AcDbEntity
  8
Calque 1
100
AcDbLine
 10
67.010526
 20
154.386154
 30
0.0
 11
67.578452
 21
154.017074
 31
0.0
  0
LINE
  5
2A4
330
74
100
AcDbEntity
  8
Calque 1
100
AcDbLine
 10
67.578452
 20
154.017074
 30
0.0
 11
68.29004399999999
 21
153.91278
 31
0.0
  0
LINE
  5
2A5
330
74
100
AcDbEntity
  8
Calque 1
100
AcDbLine
 10
68.29004399999999
 20
153.91278
 30
0.0
 11
69.02249300000001
 21
154.0688669999999
 31
0.0
  0
LINE
  5
2A6
330
74
100
AcDbEntity
  8
Calque 1
100
AcDbLine
 10
69.02249300000001
 20
154.0688669999999
 30
0.0
 11
69.652989
 21
154.48093
 31
0.0
  0
LINE
  5
2A7
330
74
100
AcDbEntity
  8
Calque 1
100
AcDbLine
 10
69.652989
 20
154.48093
 30
0.0
 11
69.652989
 21
154.48093
 31
0.0
  0
LINE
  5
2A8
330
74
100
AcDbEntity
  8
Calque 1
100
AcDbLine
 10
82.05637600000001
 20
143.785659
 30
0.0
 11
81.45094499999999
 21
144.4355149999999
 31
0.0
  0
LINE
  5
2A9
330
74
100
AcDbEntity
  8
Calque 1
100
AcDbLine
 10
81.45094499999999
 20
144.4355149999999
 30
0.0
 11
82.076612
 21
144.942152
 31
0.0
  0
LINE
  5
2AA
330
74
100
AcDbEntity
  8
Calque 1
100
AcDbLine
 10
82.076612
 20
144.942152
 30
0.0
 11
82.711111
 21
145.325711
 31
0.0
  0
LINE
  5
2AB
330
74
100
AcDbEntity
  8
Calque 1
100
AcDbLine
 10
82.711111
 20
145.325711
 30
0.0
 11
83.19009200000001
 21
145.340014
 31
0.0
  0
LINE
  5
2AC
330
74
100
AcDbEntity
  8
Calque 1
100
AcDbLine
 10
83.19009200000001
 20
145.340014
 30
0.0
 11
83.49274300000001
 21
144.993897
 31
0.0
  0
LINE
  5
2AD
330
74
100
AcDbEntity
  8
Calque 1
100
AcDbLine
 10
83.49274300000001
 20
144.993897
 30
0.0
 11
83.59825200000001
 21
144.296193
 31
0.0
  0
LINE
  5
2AE
330
74
100
AcDbEntity
  8
Calque 1
100
AcDbLine
 10
83.59825200000001
 20
144.296193
 30
0.0
 11
83.47910500000001
 21
143.572641
 31
0.0
  0
LINE
  5
2AF
330
74
100
AcDbEntity
  8
Calque 1
100
AcDbLine
 10
83.47910500000001
 20
143.572641
 30
0.0
 11
83.152036
 21
143.23631
 31
0.0
  0
LINE
  5
2B0
330
74
100
AcDbEntity
  8
Calque 1
100
AcDbLine
 10
83.152036
 20
143.23631
 30
0.0
 11
82.662607
 21
143.302288
 31
0.0
  0
LINE
  5
2B1
330
74
100
AcDbEntity
  8
Calque 1
100
AcDbLine
 10
82.662607
 20
143.302288
 30
0.0
 11
82.05637600000001
 21
143.785659
 31
0.0
  0
LINE
  5
2B2
330
74
100
AcDbEntity
  8
Calque 1
100
AcDbLine
 10
82.05637600000001
 20
143.785659
 30
0.0
 11
82.05637600000001
 21
143.785659
 31
0.0
  0
LINE
  5
2B3
330
74
100
AcDbEntity
  8
Calque 1
100
AcDbLine
 10
84.983249
 20
145.021702
 30
0.0
 11
84.58645
 21
145.950682
 31
0.0
  0
LINE
  5
2B4
330
74
100
AcDbEntity
  8
Calque 1
100
AcDbLine
 10
84.58645
 20
145.950682
 30
0.0
 11
84.688785
 21
146.184265
 31
0.0
  0
LINE
  5
2B5
330
74
100
AcDbEntity
  8
Calque 1
100
AcDbLine
 10
84.688785
 20
146.184265
 30
0.0
 11
84.99274900000001
 21
146.432813
 31
0.0
  0
LINE
  5
2B6
330
74
100
AcDbEntity
  8
Calque 1
100
AcDbLine
 10
84.99274900000001
 20
146.432813
 30
0.0
 11
85.58207800000001
 21
146.749952
 31
0.0
  0
LINE
  5
2B7
330
74
100
AcDbEntity
  8
Calque 1
100
AcDbLine
 10
85.58207800000001
 20
146.749952
 30
0.0
 11
86.11223999999999
 21
146.806061
 31
0.0
  0
LINE
  5
2B8
330
74
100
AcDbEntity
  8
Calque 1
100
AcDbLine
 10
86.11223999999999
 20
146.806061
 30
0.0
 11
86.555888
 21
146.605205
 31
0.0
  0
LINE
  5
2B9
330
74
100
AcDbEntity
  8
Calque 1
100
AcDbLine
 10
86.555888
 20
146.605205
 30
0.0
 11
86.885676
 21
146.151449
 31
0.0
  0
LINE
  5
2BA
330
74
100
AcDbEntity
  8
Calque 1
100
AcDbLine
 10
86.885676
 20
146.151449
 30
0.0
 11
87.09862599999999
 21
145.469353
 31
0.0
  0
LINE
  5
2BB
330
74
100
AcDbEntity
  8
Calque 1
100
AcDbLine
 10
87.09862599999999
 20
145.469353
 30
0.0
 11
87.101746
 21
144.893667
 31
0.0
  0
LINE
  5
2BC
330
74
100
AcDbEntity
  8
Calque 1
100
AcDbLine
 10
87.101746
 20
144.893667
 30
0.0
 11
86.93555899999999
 21
144.448454
 31
0.0
  0
LINE
  5
2BD
330
74
100
AcDbEntity
  8
Calque 1
100
AcDbLine
 10
86.93555899999999
 20
144.448454
 30
0.0
 11
86.640586
 21
144.157778
 31
0.0
  0
LINE
  5
2BE
330
74
100
AcDbEntity
  8
Calque 1
100
AcDbLine
 10
86.640586
 20
144.157778
 30
0.0
 11
86.257347
 21
144.045701
 31
0.0
  0
LINE
  5
2BF
330
74
100
AcDbEntity
  8
Calque 1
100
AcDbLine
 10
86.257347
 20
144.045701
 30
0.0
 11
85.826363
 21
144.136287
 31
0.0
  0
LINE
  5
2C0
330
74
100
AcDbEntity
  8
Calque 1
100
AcDbLine
 10
85.826363
 20
144.136287
 30
0.0
 11
85.38815699999998
 21
144.4536
 31
0.0
  0
LINE
  5
2C1
330
74
100
AcDbEntity
  8
Calque 1
100
AcDbLine
 10
85.38815699999998
 20
144.4536
 30
0.0
 11
84.983249
 21
145.021702
 31
0.0
  0
LINE
  5
2C2
330
74
100
AcDbEntity
  8
Calque 1
100
AcDbLine
 10
84.983249
 20
145.021702
 30
0.0
 11
84.983249
 21
145.021702
 31
0.0
  0
LINE
  5
2C3
330
74
100
AcDbEntity
  8
Calque 1
100
AcDbLine
 10
77.718624
 20
144.484343
 30
0.0
 11
77.55806199999999
 21
144.724073
 31
0.0
  0
LINE
  5
2C4
330
74
100
AcDbEntity
  8
Calque 1
100
AcDbLine
 10
77.55806199999999
 20
144.724073
 30
0.0
 11
77.587664
 21
144.964017
 31
0.0
  0
LINE
  5
2C5
330
74
100
AcDbEntity
  8
Calque 1
100
AcDbLine
 10
77.587664
 20
144.964017
 30
0.0
 11
78.28307399999999
 21
145.571067
 31
0.0
  0
LINE
  5
2C6
330
74
100
AcDbEntity
  8
Calque 1
100
AcDbLine
 10
78.28307399999999
 20
145.571067
 30
0.0
 11
78.98152299999999
 21
145.921922
 31
0.0
  0
LINE
  5
2C7
330
74
100
AcDbEntity
  8
Calque 1
100
AcDbLine
 10
78.98152299999999
 20
145.921922
 30
0.0
 11
79.40718199999999
 21
145.556124
 31
0.0
  0
LINE
  5
2C8
330
74
100
AcDbEntity
  8
Calque 1
100
AcDbLine
 10
79.40718199999999
 20
145.556124
 30
0.0
 11
79.626091
 21
145.077558
 31
0.0
  0
LINE
  5
2C9
330
74
100
AcDbEntity
  8
Calque 1
100
AcDbLine
 10
79.626091
 20
145.077558
 30
0.0
 11
79.466691
 21
144.672125
 31
0.0
  0
LINE
  5
2CA
330
74
100
AcDbEntity
  8
Calque 1
100
AcDbLine
 10
79.466691
 20
144.672125
 30
0.0
 11
79.10132199999999
 21
144.431325
 31
0.0
  0
LINE
  5
2CB
330
74
100
AcDbEntity
  8
Calque 1
100
AcDbLine
 10
79.10132199999999
 20
144.431325
 30
0.0
 11
78.59156099999999
 21
144.309381
 31
0.0
  0
LINE
  5
2CC
330
74
100
AcDbEntity
  8
Calque 1
100
AcDbLine
 10
78.59156099999999
 20
144.309381
 30
0.0
 11
78.082348
 21
144.321863
 31
0.0
  0
LINE
  5
2CD
330
74
100
AcDbEntity
  8
Calque 1
100
AcDbLine
 10
78.082348
 20
144.321863
 30
0.0
 11
77.718624
 21
144.484343
 31
0.0
  0
LINE
  5
2CE
330
74
100
AcDbEntity
  8
Calque 1
100
AcDbLine
 10
77.718624
 20
144.484343
 30
0.0
 11
77.718624
 21
144.484343
 31
0.0
  0
LINE
  5
2CF
330
74
100
AcDbEntity
  8
Calque 1
100
AcDbLine
 10
75.607342
 20
145.173608
 30
0.0
 11
75.197878
 21
145.431669
 31
0.0
  0
LINE
  5
2D0
330
74
100
AcDbEntity
  8
Calque 1
100
AcDbLine
 10
75.197878
 20
145.431669
 30
0.0
 11
75.13058100000001
 21
145.705682
 31
0.0
  0
LINE
  5
2D1
330
74
100
AcDbEntity
  8
Calque 1
100
AcDbLine
 10
75.13058100000001
 20
145.705682
 30
0.0
 11
75.355188
 21
145.800357
 31
0.0
  0
LINE
  5
2D2
330
74
100
AcDbEntity
  8
Calque 1
100
AcDbLine
 10
75.355188
 20
145.800357
 30
0.0
 11
75.743223
 21
145.741877
 31
0.0
  0
LINE
  5
2D3
330
74
100
AcDbEntity
  8
Calque 1
100
AcDbLine
 10
75.743223
 20
145.741877
 30
0.0
 11
76.632029
 21
145.274003
 31
0.0
  0
LINE
  5
2D4
330
74
100
AcDbEntity
  8
Calque 1
100
AcDbLine
 10
76.632029
 20
145.274003
 30
0.0
 11
76.66828800000001
 21
145.129817
 31
0.0
  0
LINE
  5
2D5
330
74
100
AcDbEntity
  8
Calque 1
100
AcDbLine
 10
76.66828800000001
 20
145.129817
 30
0.0
 11
76.432268
 21
145.057446
 31
0.0
  0
LINE
  5
2D6
330
74
100
AcDbEntity
  8
Calque 1
100
AcDbLine
 10
76.432268
 20
145.057446
 30
0.0
 11
75.607342
 21
145.173608
 31
0.0
  0
LINE
  5
2D7
330
74
100
AcDbEntity
  8
Calque 1
100
AcDbLine
 10
75.607342
 20
145.173608
 30
0.0
 11
75.607342
 21
145.173608
 31
0.0
  0
LINE
  5
2D8
330
74
100
AcDbEntity
  8
Calque 1
100
AcDbLine
 10
80.241781
 20
145.589276
 30
0.0
 11
80.063688
 21
146.469462
 31
0.0
  0
LINE
  5
2D9
330
74
100
AcDbEntity
  8
Calque 1
100
AcDbLine
 10
80.063688
 20
146.469462
 30
0.0
 11
80.19494100000001
 21
147.229594
 31
0.0
  0
LINE
  5
2DA
330
74
100
AcDbEntity
  8
Calque 1
100
AcDbLine
 10
80.19494100000001
 20
147.229594
 30
0.0
 11
80.592184
 21
147.763518
 31
0.0
  0
LINE
  5
2DB
330
74
100
AcDbEntity
  8
Calque 1
100
AcDbLine
 10
80.592184
 20
147.763518
 30
0.0
 11
81.212066
 21
147.965082
 31
0.0
  0
LINE
  5
2DC
330
74
100
AcDbEntity
  8
Calque 1
100
AcDbLine
 10
81.212066
 20
147.965082
 30
0.0
 11
81.68250699999999
 21
147.81662
 31
0.0
  0
LINE
  5
2DD
330
74
100
AcDbEntity
  8
Calque 1
100
AcDbLine
 10
81.68250699999999
 20
147.81662
 30
0.0
 11
82.13521699999999
 21
147.440571
 31
0.0
  0
LINE
  5
2DE
330
74
100
AcDbEntity
  8
Calque 1
100
AcDbLine
 10
82.13521699999999
 20
147.440571
 30
0.0
 11
82.475953
 21
146.940945
 31
0.0
  0
LINE
  5
2DF
330
74
100
AcDbEntity
  8
Calque 1
100
AcDbLine
 10
82.475953
 20
146.940945
 30
0.0
 11
82.610475
 21
146.42175
 31
0.0
  0
LINE
  5
2E0
330
74
100
AcDbEntity
  8
Calque 1
100
AcDbLine
 10
82.610475
 20
146.42175
 30
0.0
 11
82.523353
 21
146.044325
 31
0.0
  0
LINE
  5
2E1
330
74
100
AcDbEntity
  8
Calque 1
100
AcDbLine
 10
82.523353
 20
146.044325
 30
0.0
 11
82.290624
 21
145.714813
 31
0.0
  0
LINE
  5
2E2
330
74
100
AcDbEntity
  8
Calque 1
100
AcDbLine
 10
82.290624
 20
145.714813
 30
0.0
 11
81.56014799999999
 21
145.259913
 31
0.0
  0
LINE
  5
2E3
330
74
100
AcDbEntity
  8
Calque 1
100
AcDbLine
 10
81.56014799999999
 20
145.259913
 30
0.0
 11
80.76266099999999
 21
145.177813
 31
0.0
  0
LINE
  5
2E4
330
74
100
AcDbEntity
  8
Calque 1
100
AcDbLine
 10
80.76266099999999
 20
145.177813
 30
0.0
 11
80.44616899999999
 21
145.314301
 31
0.0
  0
LINE
  5
2E5
330
74
100
AcDbEntity
  8
Calque 1
100
AcDbLine
 10
80.44616899999999
 20
145.314301
 30
0.0
 11
80.241781
 21
145.589276
 31
0.0
  0
LINE
  5
2E6
330
74
100
AcDbEntity
  8
Calque 1
100
AcDbLine
 10
80.241781
 20
145.589276
 30
0.0
 11
80.241781
 21
145.589276
 31
0.0
  0
LINE
  5
2E7
330
74
100
AcDbEntity
  8
Calque 1
100
AcDbLine
 10
88.28058699999999
 20
145.74477
 30
0.0
 11
87.76486
 21
146.643204
 31
0.0
  0
LINE
  5
2E8
330
74
100
AcDbEntity
  8
Calque 1
100
AcDbLine
 10
87.76486
 20
146.643204
 30
0.0
 11
87.784638
 21
147.47958
 31
0.0
  0
LINE
  5
2E9
330
74
100
AcDbEntity
  8
Calque 1
100
AcDbLine
 10
87.784638
 20
147.47958
 30
0.0
 11
88.271397
 21
148.061962
 31
0.0
  0
LINE
  5
2EA
330
74
100
AcDbEntity
  8
Calque 1
100
AcDbLine
 10
88.271397
 20
148.061962
 30
0.0
 11
88.66847900000001
 21
148.197924
 31
0.0
  0
LINE
  5
2EB
330
74
100
AcDbEntity
  8
Calque 1
100
AcDbLine
 10
88.66847900000001
 20
148.197924
 30
0.0
 11
89.15660799999999
 21
148.198412
 31
0.0
  0
LINE
  5
2EC
330
74
100
AcDbEntity
  8
Calque 1
100
AcDbLine
 10
89.15660799999999
 20
148.198412
 30
0.0
 11
89.502909
 21
148.105854
 31
0.0
  0
LINE
  5
2ED
330
74
100
AcDbEntity
  8
Calque 1
100
AcDbLine
 10
89.502909
 20
148.105854
 30
0.0
 11
89.699346
 21
147.88829
 31
0.0
  0
LINE
  5
2EE
330
74
100
AcDbEntity
  8
Calque 1
100
AcDbLine
 10
89.699346
 20
147.88829
 30
0.0
 11
89.807141
 21
146.698949
 31
0.0
  0
LINE
  5
2EF
330
74
100
AcDbEntity
  8
Calque 1
100
AcDbLine
 10
89.807141
 20
146.698949
 30
0.0
 11
89.70451500000001
 21
145.711547
 31
0.0
  0
LINE
  5
2F0
330
74
100
AcDbEntity
  8
Calque 1
100
AcDbLine
 10
89.70451500000001
 20
145.711547
 30
0.0
 11
89.40625999999999
 21
145.21737
 31
0.0
  0
LINE
  5
2F1
330
74
100
AcDbEntity
  8
Calque 1
100
AcDbLine
 10
89.40625999999999
 20
145.21737
 30
0.0
 11
88.926806
 21
145.225437
 31
0.0
  0
LINE
  5
2F2
330
74
100
AcDbEntity
  8
Calque 1
100
AcDbLine
 10
88.926806
 20
145.225437
 30
0.0
 11
88.28058699999999
 21
145.74477
 31
0.0
  0
LINE
  5
2F3
330
74
100
AcDbEntity
  8
Calque 1
100
AcDbLine
 10
88.28058699999999
 20
145.74477
 30
0.0
 11
88.28058699999999
 21
145.74477
 31
0.0
  0
LINE
  5
2F4
330
74
100
AcDbEntity
  8
Calque 1
100
AcDbLine
 10
67.93491899999999
 20
145.535998
 30
0.0
 11
68.069272
 21
145.708052
 31
0.0
  0
LINE
  5
2F5
330
74
100
AcDbEntity
  8
Calque 1
100
AcDbLine
 10
68.069272
 20
145.708052
 30
0.0
 11
68.376143
 21
145.807262
 31
0.0
  0
LINE
  5
2F6
330
74
100
AcDbEntity
  8
Calque 1
100
AcDbLine
 10
68.376143
 20
145.807262
 30
0.0
 11
68.711251
 21
145.810586
 31
0.0
  0
LINE
  5
2F7
330
74
100
AcDbEntity
  8
Calque 1
100
AcDbLine
 10
68.711251
 20
145.810586
 30
0.0
 11
68.93031399999999
 21
145.69498
 31
0.0
  0
LINE
  5
2F8
330
74
100
AcDbEntity
  8
Calque 1
100
AcDbLine
 10
68.93031399999999
 20
145.69498
 30
0.0
 11
68.87742199999999
 21
145.504365
 31
0.0
  0
LINE
  5
2F9
330
74
100
AcDbEntity
  8
Calque 1
100
AcDbLine
 10
68.87742199999999
 20
145.504365
 30
0.0
 11
68.51601999999999
 21
145.425082
 31
0.0
  0
LINE
  5
2FA
330
74
100
AcDbEntity
  8
Calque 1
100
AcDbLine
 10
68.51601999999999
 20
145.425082
 30
0.0
 11
67.93491899999999
 21
145.535998
 31
0.0
  0
LINE
  5
2FB
330
74
100
AcDbEntity
  8
Calque 1
100
AcDbLine
 10
67.93491899999999
 20
145.535998
 30
0.0
 11
67.93491899999999
 21
145.535998
 31
0.0
  0
LINE
  5
2FC
330
74
100
AcDbEntity
  8
Calque 1
100
AcDbLine
 10
69.910475
 20
145.707305
 30
0.0
 11
70.02993599999999
 21
145.906624
 31
0.0
  0
LINE
  5
2FD
330
74
100
AcDbEntity
  8
Calque 1
100
AcDbLine
 10
70.02993599999999
 20
145.906624
 30
0.0
 11
70.31715099999999
 21
145.989527
 31
0.0
  0
LINE
  5
2FE
330
74
100
AcDbEntity
  8
Calque 1
100
AcDbLine
 10
70.31715099999999
 20
145.989527
 30
0.0
 11
70.89825199999999
 21
145.707305
 31
0.0
  0
LINE
  5
2FF
330
74
100
AcDbEntity
  8
Calque 1
100
AcDbLine
 10
70.89825199999999
 20
145.707305
 30
0.0
 11
70.85074099999999
 21
145.507985
 31
0.0
  0
LINE
  5
300
330
74
100
AcDbEntity
  8
Calque 1
100
AcDbLine
 10
70.85074099999999
 20
145.507985
 30
0.0
 11
70.491576
 21
145.425082
 31
0.0
  0
LINE
  5
301
330
74
100
AcDbEntity
  8
Calque 1
100
AcDbLine
 10
70.491576
 20
145.425082
 30
0.0
 11
70.08117299999999
 21
145.507985
 31
0.0
  0
LINE
  5
302
330
74
100
AcDbEntity
  8
Calque 1
100
AcDbLine
 10
70.08117299999999
 20
145.507985
 30
0.0
 11
69.910475
 21
145.707305
 31
0.0
  0
LINE
  5
303
330
74
100
AcDbEntity
  8
Calque 1
100
AcDbLine
 10
69.910475
 20
145.707305
 30
0.0
 11
69.910475
 21
145.707305
 31
0.0
  0
LINE
  5
304
330
74
100
AcDbEntity
  8
Calque 1
100
AcDbLine
 10
72.82747500000001
 20
146.431831
 30
0.0
 11
72.80264599999999
 21
146.839248
 31
0.0
  0
LINE
  5
305
330
74
100
AcDbEntity
  8
Calque 1
100
AcDbLine
 10
72.80264599999999
 20
146.839248
 30
0.0
 11
72.98129200000001
 21
147.197678
 31
0.0
  0
LINE
  5
306
330
74
100
AcDbEntity
  8
Calque 1
100
AcDbLine
 10
72.98129200000001
 20
147.197678
 30
0.0
 11
73.173162
 21
147.312156
 31
0.0
  0
LINE
  5
307
330
74
100
AcDbEntity
  8
Calque 1
100
AcDbLine
 10
73.173162
 20
147.312156
 30
0.0
 11
73.401291
 21
147.28366
 31
0.0
  0
LINE
  5
308
330
74
100
AcDbEntity
  8
Calque 1
100
AcDbLine
 10
73.401291
 20
147.28366
 30
0.0
 11
74.070687
 21
146.755376
 31
0.0
  0
LINE
  5
309
330
74
100
AcDbEntity
  8
Calque 1
100
AcDbLine
 10
74.070687
 20
146.755376
 30
0.0
 11
74.836536
 21
145.989527
 31
0.0
  0
LINE
  5
30A
330
74
100
AcDbEntity
  8
Calque 1
100
AcDbLine
 10
74.836536
 20
145.989527
 30
0.0
 11
73.91686999999999
 21
145.989527
 31
0.0
  0
LINE
  5
30B
330
74
100
AcDbEntity
  8
Calque 1
100
AcDbLine
 10
73.91686999999999
 20
145.989527
 30
0.0
 11
73.19644499999999
 21
146.107036
 31
0.0
  0
LINE
  5
30C
330
74
100
AcDbEntity
  8
Calque 1
100
AcDbLine
 10
73.19644499999999
 20
146.107036
 30
0.0
 11
72.82747500000001
 21
146.431831
 31
0.0
  0
LINE
  5
30D
330
74
100
AcDbEntity
  8
Calque 1
100
AcDbLine
 10
72.82747500000001
 20
146.431831
 30
0.0
 11
72.82747500000001
 21
146.431831
 31
0.0
  0
LINE
  5
30E
330
74
100
AcDbEntity
  8
Calque 1
100
AcDbLine
 10
70.404363
 20
146.576577
 30
0.0
 11
69.968742
 21
147.107086
 31
0.0
  0
LINE
  5
30F
330
74
100
AcDbEntity
  8
Calque 1
100
AcDbLine
 10
69.968742
 20
147.107086
 30
0.0
 11
69.987358
 21
147.753372
 31
0.0
  0
LINE
  5
310
330
74
100
AcDbEntity
  8
Calque 1
100
AcDbLine
 10
69.987358
 20
147.753372
 30
0.0
 11
70.384855
 21
148.299498
 31
0.0
  0
LINE
  5
311
330
74
100
AcDbEntity
  8
Calque 1
100
AcDbLine
 10
70.384855
 20
148.299498
 30
0.0
 11
71.085879
 21
148.529527
 31
0.0
  0
LINE
  5
312
330
74
100
AcDbEntity
  8
Calque 1
100
AcDbLine
 10
71.085879
 20
148.529527
 30
0.0
 11
71.492508
 21
148.390343
 31
0.0
  0
LINE
  5
313
330
74
100
AcDbEntity
  8
Calque 1
100
AcDbLine
 10
71.492508
 20
148.390343
 30
0.0
 11
71.83818399999999
 21
148.018806
 31
0.0
  0
LINE
  5
314
330
74
100
AcDbEntity
  8
Calque 1
100
AcDbLine
 10
71.83818399999999
 20
148.018806
 30
0.0
 11
72.07830099999999
 21
147.483934
 31
0.0
  0
LINE
  5
315
330
74
100
AcDbEntity
  8
Calque 1
100
AcDbLine
 10
72.07830099999999
 20
147.483934
 30
0.0
 11
72.16825199999999
 21
146.854747
 31
0.0
  0
LINE
  5
316
330
74
100
AcDbEntity
  8
Calque 1
100
AcDbLine
 10
72.16825199999999
 20
146.854747
 30
0.0
 11
72.01559899999999
 21
146.466654
 31
0.0
  0
LINE
  5
317
330
74
100
AcDbEntity
  8
Calque 1
100
AcDbLine
 10
72.01559899999999
 20
146.466654
 30
0.0
 11
71.614187
 21
146.282011
 31
0.0
  0
LINE
  5
318
330
74
100
AcDbEntity
  8
Calque 1
100
AcDbLine
 10
71.614187
 20
146.282011
 30
0.0
 11
71.04883499999999
 21
146.314193
 31
0.0
  0
LINE
  5
319
330
74
100
AcDbEntity
  8
Calque 1
100
AcDbLine
 10
71.04883499999999
 20
146.314193
 30
0.0
 11
70.404363
 21
146.576577
 31
0.0
  0
LINE
  5
31A
330
74
100
AcDbEntity
  8
Calque 1
100
AcDbLine
 10
70.404363
 20
146.576577
 30
0.0
 11
70.404363
 21
146.576577
 31
0.0
  0
LINE
  5
31B
330
74
100
AcDbEntity
  8
Calque 1
100
AcDbLine
 10
67.55862399999999
 20
146.74212
 30
0.0
 11
67.35412499999999
 21
147.158318
 31
0.0
  0
LINE
  5
31C
330
74
100
AcDbEntity
  8
Calque 1
100
AcDbLine
 10
67.35412499999999
 20
147.158318
 30
0.0
 11
67.384534
 21
147.652107
 31
0.0
  0
LINE
  5
31D
330
74
100
AcDbEntity
  8
Calque 1
100
AcDbLine
 10
67.384534
 20
147.652107
 30
0.0
 11
67.61369999999999
 21
148.093285
 31
0.0
  0
LINE
  5
31E
330
74
100
AcDbEntity
  8
Calque 1
100
AcDbLine
 10
67.61369999999999
 20
148.093285
 30
0.0
 11
68.005475
 21
148.351645
 31
0.0
  0
LINE
  5
31F
330
74
100
AcDbEntity
  8
Calque 1
100
AcDbLine
 10
68.005475
 20
148.351645
 30
0.0
 11
69.08224699999999
 21
148.476793
 31
0.0
  0
LINE
  5
320
330
74
100
AcDbEntity
  8
Calque 1
100
AcDbLine
 10
69.08224699999999
 20
148.476793
 30
0.0
 11
69.289004
 21
148.278201
 31
0.0
  0
LINE
  5
321
330
74
100
AcDbEntity
  8
Calque 1
100
AcDbLine
 10
69.289004
 20
148.278201
 30
0.0
 11
69.34603
 21
147.880416
 31
0.0
  0
LINE
  5
322
330
74
100
AcDbEntity
  8
Calque 1
100
AcDbLine
 10
69.34603
 20
147.880416
 30
0.0
 11
69.15518500000001
 21
147.179845
 31
0.0
  0
LINE
  5
323
330
74
100
AcDbEntity
  8
Calque 1
100
AcDbLine
 10
69.15518500000001
 20
147.179845
 30
0.0
 11
68.68815999999999
 21
146.689412
 31
0.0
  0
LINE
  5
324
330
74
100
AcDbEntity
  8
Calque 1
100
AcDbLine
 10
68.68815999999999
 20
146.689412
 30
0.0
 11
68.103218
 21
146.509908
 31
0.0
  0
LINE
  5
325
330
74
100
AcDbEntity
  8
Calque 1
100
AcDbLine
 10
68.103218
 20
146.509908
 30
0.0
 11
67.55862399999999
 21
146.74212
 31
0.0
  0
LINE
  5
326
330
74
100
AcDbEntity
  8
Calque 1
100
AcDbLine
 10
67.55862399999999
 20
146.74212
 30
0.0
 11
67.55862399999999
 21
146.74212
 31
0.0
  0
LINE
  5
327
330
74
100
AcDbEntity
  8
Calque 1
100
AcDbLine
 10
91.21636399999999
 20
147.235758
 30
0.0
 11
90.688703
 21
147.911931
 31
0.0
  0
LINE
  5
328
330
74
100
AcDbEntity
  8
Calque 1
100
AcDbLine
 10
90.688703
 20
147.911931
 30
0.0
 11
90.53717500000001
 21
148.501297
 31
0.0
  0
LINE
  5
329
330
74
100
AcDbEntity
  8
Calque 1
100
AcDbLine
 10
90.53717500000001
 20
148.501297
 30
0.0
 11
90.761055
 21
148.993028
 31
0.0
  0
LINE
  5
32A
330
74
100
AcDbEntity
  8
Calque 1
100
AcDbLine
 10
90.761055
 20
148.993028
 30
0.0
 11
91.35961700000001
 21
149.376298
 31
0.0
  0
LINE
  5
32B
330
74
100
AcDbEntity
  8
Calque 1
100
AcDbLine
 10
91.35961700000001
 20
149.376298
 30
0.0
 11
92.08969000000001
 21
149.549768
 31
0.0
  0
LINE
  5
32C
330
74
100
AcDbEntity
  8
Calque 1
100
AcDbLine
 10
92.08969000000001
 20
149.549768
 30
0.0
 11
92.61995999999999
 21
149.388183
 31
0.0
  0
LINE
  5
32D
330
74
100
AcDbEntity
  8
Calque 1
100
AcDbLine
 10
92.61995999999999
 20
149.388183
 30
0.0
 11
92.943329
 21
148.896973
 31
0.0
  0
LINE
  5
32E
330
74
100
AcDbEntity
  8
Calque 1
100
AcDbLine
 10
92.943329
 20
148.896973
 30
0.0
 11
93.052697
 21
148.081567
 31
0.0
  0
LINE
  5
32F
330
74
100
AcDbEntity
  8
Calque 1
100
AcDbLine
 10
93.052697
 20
148.081567
 30
0.0
 11
92.89901400000001
 21
147.232317
 31
0.0
  0
LINE
  5
330
330
74
100
AcDbEntity
  8
Calque 1
100
AcDbLine
 10
92.89901400000001
 20
147.232317
 30
0.0
 11
92.489848
 21
146.784369
 31
0.0
  0
LINE
  5
331
330
74
100
AcDbEntity
  8
Calque 1
100
AcDbLine
 10
92.489848
 20
146.784369
 30
0.0
 11
91.903023
 21
146.773568
 31
0.0
  0
LINE
  5
332
330
74
100
AcDbEntity
  8
Calque 1
100
AcDbLine
 10
91.903023
 20
146.773568
 30
0.0
 11
91.21636399999999
 21
147.235758
 31
0.0
  0
LINE
  5
333
330
74
100
AcDbEntity
  8
Calque 1
100
AcDbLine
 10
91.21636399999999
 20
147.235758
 30
0.0
 11
91.21636399999999
 21
147.235758
 31
0.0
  0
LINE
  5
334
330
74
100
AcDbEntity
  8
Calque 1
100
AcDbLine
 10
83.04980999999999
 20
147.745657
 30
0.0
 11
82.64765699999999
 21
148.844725
 31
0.0
  0
LINE
  5
335
330
74
100
AcDbEntity
  8
Calque 1
100
AcDbLine
 10
82.64765699999999
 20
148.844725
 30
0.0
 11
82.72091000000001
 21
150.024806
 31
0.0
  0
LINE
  5
336
330
74
100
AcDbEntity
  8
Calque 1
100
AcDbLine
 10
82.72091000000001
 20
150.024806
 30
0.0
 11
83.188285
 21
150.966836
 31
0.0
  0
LINE
  5
337
330
74
100
AcDbEntity
  8
Calque 1
100
AcDbLine
 10
83.188285
 20
150.966836
 30
0.0
 11
83.54436599999999
 21
151.248873
 31
0.0
  0
LINE
  5
338
330
74
100
AcDbEntity
  8
Calque 1
100
AcDbLine
 10
83.54436599999999
 20
151.248873
 30
0.0
 11
83.968497
 21
151.351749
 31
0.0
  0
LINE
  5
339
330
74
100
AcDbEntity
  8
Calque 1
100
AcDbLine
 10
83.968497
 20
151.351749
 30
0.0
 11
84.37863099999999
 21
150.947355
 31
0.0
  0
LINE
  5
33A
330
74
100
AcDbEntity
  8
Calque 1
100
AcDbLine
 10
84.37863099999999
 20
150.947355
 30
0.0
 11
84.96371299999999
 21
150.014244
 31
0.0
  0
LINE
  5
33B
330
74
100
AcDbEntity
  8
Calque 1
100
AcDbLine
 10
84.96371299999999
 20
150.014244
 30
0.0
 11
85.487792
 21
148.972519
 31
0.0
  0
LINE
  5
33C
330
74
100
AcDbEntity
  8
Calque 1
100
AcDbLine
 10
85.487792
 20
148.972519
 30
0.0
 11
85.71491899999999
 21
148.242287
 31
0.0
  0
LINE
  5
33D
330
74
100
AcDbEntity
  8
Calque 1
100
AcDbLine
 10
85.71491899999999
 20
148.242287
 30
0.0
 11
85.45406899999999
 21
147.960352
 31
0.0
  0
LINE
  5
33E
330
74
100
AcDbEntity
  8
Calque 1
100
AcDbLine
 10
85.45406899999999
 20
147.960352
 30
0.0
 11
84.84501899999999
 21
147.585836
 31
0.0
  0
LINE
  5
33F
330
74
100
AcDbEntity
  8
Calque 1
100
AcDbLine
 10
84.84501899999999
 20
147.585836
 30
0.0
 11
83.62331899999999
 21
147.118416
 31
0.0
  0
LINE
  5
340
330
74
100
AcDbEntity
  8
Calque 1
100
AcDbLine
 10
83.62331899999999
 20
147.118416
 30
0.0
 11
83.04980999999999
 21
147.745657
 31
0.0
  0
LINE
  5
341
330
74
100
AcDbEntity
  8
Calque 1
100
AcDbLine
 10
83.04980999999999
 20
147.745657
 30
0.0
 11
83.04980999999999
 21
147.745657
 31
0.0
  0
LINE
  5
342
330
74
100
AcDbEntity
  8
Calque 1
100
AcDbLine
 10
86.626203
 20
148.436193
 30
0.0
 11
86.181532
 21
148.773716
 31
0.0
  0
LINE
  5
343
330
74
100
AcDbEntity
  8
Calque 1
100
AcDbLine
 10
86.181532
 20
148.773716
 30
0.0
 11
85.836567
 21
149.33501
 31
0.0
  0
LINE
  5
344
330
74
100
AcDbEntity
  8
Calque 1
100
AcDbLine
 10
85.836567
 20
149.33501
 30
0.0
 11
85.474054
 21
150.797549
 31
0.0
  0
LINE
  5
345
330
74
100
AcDbEntity
  8
Calque 1
100
AcDbLine
 10
85.474054
 20
150.797549
 30
0.0
 11
85.595254
 21
152.161077
 31
0.0
  0
LINE
  5
346
330
74
100
AcDbEntity
  8
Calque 1
100
AcDbLine
 10
85.595254
 20
152.161077
 30
0.0
 11
85.854931
 21
152.598607
 31
0.0
  0
LINE
  5
347
330
74
100
AcDbEntity
  8
Calque 1
100
AcDbLine
 10
85.854931
 20
152.598607
 30
0.0
 11
86.256757
 21
152.76286
 31
0.0
  0
LINE
  5
348
330
74
100
AcDbEntity
  8
Calque 1
100
AcDbLine
 10
86.256757
 20
152.76286
 30
0.0
 11
86.650995
 21
152.656779
 31
0.0
  0
LINE
  5
349
330
74
100
AcDbEntity
  8
Calque 1
100
AcDbLine
 10
86.650995
 20
152.656779
 30
0.0
 11
87.086132
 21
152.369203
 31
0.0
  0
LINE
  5
34A
330
74
100
AcDbEntity
  8
Calque 1
100
AcDbLine
 10
87.086132
 20
152.369203
 30
0.0
 11
87.94572
 21
151.433567
 31
0.0
  0
LINE
  5
34B
330
74
100
AcDbEntity
  8
Calque 1
100
AcDbLine
 10
87.94572
 20
151.433567
 30
0.0
 11
88.568753
 21
150.323953
 31
0.0
  0
LINE
  5
34C
330
74
100
AcDbEntity
  8
Calque 1
100
AcDbLine
 10
88.568753
 20
150.323953
 30
0.0
 11
88.708197
 21
149.818904
 31
0.0
  0
LINE
  5
34D
330
74
100
AcDbEntity
  8
Calque 1
100
AcDbLine
 10
88.708197
 20
149.818904
 30
0.0
 11
88.68846299999999
 21
149.408361
 31
0.0
  0
LINE
  5
34E
330
74
100
AcDbEntity
  8
Calque 1
100
AcDbLine
 10
88.68846299999999
 20
149.408361
 30
0.0
 11
87.925882
 21
148.647349
 31
0.0
  0
LINE
  5
34F
330
74
100
AcDbEntity
  8
Calque 1
100
AcDbLine
 10
87.925882
 20
148.647349
 30
0.0
 11
87.40315799999999
 21
148.344141
 31
0.0
  0
LINE
  5
350
330
74
100
AcDbEntity
  8
Calque 1
100
AcDbLine
 10
87.40315799999999
 20
148.344141
 30
0.0
 11
87.042196
 21
148.269586
 31
0.0
  0
LINE
  5
351
330
74
100
AcDbEntity
  8
Calque 1
100
AcDbLine
 10
87.042196
 20
148.269586
 30
0.0
 11
86.626203
 21
148.436193
 31
0.0
  0
LINE
  5
352
330
74
100
AcDbEntity
  8
Calque 1
100
AcDbLine
 10
86.626203
 20
148.436193
 30
0.0
 11
86.626203
 21
148.436193
 31
0.0
  0
LINE
  5
353
330
74
100
AcDbEntity
  8
Calque 1
100
AcDbLine
 10
93.71191999999998
 20
149.536276
 30
0.0
 11
93.68038799999999
 21
149.93699
 31
0.0
  0
LINE
  5
354
330
74
100
AcDbEntity
  8
Calque 1
100
AcDbLine
 10
93.68038799999999
 20
149.93699
 30
0.0
 11
93.84291899999999
 21
150.279305
 31
0.0
  0
LINE
  5
355
330
74
100
AcDbEntity
  8
Calque 1
100
AcDbLine
 10
93.84291899999999
 20
150.279305
 30
0.0
 11
94.21332300000001
 21
150.462477
 31
0.0
  0
LINE
  5
356
330
74
100
AcDbEntity
  8
Calque 1
100
AcDbLine
 10
94.21332300000001
 20
150.462477
 30
0.0
 11
94.60020400000001
 21
150.387525
 31
0.0
  0
LINE
  5
357
330
74
100
AcDbEntity
  8
Calque 1
100
AcDbLine
 10
94.60020400000001
 20
150.387525
 30
0.0
 11
94.904776
 21
150.105455
 31
0.0
  0
LINE
  5
358
330
74
100
AcDbEntity
  8
Calque 1
100
AcDbLine
 10
94.904776
 20
150.105455
 30
0.0
 11
95.028252
 21
149.667272
 31
0.0
  0
LINE
  5
359
330
74
100
AcDbEntity
  8
Calque 1
100
AcDbLine
 10
95.028252
 20
149.667272
 30
0.0
 11
94.85875300000001
 21
149.258893
 31
0.0
  0
LINE
  5
35A
330
74
100
AcDbEntity
  8
Calque 1
100
AcDbLine
 10
94.85875300000001
 20
149.258893
 30
0.0
 11
94.466561
 21
149.089359
 31
0.0
  0
LINE
  5
35B
330
74
100
AcDbEntity
  8
Calque 1
100
AcDbLine
 10
94.466561
 20
149.089359
 30
0.0
 11
94.02613100000001
 21
149.176033
 31
0.0
  0
LINE
  5
35C
330
74
100
AcDbEntity
  8
Calque 1
100
AcDbLine
 10
94.02613100000001
 20
149.176033
 30
0.0
 11
93.71191999999998
 21
149.536276
 31
0.0
  0
LINE
  5
35D
330
74
100
AcDbEntity
  8
Calque 1
100
AcDbLine
 10
93.71191999999998
 20
149.536276
 30
0.0
 11
93.71191999999998
 21
149.536276
 31
0.0
  0
LINE
  5
35E
330
74
100
AcDbEntity
  8
Calque 1
100
AcDbLine
 10
89.52569799999999
 20
150.403508
 30
0.0
 11
88.99688199999999
 21
151.233636
 31
0.0
  0
LINE
  5
35F
330
74
100
AcDbEntity
  8
Calque 1
100
AcDbLine
 10
88.99688199999999
 20
151.233636
 30
0.0
 11
88.833421
 21
152.143372
 31
0.0
  0
LINE
  5
360
330
74
100
AcDbEntity
  8
Calque 1
100
AcDbLine
 10
88.833421
 20
152.143372
 30
0.0
 11
89.03062400000001
 21
152.900916
 31
0.0
  0
LINE
  5
361
330
74
100
AcDbEntity
  8
Calque 1
100
AcDbLine
 10
89.03062400000001
 20
152.900916
 30
0.0
 11
89.26300799999999
 21
153.150179
 31
0.0
  0
LINE
  5
362
330
74
100
AcDbEntity
  8
Calque 1
100
AcDbLine
 10
89.26300799999999
 20
153.150179
 30
0.0
 11
89.583799
 21
153.27447
 31
0.0
  0
LINE
  5
363
330
74
100
AcDbEntity
  8
Calque 1
100
AcDbLine
 10
89.583799
 20
153.27447
 30
0.0
 11
90.25769100000001
 21
153.250763
 31
0.0
  0
LINE
  5
364
330
74
100
AcDbEntity
  8
Calque 1
100
AcDbLine
 10
90.25769100000001
 20
153.250763
 30
0.0
 11
90.83660400000001
 21
152.982532
 31
0.0
  0
LINE
  5
365
330
74
100
AcDbEntity
  8
Calque 1
100
AcDbLine
 10
90.83660400000001
 20
152.982532
 30
0.0
 11
91.30494200000001
 21
152.481237
 31
0.0
  0
LINE
  5
366
330
74
100
AcDbEntity
  8
Calque 1
100
AcDbLine
 10
91.30494200000001
 20
152.481237
 30
0.0
 11
91.64711199999999
 21
151.758338
 31
0.0
  0
LINE
  5
367
330
74
100
AcDbEntity
  8
Calque 1
100
AcDbLine
 10
91.64711199999999
 20
151.758338
 30
0.0
 11
91.84790300000001
 21
151.078428
 31
0.0
  0
LINE
  5
368
330
74
100
AcDbEntity
  8
Calque 1
100
AcDbLine
 10
91.84790300000001
 20
151.078428
 30
0.0
 11
91.82759899999998
 21
150.688329
 31
0.0
  0
LINE
  5
369
330
74
100
AcDbEntity
  8
Calque 1
100
AcDbLine
 10
91.82759899999998
 20
150.688329
 30
0.0
 11
91.51367399999999
 21
150.452138
 31
0.0
  0
LINE
  5
36A
330
74
100
AcDbEntity
  8
Calque 1
100
AcDbLine
 10
91.51367399999999
 20
150.452138
 30
0.0
 11
90.833603
 21
150.233954
 31
0.0
  0
LINE
  5
36B
330
74
100
AcDbEntity
  8
Calque 1
100
AcDbLine
 10
90.833603
 20
150.233954
 30
0.0
 11
90.04878199999998
 21
150.126708
 31
0.0
  0
LINE
  5
36C
330
74
100
AcDbEntity
  8
Calque 1
100
AcDbLine
 10
90.04878199999998
 20
150.126708
 30
0.0
 11
89.52569799999999
 21
150.403508
 31
0.0
  0
LINE
  5
36D
330
74
100
AcDbEntity
  8
Calque 1
100
AcDbLine
 10
89.52569799999999
 20
150.403508
 30
0.0
 11
89.52569799999999
 21
150.403508
 31
0.0
  0
LINE
  5
36E
330
74
100
AcDbEntity
  8
Calque 1
100
AcDbLine
 10
92.668285
 20
151.493204
 30
0.0
 11
92.488252
 21
152.644832
 31
0.0
  0
LINE
  5
36F
330
74
100
AcDbEntity
  8
Calque 1
100
AcDbLine
 10
92.488252
 20
152.644832
 30
0.0
 11
92.55575099999999
 21
153.031842
 31
0.0
  0
LINE
  5
370
330
74
100
AcDbEntity
  8
Calque 1
100
AcDbLine
 10
92.55575099999999
 20
153.031842
 30
0.0
 11
92.73811399999999
 21
153.256358
 31
0.0
  0
LINE
  5
371
330
74
100
AcDbEntity
  8
Calque 1
100
AcDbLine
 10
92.73811399999999
 20
153.256358
 30
0.0
 11
93.32662500000001
 21
153.264661
 31
0.0
  0
LINE
  5
372
330
74
100
AcDbEntity
  8
Calque 1
100
AcDbLine
 10
93.32662500000001
 20
153.264661
 30
0.0
 11
94.012179
 21
152.76325
 31
0.0
  0
LINE
  5
373
330
74
100
AcDbEntity
  8
Calque 1
100
AcDbLine
 10
94.012179
 20
152.76325
 30
0.0
 11
94.553165
 21
151.845638
 31
0.0
  0
LINE
  5
374
330
74
100
AcDbEntity
  8
Calque 1
100
AcDbLine
 10
94.553165
 20
151.845638
 30
0.0
 11
94.58517699999999
 21
151.486881
 31
0.0
  0
LINE
  5
375
330
74
100
AcDbEntity
  8
Calque 1
100
AcDbLine
 10
94.58517699999999
 20
151.486881
 30
0.0
 11
94.384396
 21
151.347897
 31
0.0
  0
LINE
  5
376
330
74
100
AcDbEntity
  8
Calque 1
100
AcDbLine
 10
94.384396
 20
151.347897
 30
0.0
 11
93.44439599999999
 21
151.184047
 31
0.0
  0
LINE
  5
377
330
74
100
AcDbEntity
  8
Calque 1
100
AcDbLine
 10
93.44439599999999
 20
151.184047
 30
0.0
 11
92.95159599999999
 21
151.180231
 31
0.0
  0
LINE
  5
378
330
74
100
AcDbEntity
  8
Calque 1
100
AcDbLine
 10
92.95159599999999
 20
151.180231
 30
0.0
 11
92.668285
 21
151.493204
 31
0.0
  0
LINE
  5
379
330
74
100
AcDbEntity
  8
Calque 1
100
AcDbLine
 10
92.668285
 20
151.493204
 30
0.0
 11
92.668285
 21
151.493204
 31
0.0
  0
ENDSEC
  0
SECTION
  2
OBJECTS
  0
DICTIONARY
  5
C
330
0
100
AcDbDictionary
281
     1
  3
ACAD_COLOR
350
6A
  3
ACAD_GROUP
350
D
  3
ACAD_LAYOUT
350
69
  3
ACAD_MATERIAL
350
10
  3
ACAD_MLEADERSTYLE
350
6D
  3
ACAD_MLINESTYLE
350
66
  3
ACAD_PLOTSETTINGS
350
68
  3
ACAD_PLOTSTYLENAME
350
E
  3
ACAD_SCALELIST
350
3A
  3
ACAD_TABLESTYLE
350
6B
  3
ACAD_VISUALSTYLE
350
29
  3
ACDB_RECOMPOSE_DATA
350
393
  3
AcDbVariableDictionary
350
38A
  3
DWGPROPS
350
394
  0
DICTIONARY
  5
386
330
5C
100
AcDbDictionary
280
     1
281
     1
  3
ADSK_XREC_LAYER_RECONCILED
360
387
  0
DICTIONARY
  5
388
330
78
100
AcDbDictionary
280
     1
281
     1
  3
ADSK_XREC_LAYER_RECONCILED
360
389
  0
DICTIONARY
  5
6A
102
{ACAD_REACTORS
330
C
102
}
330
C
100
AcDbDictionary
281
     1
  0
DICTIONARY
  5
D
102
{ACAD_REACTORS
330
C
102
}
330
C
100
AcDbDictionary
281
     1
  0
DICTIONARY
  5
69
102
{ACAD_REACTORS
330
C
102
}
330
C
100
AcDbDictionary
281
     1
  3
Model
350
77
  3
Présentation1
350
73
  0
DICTIONARY
  5
10
102
{ACAD_REACTORS
330
C
102
}
330
C
100
AcDbDictionary
281
     1
  3
ByBlock
350
19
  3
ByLayer
350
11
  3
Global
350
21
  0
DICTIONARY
  5
6D
102
{ACAD_REACTORS
330
C
102
}
330
C
100
AcDbDictionary
281
     1
  3
Standard
350
6E
  0
DICTIONARY
  5
66
102
{ACAD_REACTORS
330
C
102
}
330
C
100
AcDbDictionary
281
     1
  3
Standard
350
67
  0
DICTIONARY
  5
68
102
{ACAD_REACTORS
330
C
102
}
330
C
100
AcDbDictionary
281
     1
  0
ACDBDICTIONARYWDFLT
  5
E
102
{ACAD_REACTORS
330
C
102
}
330
C
100
AcDbDictionary
281
     1
  3
Normal
350
F
100
AcDbDictionaryWithDefault
340
F
  0
DICTIONARY
  5
3A
102
{ACAD_REACTORS
330
C
102
}
330
C
100
AcDbDictionary
281
     1
  3
A0
350
3B
  3
A1
350
3C
  3
A2
350
3D
  3
A3
350
3E
  3
A4
350
3F
  3
A5
350
40
  3
A6
350
41
  3
A7
350
42
  3
A8
350
43
  3
A9
350
44
  3
B0
350
45
  3
B1
350
46
  3
B2
350
47
  3
B3
350
48
  3
B4
350
49
  3
B5
350
4A
  3
B6
350
4B
  3
B7
350
4C
  3
B8
350
4D
  3
B9
350
4E
  3
C0
350
4F
  3
C1
350
50
  3
C2
350
51
  3
C3
350
52
  3
C4
350
53
  3
C5
350
54
  3
C6
350
55
  3
C7
350
56
  3
C8
350
57
  3
C9
350
58
  3
D0
350
59
  3
D1
350
5A
  3
D2
350
5B
  0
DICTIONARY
  5
6B
102
{ACAD_REACTORS
330
C
102
}
330
C
100
AcDbDictionary
281
     1
  3
Standard
350
6C
  0
DICTIONARY
  5
29
102
{ACAD_REACTORS
330
C
102
}
330
C
100
AcDbDictionary
281
     1
  3
2dWireframe
350
2F
  3
3D Hidden
350
31
  3
3dWireframe
350
30
  3
Basic
350
2E
  3
Brighten
350
35
  3
ColorChange
350
39
  3
Conceptual
350
32
  3
Dim
350
34
  3
Facepattern
350
38
  3
Flat
350
2A
  3
FlatWithEdges
350
2B
  3
Gouraud
350
2C
  3
GouraudWithEdges
350
2D
  3
Linepattern
350
37
  3
Realistic
350
33
  3
Thicken
350
36
  0
XRECORD
  5
393
102
{ACAD_REACTORS
330
C
102
}
330
C
100
AcDbXrecord
280
     1
 90
        1
330
6C
  0
DICTIONARY
  5
38A
102
{ACAD_REACTORS
330
C
102
}
330
C
100
AcDbDictionary
281
     1
  3
CANNOSCALE
350
38D
  3
CMLEADERSTYLE
350
38C
  3
CTABLESTYLE
350
38B
  3
DIMASSOC
350
390
  3
INDEXCTL
350
38F
  3
SORTENTS
350
38E
  0
XRECORD
  5
394
102
{ACAD_REACTORS
330
C
102
}
330
C
100
AcDbXrecord
280
     1
  1
DWGPROPS COOKIE
  2

  3

  4

  6

  7

  8
Administrateur
  9

300
=
301
=
302
=
303
=
304
=
305
=
306
=
307
=
308
=
309
=
 40
0.0002283796296296
 41
2454976.007122407
 42
2454976.007350347
  1

 90
        0
  0
XRECORD
  5
387
102
{ACAD_REACTORS
330
386
102
}
330
386
100
AcDbXrecord
280
     1
290
     1
  0
XRECORD
  5
389
102
{ACAD_REACTORS
330
388
102
}
330
388
100
AcDbXrecord
280
     1
290
     1
  0
LAYOUT
  5
77
102
{ACAD_XDICTIONARY
360
39B
102
}
102
{ACAD_REACTORS
330
69
102
}
330
69
100
AcDbPlotSettings
  1

  2
Canon PIXMA iP1500
  4

  6

 40
0.0
 41
0.0
 42
0.0
 43
0.0
 44
0.0
 45
0.0
 46
0.0
 47
0.0
 48
0.0
 49
0.0
140
0.0
141
0.0
142
1.0
143
1.0
 70
  1712
 72
     0
 73
     0
 74
     0
  7

 75
     0
147
1.0
148
0.0
149
0.0
100
AcDbLayout
  1
Model
 70
     1
 71
     0
 10
0.0
 20
0.0
 11
12.0
 21
9.0
 12
0.0
 22
0.0
 32
0.0
 14
0.0
 24
0.0
 34
0.0
 15
0.0
 25
0.0
 35
0.0
146
0.0
 13
0.0
 23
0.0
 33
0.0
 16
1.0
 26
0.0
 36
0.0
 17
0.0
 27
1.0
 37
0.0
 76
     0
330
74
331
385
  0
LAYOUT
  5
73
102
{ACAD_XDICTIONARY
360
399
102
}
102
{ACAD_REACTORS
330
69
102
}
330
69
100
AcDbPlotSettings
  1

  2
Canon PIXMA iP1500
  4

  6

 40
0.0
 41
0.0
 42
0.0
 43
0.0
 44
0.0
 45
0.0
 46
0.0
 47
0.0
 48
0.0
 49
0.0
140
0.0
141
0.0
142
1.0
143
1.0
 70
   688
 72
     0
 73
     0
 74
     5
  7

 75
    16
147
1.0
148
0.0
149
0.0
100
AcDbLayout
  1
Présentation1
 70
     1
 71
     1
 10
0.0
 20
0.0
 11
12.0
 21
9.0
 12
0.0
 22
0.0
 32
0.0
 14
1.000000000000000E+20
 24
1.000000000000000E+20
 34
1.000000000000000E+20
 15
-1.000000000000000E+20
 25
-1.000000000000000E+20
 35
-1.000000000000000E+20
146
0.0
 13
0.0
 23
0.0
 33
0.0
 16
1.0
 26
0.0
 36
0.0
 17
0.0
 27
1.0
 37
0.0
 76
     0
330
70
  0
MATERIAL
  5
19
102
{ACAD_XDICTIONARY
360
1A
102
}
102
{ACAD_REACTORS
330
10
102
}
330
10
100
AcDbMaterial
  1
ByBlock
 72
     0
 43
0.0208333333333333
 43
0.0
 43
0.0
 43
0.0
 43
0.0
 43
0.0208333333333333
 43
0.0
 43
0.0
 43
0.0
 43
0.0
 43
1.0
 43
0.0
 43
0.0
 43
0.0
 43
0.0
 43
1.0
 77
     0
 47
0.0208333333333333
 47
0.0
 47
0.0
 47
0.0
 47
0.0
 47
0.0208333333333333
 47
0.0
 47
0.0
 47
0.0
 47
0.0
 47
1.0
 47
0.0
 47
0.0
 47
0.0
 47
0.0
 47
1.0
171
     0
 49
0.0208333333333333
 49
0.0
 49
0.0
 49
0.0
 49
0.0
 49
0.0208333333333333
 49
0.0
 49
0.0
 49
0.0
 49
0.0
 49
1.0
 49
0.0
 49
0.0
 49
0.0
 49
0.0
 49
1.0
175
     0
142
0.0208333333333333
142
0.0
142
0.0
142
0.0
142
0.0
142
0.0208333333333333
142
0.0
142
0.0
142
0.0
142
0.0
142
1.0
142
0.0
142
0.0
142
0.0
142
0.0
142
1.0
179
     0
144
0.0208333333333333
144
0.0
144
0.0
144
0.0
144
0.0
144
0.0208333333333333
144
0.0
144
0.0
144
0.0
144
0.0
144
1.0
144
0.0
144
0.0
144
0.0
144
0.0
144
1.0
147
0.0208333333333333
147
0.0
147
0.0
147
0.0
147
0.0
147
0.0208333333333333
147
0.0
147
0.0
147
0.0
147
0.0
147
1.0
147
0.0
147
0.0
147
0.0
147
0.0
147
1.0
  0
MATERIAL
  5
11
102
{ACAD_XDICTIONARY
360
12
102
}
102
{ACAD_REACTORS
330
10
102
}
330
10
100
AcDbMaterial
  1
ByLayer
 72
     0
 43
0.0208333333333333
 43
0.0
 43
0.0
 43
0.0
 43
0.0
 43
0.0208333333333333
 43
0.0
 43
0.0
 43
0.0
 43
0.0
 43
1.0
 43
0.0
 43
0.0
 43
0.0
 43
0.0
 43
1.0
 77
     0
 47
0.0208333333333333
 47
0.0
 47
0.0
 47
0.0
 47
0.0
 47
0.0208333333333333
 47
0.0
 47
0.0
 47
0.0
 47
0.0
 47
1.0
 47
0.0
 47
0.0
 47
0.0
 47
0.0
 47
1.0
171
     0
 49
0.0208333333333333
 49
0.0
 49
0.0
 49
0.0
 49
0.0
 49
0.0208333333333333
 49
0.0
 49
0.0
 49
0.0
 49
0.0
 49
1.0
 49
0.0
 49
0.0
 49
0.0
 49
0.0
 49
1.0
175
     0
142
0.0208333333333333
142
0.0
142
0.0
142
0.0
142
0.0
142
0.0208333333333333
142
0.0
142
0.0
142
0.0
142
0.0
142
1.0
142
0.0
142
0.0
142
0.0
142
0.0
142
1.0
179
     0
144
0.0208333333333333
144
0.0
144
0.0
144
0.0
144
0.0
144
0.0208333333333333
144
0.0
144
0.0
144
0.0
144
0.0
144
1.0
144
0.0
144
0.0
144
0.0
144
0.0
144
1.0
147
0.0208333333333333
147
0.0
147
0.0
147
0.0
147
0.0
147
0.0208333333333333
147
0.0
147
0.0
147
0.0
147
0.0
147
1.0
147
0.0
147
0.0
147
0.0
147
0.0
147
1.0
  0
MATERIAL
  5
21
102
{ACAD_XDICTIONARY
360
22
102
}
102
{ACAD_REACTORS
330
10
102
}
330
10
100
AcDbMaterial
  1
Global
 72
     0
 43
0.0208333333333333
 43
0.0
 43
0.0
 43
0.0
 43
0.0
 43
0.0208333333333333
 43
0.0
 43
0.0
 43
0.0
 43
0.0
 43
1.0
 43
0.0
 43
0.0
 43
0.0
 43
0.0
 43
1.0
 77
     0
 47
0.0208333333333333
 47
0.0
 47
0.0
 47
0.0
 47
0.0
 47
0.0208333333333333
 47
0.0
 47
0.0
 47
0.0
 47
0.0
 47
1.0
 47
0.0
 47
0.0
 47
0.0
 47
0.0
 47
1.0
171
     0
 49
0.0208333333333333
 49
0.0
 49
0.0
 49
0.0
 49
0.0
 49
0.0208333333333333
 49
0.0
 49
0.0
 49
0.0
 49
0.0
 49
1.0
 49
0.0
 49
0.0
 49
0.0
 49
0.0
 49
1.0
175
     0
142
0.0208333333333333
142
0.0
142
0.0
142
0.0
142
0.0
142
0.0208333333333333
142
0.0
142
0.0
142
0.0
142
0.0
142
1.0
142
0.0
142
0.0
142
0.0
142
0.0
142
1.0
179
     0
144
0.0208333333333333
144
0.0
144
0.0
144
0.0
144
0.0
144
0.0208333333333333
144
0.0
144
0.0
144
0.0
144
0.0
144
1.0
144
0.0
144
0.0
144
0.0
144
0.0
144
1.0
147
0.0208333333333333
147
0.0
147
0.0
147
0.0
147
0.0
147
0.0208333333333333
147
0.0
147
0.0
147
0.0
147
0.0
147
1.0
147
0.0
147
0.0
147
0.0
147
0.0
147
1.0
  0
MLEADERSTYLE
  5
6E
102
{ACAD_REACTORS
330
6D
102
}
330
6D
100
AcDbMLeaderStyle
170
     2
171
     1
172
     0
 90
        2
 40
0.0
 41
0.0
173
     1
 91
-1056964608
340
62
 92
       -2
290
     1
 42
0.09
291
     1
 43
0.36
  3
Standard
 44
0.18
300

342
5D
174
     1
178
     6
175
     1
176
     0
 93
-1056964608
 45
0.18
292
     0
297
     0
 46
0.18
 94
-1056964608
 47
1.0
 49
1.0
140
1.0
293
     1
141
0.0
294
     1
177
     0
142
1.0
295
     0
296
     0
143
0.125
1001
ACAD_MLEADERVER
1070
     2
  0
MLINESTYLE
  5
67
102
{ACAD_REACTORS
330
66
102
}
330
66
100
AcDbMlineStyle
  2
STANDARD
 70
     0
  3

 62
   256
 51
90.0
 52
90.0
 71
     2
 49
0.5
 62
   256
  6
BYLAYER
 49
-0.5
 62
   256
  6
BYLAYER
  0
ACDBPLACEHOLDER
  5
F
102
{ACAD_REACTORS
330
E
102
}
330
E
  0
SCALE
  5
3B
102
{ACAD_REACTORS
330
3A
102
}
330
3A
100
AcDbScale
 70
     0
300
1:1
140
1.0
141
1.0
290
     1
  0
SCALE
  5
3C
102
{ACAD_REACTORS
330
3A
102
}
330
3A
100
AcDbScale
 70
     0
300
1:2
140
1.0
141
2.0
290
     0
  0
SCALE
  5
3D
102
{ACAD_REACTORS
330
3A
102
}
330
3A
100
AcDbScale
 70
     0
300
1:4
140
1.0
141
4.0
290
     0
  0
SCALE
  5
3E
102
{ACAD_REACTORS
330
3A
102
}
330
3A
100
AcDbScale
 70
     0
300
1:5
140
1.0
141
5.0
290
     0
  0
SCALE
  5
3F
102
{ACAD_REACTORS
330
3A
102
}
330
3A
100
AcDbScale
 70
     0
300
1:8
140
1.0
141
8.0
290
     0
  0
SCALE
  5
40
102
{ACAD_REACTORS
330
3A
102
}
330
3A
100
AcDbScale
 70
     0
300
1:10
140
1.0
141
10.0
290
     0
  0
SCALE
  5
41
102
{ACAD_REACTORS
330
3A
102
}
330
3A
100
AcDbScale
 70
     0
300
1:16
140
1.0
141
16.0
290
     0
  0
SCALE
  5
42
102
{ACAD_REACTORS
330
3A
102
}
330
3A
100
AcDbScale
 70
     0
300
1:20
140
1.0
141
20.0
290
     0
  0
SCALE
  5
43
102
{ACAD_REACTORS
330
3A
102
}
330
3A
100
AcDbScale
 70
     0
300
1:30
140
1.0
141
30.0
290
     0
  0
SCALE
  5
44
102
{ACAD_REACTORS
330
3A
102
}
330
3A
100
AcDbScale
 70
     0
300
1:40
140
1.0
141
40.0
290
     0
  0
SCALE
  5
45
102
{ACAD_REACTORS
330
3A
102
}
330
3A
100
AcDbScale
 70
     0
300
1:50
140
1.0
141
50.0
290
     0
  0
SCALE
  5
46
102
{ACAD_REACTORS
330
3A
102
}
330
3A
100
AcDbScale
 70
     0
300
1:100
140
1.0
141
100.0
290
     0
  0
SCALE
  5
47
102
{ACAD_REACTORS
330
3A
102
}
330
3A
100
AcDbScale
 70
     0
300
2:1
140
2.0
141
1.0
290
     0
  0
SCALE
  5
48
102
{ACAD_REACTORS
330
3A
102
}
330
3A
100
AcDbScale
 70
     0
300
4:1
140
4.0
141
1.0
290
     0
  0
SCALE
  5
49
102
{ACAD_REACTORS
330
3A
102
}
330
3A
100
AcDbScale
 70
     0
300
8:1
140
8.0
141
1.0
290
     0
  0
SCALE
  5
4A
102
{ACAD_REACTORS
330
3A
102
}
330
3A
100
AcDbScale
 70
     0
300
10:1
140
10.0
141
1.0
290
     0
  0
SCALE
  5
4B
102
{ACAD_REACTORS
330
3A
102
}
330
3A
100
AcDbScale
 70
     0
300
100:1
140
100.0
141
1.0
290
     0
  0
SCALE
  5
4C
102
{ACAD_REACTORS
330
3A
102
}
330
3A
100
AcDbScale
 70
     0
300
1/128" = 1'-0"
140
0.0078125
141
12.0
290
     0
  0
SCALE
  5
4D
102
{ACAD_REACTORS
330
3A
102
}
330
3A
100
AcDbScale
 70
     0
300
1/64" = 1'-0"
140
0.015625
141
12.0
290
     0
  0
SCALE
  5
4E
102
{ACAD_REACTORS
330
3A
102
}
330
3A
100
AcDbScale
 70
     0
300
1/32" = 1'-0"
140
0.03125
141
12.0
290
     0
  0
SCALE
  5
4F
102
{ACAD_REACTORS
330
3A
102
}
330
3A
100
AcDbScale
 70
     0
300
1/16" = 1'-0"
140
0.0625
141
12.0
290
     0
  0
SCALE
  5
50
102
{ACAD_REACTORS
330
3A
102
}
330
3A
100
AcDbScale
 70
     0
300
3/32" = 1'-0"
140
0.09375
141
12.0
290
     0
  0
SCALE
  5
51
102
{ACAD_REACTORS
330
3A
102
}
330
3A
100
AcDbScale
 70
     0
300
1/8" = 1'-0"
140
0.125
141
12.0
290
     0
  0
SCALE
  5
52
102
{ACAD_REACTORS
330
3A
102
}
330
3A
100
AcDbScale
 70
     0
300
3/16" = 1'-0"
140
0.1875
141
12.0
290
     0
  0
SCALE
  5
53
102
{ACAD_REACTORS
330
3A
102
}
330
3A
100
AcDbScale
 70
     0
300
1/4" = 1'-0"
140
0.25
141
12.0
290
     0
  0
SCALE
  5
54
102
{ACAD_REACTORS
330
3A
102
}
330
3A
100
AcDbScale
 70
     0
300
3/8" = 1'-0"
140
0.375
141
12.0
290
     0
  0
SCALE
  5
55
102
{ACAD_REACTORS
330
3A
102
}
330
3A
100
AcDbScale
 70
     0
300
1/2" = 1'-0"
140
0.5
141
12.0
290
     0
  0
SCALE
  5
56
102
{ACAD_REACTORS
330
3A
102
}
330
3A
100
AcDbScale
 70
     0
300
3/4" = 1'-0"
140
0.75
141
12.0
290
     0
  0
SCALE
  5
57
102
{ACAD_REACTORS
330
3A
102
}
330
3A
100
AcDbScale
 70
     0
300
1" = 1'-0"
140
1.0
141
12.0
290
     0
  0
SCALE
  5
58
102
{ACAD_REACTORS
330
3A
102
}
330
3A
100
AcDbScale
 70
     0
300
1-1/2" = 1'-0"
140
1.5
141
12.0
290
     0
  0
SCALE
  5
59
102
{ACAD_REACTORS
330
3A
102
}
330
3A
100
AcDbScale
 70
     0
300
3" = 1'-0"
140
3.0
141
12.0
290
     0
  0
SCALE
  5
5A
102
{ACAD_REACTORS
330
3A
102
}
330
3A
100
AcDbScale
 70
     0
300
6" = 1'-0"
140
6.0
141
12.0
290
     0
  0
SCALE
  5
5B
102
{ACAD_REACTORS
330
3A
102
}
330
3A
100
AcDbScale
 70
     0
300
1'-0" = 1'-0"
140
12.0
141
12.0
290
     0
  0
TABLESTYLE
  5
6C
102
{ACAD_XDICTIONARY
360
391
102
}
102
{ACAD_REACTORS
330
6B
102
}
330
6B
100
AcDbTableStyle
  3
Standard
 70
     0
 71
     0
 40
0.06
 41
0.06
280
     0
281
     0
  7
Standard
140
0.18
170
     2
 62
     0
 63
     7
283
     0
274
    -2
284
     1
 64
     0
275
    -2
285
     1
 65
     0
276
    -2
286
     1
 66
     0
277
    -2
287
     1
 67
     0
278
    -2
288
     1
 68
     0
279
    -2
289
     1
 69
     0
  7
Standard
140
0.25
170
     5
 62
     0
 63
     7
283
     0
274
    -2
284
     1
 64
     0
275
    -2
285
     1
 65
     0
276
    -2
286
     1
 66
     0
277
    -2
287
     1
 67
     0
278
    -2
288
     1
 68
     0
279
    -2
289
     1
 69
     0
  7
Standard
140
0.18
170
     5
 62
     0
 63
     7
283
     0
274
    -2
284
     1
 64
     0
275
    -2
285
     1
 65
     0
276
    -2
286
     1
 66
     0
277
    -2
287
     1
 67
     0
278
    -2
288
     1
 68
     0
279
    -2
289
     1
 69
     0
  0
VISUALSTYLE
  5
2F
102
{ACAD_REACTORS
330
29
102
}
330
29
100
AcDbVisualStyle
  2
2dWireframe
 70
     4
 71
     0
 72
     2
 73
     0
 90
        0
 40
-0.6
 41
-30.0
 62
     5
 63
     7
 74
     1
 91
        4
 64
     7
 65
   257
 75
     1
175
     1
 42
1.0
 92
        0
 66
   257
 43
1.0
 76
     1
 77
     6
 78
     2
 67
     7
 79
     5
170
     0
171
     0
290
     0
174
     0
 93
        1
 44
0.0
173
     0
291
     0
 45
0.0
1001
ACAD
1000
AcDbSavedByObjectVersion
1070
     0
  0
VISUALSTYLE
  5
31
102
{ACAD_REACTORS
330
29
102
}
330
29
100
AcDbVisualStyle
  2
3D Hidden
 70
     6
 71
     1
 72
     2
 73
     2
 90
        0
 40
-0.6
 41
-30.0
 62
     5
 63
     7
 74
     2
 91
        2
 64
     7
 65
   257
 75
     2
175
     1
 42
40.0
 92
        0
 66
   257
 43
1.0
 76
     1
 77
     6
 78
     2
 67
     7
 79
     3
170
     0
171
     0
290
     0
174
     0
 93
        1
 44
0.0
173
     0
291
     0
 45
0.0
1001
ACAD
1000
AcDbSavedByObjectVersion
1070
     0
  0
VISUALSTYLE
  5
30
102
{ACAD_REACTORS
330
29
102
}
330
29
100
AcDbVisualStyle
  2
3dWireframe
 70
     5
 71
     0
 72
     2
 73
     0
 90
        0
 40
-0.6
 41
-30.0
 62
     5
 63
     7
 74
     1
 91
        4
 64
     7
 65
   257
 75
     1
175
     1
 42
1.0
 92
        0
 66
   257
 43
1.0
 76
     1
 77
     6
 78
     2
 67
     7
 79
     5
170
     0
171
     0
290
     0
174
     0
 93
        1
 44
0.0
173
     0
291
     0
 45
0.0
1001
ACAD
1000
AcDbSavedByObjectVersion
1070
     0
  0
VISUALSTYLE
  5
2E
102
{ACAD_REACTORS
330
29
102
}
330
29
100
AcDbVisualStyle
  2
Basic
 70
     7
 71
     1
 72
     0
 73
     1
 90
        0
 40
-0.6
 41
-30.0
 62
     5
 63
     7
 74
     0
 91
        4
 64
     7
 65
   257
 75
     1
175
     1
 42
1.0
 92
        8
 66
     7
 43
1.0
 76
     1
 77
     6
 78
     2
 67
     7
 79
     5
170
     0
171
     0
290
     0
174
     0
 93
        1
 44
0.0
173
     0
291
     1
 45
0.0
1001
ACAD
1000
AcDbSavedByObjectVersion
1070
     0
  0
VISUALSTYLE
  5
35
102
{ACAD_REACTORS
330
29
102
}
330
29
100
AcDbVisualStyle
  2
Brighten
 70
    12
 71
     2
 72
     2
 73
     0
 90
        0
 40
-0.6
 41
-30.0
 62
     5
 63
     7
 74
     1
 91
        4
 64
     7
 65
   257
 75
     1
175
     1
 42
1.0
 92
        8
 66
     7
 43
1.0
 76
     1
 77
     6
 78
     2
 67
     7
 79
     5
170
     0
171
     0
290
     0
174
     0
 93
        1
 44
50.0
173
     0
291
     1
 45
0.0
1001
ACAD
1000
AcDbSavedByObjectVersion
1070
     0
  0
VISUALSTYLE
  5
39
102
{ACAD_REACTORS
330
29
102
}
330
29
100
AcDbVisualStyle
  2
ColorChange
 70
    16
 71
     2
 72
     2
 73
     3
 90
        0
 40
-0.6
 41
-30.0
 62
     5
 63
     8
 74
     1
 91
        4
 64
     7
 65
   257
 75
     1
175
     1
 42
1.0
 92
        8
 66
     8
 43
1.0
 76
     1
 77
     6
 78
     2
 67
     7
 79
     5
170
     0
171
     0
290
     0
174
     0
 93
        1
 44
0.0
173
     0
291
     1
 45
0.0
1001
ACAD
1000
AcDbSavedByObjectVersion
1070
     0
  0
VISUALSTYLE
  5
32
102
{ACAD_REACTORS
330
29
102
}
330
29
100
AcDbVisualStyle
  2
Conceptual
 70
     9
 71
     3
 72
     2
 73
     0
 90
        0
 40
-0.6
 41
-30.0
 62
     5
 63
     7
 74
     2
 91
        2
 64
     7
 65
   257
 75
     1
175
     1
 42
40.0
 92
        8
 66
     7
 43
1.0
 76
     1
 77
     6
 78
     2
 67
     7
 79
     3
170
     0
171
     0
290
     0
174
     0
 93
        1
 44
0.0
173
     0
291
     0
 45
0.0
1001
ACAD
1000
AcDbSavedByObjectVersion
1070
     0
  0
VISUALSTYLE
  5
34
102
{ACAD_REACTORS
330
29
102
}
330
29
100
AcDbVisualStyle
  2
Dim
 70
    11
 71
     2
 72
     2
 73
     0
 90
        0
 40
-0.6
 41
-30.0
 62
     5
 63
     7
 74
     1
 91
        4
 64
     7
 65
   257
 75
     1
175
     1
 42
1.0
 92
        8
 66
     7
 43
1.0
 76
     1
 77
     6
 78
     2
 67
     7
 79
     5
170
     0
171
     0
290
     0
174
     0
 93
        1
 44
-50.0
173
     0
291
     1
 45
0.0
1001
ACAD
1000
AcDbSavedByObjectVersion
1070
     0
  0
VISUALSTYLE
  5
38
102
{ACAD_REACTORS
330
29
102
}
330
29
100
AcDbVisualStyle
  2
Facepattern
 70
    15
 71
     2
 72
     2
 73
     0
 90
        0
 40
-0.6
 41
-30.0
 62
     5
 63
     7
 74
     1
 91
        4
 64
     7
 65
   257
 75
     1
175
     1
 42
1.0
 92
        8
 66
     7
 43
1.0
 76
     1
 77
     6
 78
     2
 67
     7
 79
     5
170
     0
171
     0
290
     0
174
     0
 93
        1
 44
0.0
173
     0
291
     1
 45
0.0
1001
ACAD
1000
AcDbSavedByObjectVersion
1070
     0
  0
VISUALSTYLE
  5
2A
102
{ACAD_REACTORS
330
29
102
}
330
29
100
AcDbVisualStyle
  2
Flat
 70
     0
 71
     2
 72
     1
 73
     1
 90
        2
 40
-0.6
 41
30.0
 62
     5
 63
     7
 74
     0
 91
        4
 64
     7
 65
   257
 75
     1
175
     1
 42
1.0
 92
        8
 66
     7
 43
1.0
 76
     1
 77
     6
 78
     2
 67
     7
 79
     5
170
     0
171
     0
290
     0
174
     0
 93
       13
 44
0.0
173
     0
291
     1
 45
0.0
1001
ACAD
1000
AcDbSavedByObjectVersion
1070
     0
  0
VISUALSTYLE
  5
2B
102
{ACAD_REACTORS
330
29
102
}
330
29
100
AcDbVisualStyle
  2
FlatWithEdges
 70
     1
 71
     2
 72
     1
 73
     1
 90
        2
 40
-0.6
 41
30.0
 62
     5
 63
     7
 74
     1
 91
        4
 64
     7
 65
   257
 75
     1
175
     1
 42
1.0
 92
        0
 66
   257
 43
1.0
 76
     1
 77
     6
 78
     2
 67
     7
 79
     5
170
     0
171
     0
290
     0
174
     0
 93
       13
 44
0.0
173
     0
291
     1
 45
0.0
1001
ACAD
1000
AcDbSavedByObjectVersion
1070
     0
  0
VISUALSTYLE
  5
2C
102
{ACAD_REACTORS
330
29
102
}
330
29
100
AcDbVisualStyle
  2
Gouraud
 70
     2
 71
     2
 72
     2
 73
     1
 90
        2
 40
-0.6
 41
30.0
 62
     5
 63
     7
 74
     0
 91
        4
 64
     7
 65
   257
 75
     1
175
     1
 42
1.0
 92
        0
 66
     7
 43
1.0
 76
     1
 77
     6
 78
     2
 67
     7
 79
     5
170
     0
171
     0
290
     0
174
     0
 93
       13
 44
0.0
173
     0
291
     1
 45
0.0
1001
ACAD
1000
AcDbSavedByObjectVersion
1070
     0
  0
VISUALSTYLE
  5
2D
102
{ACAD_REACTORS
330
29
102
}
330
29
100
AcDbVisualStyle
  2
GouraudWithEdges
 70
     3
 71
     2
 72
     2
 73
     1
 90
        2
 40
-0.6
 41
30.0
 62
     5
 63
     7
 74
     1
 91
        4
 64
     7
 65
   257
 75
     1
175
     1
 42
1.0
 92
        0
 66
   257
 43
1.0
 76
     1
 77
     6
 78
     2
 67
     7
 79
     5
170
     0
171
     0
290
     0
174
     0
 93
       13
 44
0.0
173
     0
291
     1
 45
0.0
1001
ACAD
1000
AcDbSavedByObjectVersion
1070
     0
  0
VISUALSTYLE
  5
37
102
{ACAD_REACTORS
330
29
102
}
330
29
100
AcDbVisualStyle
  2
Linepattern
 70
    14
 71
     2
 72
     2
 73
     0
 90
        0
 40
-0.6
 41
-30.0
 62
     5
 63
     7
 74
     1
 91
        4
 64
     7
 65
   257
 75
     7
175
     7
 42
1.0
 92
        8
 66
     7
 43
1.0
 76
     1
 77
     6
 78
     2
 67
     7
 79
     5
170
     0
171
     0
290
     0
174
     0
 93
        1
 44
0.0
173
     0
291
     1
 45
0.0
1001
ACAD
1000
AcDbSavedByObjectVersion
1070
     0
  0
VISUALSTYLE
  5
33
102
{ACAD_REACTORS
330
29
102
}
330
29
100
AcDbVisualStyle
  2
Realistic
 70
     8
 71
     2
 72
     2
 73
     0
 90
        0
 40
-0.6
 41
-30.0
 62
     5
 63
     7
 74
     1
 91
        0
 64
     7
 65
   257
 75
     1
175
     1
 42
1.0
 92
        8
 66
     8
 43
1.0
 76
     1
 77
     6
 78
     2
 67
     7
 79
     5
170
     0
171
     0
290
     0
174
     0
 93
       13
 44
0.0
173
     0
291
     0
 45
0.0
1001
ACAD
1000
AcDbSavedByObjectVersion
1070
     0
  0
VISUALSTYLE
  5
36
102
{ACAD_REACTORS
330
29
102
}
330
29
100
AcDbVisualStyle
  2
Thicken
 70
    13
 71
     2
 72
     2
 73
     0
 90
        0
 40
-0.6
 41
-30.0
 62
     5
 63
     7
 74
     1
 91
        4
 64
     7
 65
   257
 75
     1
175
     1
 42
1.0
 92
       12
 66
     7
 43
1.0
 76
     1
 77
     6
 78
     2
 67
     7
 79
     5
170
     0
171
     0
290
     0
174
     0
 93
        1
 44
0.0
173
     0
291
     1
 45
0.0
1001
ACAD
1000
AcDbSavedByObjectVersion
1070
     0
  0
DICTIONARYVAR
  5
38D
102
{ACAD_REACTORS
330
38A
102
}
330
38A
100
DictionaryVariables
280
     0
  1
1:1
  0
DICTIONARYVAR
  5
38C
102
{ACAD_REACTORS
330
38A
102
}
330
38A
100
DictionaryVariables
280
     0
  1
STANDARD
  0
DICTIONARYVAR
  5
38B
102
{ACAD_REACTORS
330
38A
102
}
330
38A
100
DictionaryVariables
280
     0
  1
STANDARD
  0
DICTIONARYVAR
  5
390
102
{ACAD_REACTORS
330
38A
102
}
330
38A
100
DictionaryVariables
280
     0
  1
1
  0
DICTIONARYVAR
  5
38F
102
{ACAD_REACTORS
330
38A
102
}
330
38A
100
DictionaryVariables
280
     0
  1
0
  0
DICTIONARYVAR
  5
38E
102
{ACAD_REACTORS
330
38A
102
}
330
38A
100
DictionaryVariables
280
     0
  1
127
  0
DICTIONARY
  5
39B
330
77
100
AcDbDictionary
280
     1
281
     1
  3
ACAD_XREC_ROUNDTRIP
360
39C
  0
DICTIONARY
  5
399
330
73
100
AcDbDictionary
280
     1
281
     1
  3
ACAD_XREC_ROUNDTRIP
360
39A
  0
DICTIONARY
  5
1A
330
19
100
AcDbDictionary
280
     1
281
     1
  3
ACAD_XREC_ROUNDTRIP
360
396
  3
BUMPTILE
360
1C
  3
DIFFUSETILE
360
1B
  3
OPACITYTILE
360
1F
  3
REFLECTIONTILE
360
1E
  3
REFRACTIONTILE
360
20
  3
SPECULARTILE
360
1D
  0
DICTIONARY
  5
12
330
11
100
AcDbDictionary
280
     1
281
     1
  3
ACAD_XREC_ROUNDTRIP
360
395
  3
BUMPTILE
360
14
  3
DIFFUSETILE
360
13
  3
OPACITYTILE
360
17
  3
REFLECTIONTILE
360
16
  3
REFRACTIONTILE
360
18
  3
SPECULARTILE
360
15
  0
DICTIONARY
  5
22
330
21
100
AcDbDictionary
280
     1
281
     1
  3
ACAD_XREC_ROUNDTRIP
360
397
  3
BUMPTILE
360
24
  3
DIFFUSETILE
360
23
  3
OPACITYTILE
360
27
  3
REFLECTIONTILE
360
26
  3
REFRACTIONTILE
360
28
  3
SPECULARTILE
360
25
  0
DICTIONARY
  5
391
330
6C
100
AcDbDictionary
280
     1
281
     1
  3
ACAD_ROUNDTRIP_2008_TABLESTYLE_CELLSTYLEMAP
360
392
  3
ACAD_XREC_ROUNDTRIP
360
398
  0
XRECORD
  5
39C
102
{ACAD_REACTORS
330
39B
102
}
330
39B
100
AcDbXrecord
280
     1
102
SHADEPLOT
 70
     0
102
SHADEPLOTRESLEVEL
 70
     2
102
SHADEPLOTCUSTOMDPI
 70
   300
  0
XRECORD
  5
39A
102
{ACAD_REACTORS
330
399
102
}
330
399
100
AcDbXrecord
280
     1
102
SHADEPLOT
 70
     0
102
SHADEPLOTRESLEVEL
 70
     2
102
SHADEPLOTCUSTOMDPI
 70
   300
  0
XRECORD
  5
396
102
{ACAD_REACTORS
330
1A
102
}
330
1A
100
AcDbXrecord
280
     1
102
MATERIAL
148
0.0
149
0.0
149
0.0
 93
        0
 94
      127
282
     0
 72
     0
 77
     0
171
     0
175
     0
179
     0
273
     0
  0
XRECORD
  5
1C
102
{ACAD_REACTORS
330
1A
102
}
330
1A
100
AcDbXrecord
280
     1
270
     1
271
     1
  0
XRECORD
  5
1B
102
{ACAD_REACTORS
330
1A
102
}
330
1A
100
AcDbXrecord
280
     1
270
     1
271
     1
  0
XRECORD
  5
1F
102
{ACAD_REACTORS
330
1A
102
}
330
1A
100
AcDbXrecord
280
     1
270
     1
271
     1
  0
XRECORD
  5
1E
102
{ACAD_REACTORS
330
1A
102
}
330
1A
100
AcDbXrecord
280
     1
270
     1
271
     1
  0
XRECORD
  5
20
102
{ACAD_REACTORS
330
1A
102
}
330
1A
100
AcDbXrecord
280
     1
270
     1
271
     1
  0
XRECORD
  5
1D
102
{ACAD_REACTORS
330
1A
102
}
330
1A
100
AcDbXrecord
280
     1
270
     1
271
     1
  0
XRECORD
  5
395
102
{ACAD_REACTORS
330
12
102
}
330
12
100
AcDbXrecord
280
     1
102
MATERIAL
148
0.0
149
0.0
149
0.0
 93
        0
 94
      127
282
     0
 72
     0
 77
     0
171
     0
175
     0
179
     0
273
     0
  0
XRECORD
  5
14
102
{ACAD_REACTORS
330
12
102
}
330
12
100
AcDbXrecord
280
     1
270
     1
271
     1
  0
XRECORD
  5
13
102
{ACAD_REACTORS
330
12
102
}
330
12
100
AcDbXrecord
280
     1
270
     1
271
     1
  0
XRECORD
  5
17
102
{ACAD_REACTORS
330
12
102
}
330
12
100
AcDbXrecord
280
     1
270
     1
271
     1
  0
XRECORD
  5
16
102
{ACAD_REACTORS
330
12
102
}
330
12
100
AcDbXrecord
280
     1
270
     1
271
     1
  0
XRECORD
  5
18
102
{ACAD_REACTORS
330
12
102
}
330
12
100
AcDbXrecord
280
     1
270
     1
271
     1
  0
XRECORD
  5
15
102
{ACAD_REACTORS
330
12
102
}
330
12
100
AcDbXrecord
280
     1
270
     1
271
     1
  0
XRECORD
  5
397
102
{ACAD_REACTORS
330
22
102
}
330
22
100
AcDbXrecord
280
     1
102
MATERIAL
148
0.0
149
0.0
149
0.0
 93
        0
 94
      127
282
     0
 72
     0
 77
     0
171
     0
175
     0
179
     0
273
     0
  0
XRECORD
  5
24
102
{ACAD_REACTORS
330
22
102
}
330
22
100
AcDbXrecord
280
     1
270
     1
271
     1
  0
XRECORD
  5
23
102
{ACAD_REACTORS
330
22
102
}
330
22
100
AcDbXrecord
280
     1
270
     1
271
     1
  0
XRECORD
  5
27
102
{ACAD_REACTORS
330
22
102
}
330
22
100
AcDbXrecord
280
     1
270
     1
271
     1
  0
XRECORD
  5
26
102
{ACAD_REACTORS
330
22
102
}
330
22
100
AcDbXrecord
280
     1
270
     1
271
     1
  0
XRECORD
  5
28
102
{ACAD_REACTORS
330
22
102
}
330
22
100
AcDbXrecord
280
     1
270
     1
271
     1
  0
XRECORD
  5
25
102
{ACAD_REACTORS
330
22
102
}
330
22
100
AcDbXrecord
280
     1
270
     1
271
     1
  0
CELLSTYLEMAP
  5
392
102
{ACAD_REACTORS
330
391
102
}
330
391
100
AcDbCellStyleMap
 90
        3
300
CELLSTYLE
  1
TABLEFORMAT_BEGIN
 90
        5
170
     1
 91
        0
 92
    32768
 62
   257
 93
        1
300
CONTENTFORMAT
  1
CONTENTFORMAT_BEGIN
 90
        0
 91
        0
 92
      512
 93
        0
300

 40
0.0
140
1.0
 94
        5
 62
     0
340
5D
144
0.25
309
CONTENTFORMAT_END
171
     0
 94
        0
309
TABLEFORMAT_END
  1
CELLSTYLE_BEGIN
 90
        1
 91
        1
300
_TITLE
309
CELLSTYLE_END
300
CELLSTYLE
  1
TABLEFORMAT_BEGIN
 90
        5
170
     1
 91
        0
 92
        0
 62
   257
 93
        1
300
CONTENTFORMAT
  1
CONTENTFORMAT_BEGIN
 90
        0
 91
        0
 92
      512
 93
        0
300

 40
0.0
140
1.0
 94
        5
 62
     0
340
5D
144
0.18
309
CONTENTFORMAT_END
171
     0
 94
        0
309
TABLEFORMAT_END
  1
CELLSTYLE_BEGIN
 90
        2
 91
        1
300
_HEADER
309
CELLSTYLE_END
300
CELLSTYLE
  1
TABLEFORMAT_BEGIN
 90
        5
170
     1
 91
        0
 92
        0
 62
   257
 93
        1
300
CONTENTFORMAT
  1
CONTENTFORMAT_BEGIN
 90
        0
 91
        0
 92
      512
 93
        0
300

 40
0.0
140
1.0
 94
        2
 62
     0
340
5D
144
0.18
309
CONTENTFORMAT_END
171
     0
 94
        0
309
TABLEFORMAT_END
  1
CELLSTYLE_BEGIN
 90
        3
 91
        2
300
_DATA
309
CELLSTYLE_END
  0
XRECORD
  5
398
102
{ACAD_REACTORS
330
391
102
}
330
391
100
AcDbXrecord
280
     1
102
ACAD_ROUNDTRIP_PRE2007_TABLESTYLE
 90
      512
 91
        0
  1

 92
      512
 93
        0
  2

 94
      512
 95
        0
  3

  0
ENDSEC
  0
EOF
