999
"DXF R12 Output" (www.mydxf.blogspot.com)
 0 
SECTION
 2 
HEADER
 9 
$ACADVER
 1 
AC1009
 9 
$EXTMIN
 10 
 0 
 20 
 0 
 9 
$EXTMAX
 10 
 8.5 
 20 
 11 
 0 
ENDSEC
 0 
SECTION
 2 
ENTITIES
0
LINE
8
Calque 1
10
72.935764
20
193.562462
11
70.677986
21
194.658769
0
LINE
8
Calque 1
10
70.677986
20
194.658769
11
70.259313
21
195.033676
0
LINE
8
Calque 1
10
70.259313
20
195.033676
11
70.026050
21
195.545826
0
LINE
8
Calque 1
10
70.026050
20
195.545826
11
69.850206
21
198.079068
0
LINE
8
Calque 1
10
69.850206
20
198.079068
11
69.769776
21
200.942226
0
LINE
8
Calque 1
10
69.769776
20
200.942226
11
72.037428
21
200.942226
0
LINE
8
Calque 1
10
72.037428
20
200.942226
11
74.305078
21
200.942226
0
LINE
8
Calque 1
10
74.305078
20
200.942226
11
74.305078
21
198.267620
0
LINE
8
Calque 1
10
74.305078
20
198.267620
11
74.408955
21
195.889117
0
LINE
8
Calque 1
10
74.408955
20
195.889117
11
74.636464
21
195.428626
0
LINE
8
Calque 1
10
74.636464
20
195.428626
11
75.067829
21
195.092620
0
LINE
8
Calque 1
10
75.067829
20
195.092620
11
76.431003
21
194.655473
0
LINE
8
Calque 1
10
76.431003
20
194.655473
11
78.420410
21
194.473732
0
LINE
8
Calque 1
10
78.420410
20
194.473732
11
80.447839
21
194.561204
0
LINE
8
Calque 1
10
80.447839
20
194.561204
11
81.925078
21
194.931692
0
LINE
8
Calque 1
10
81.925078
20
194.931692
11
82.912856
21
195.438893
0
LINE
8
Calque 1
10
82.912856
20
195.438893
11
83.053967
21
198.120004
0
LINE
8
Calque 1
10
83.053967
20
198.120004
11
83.195078
21
200.801115
0
LINE
8
Calque 1
10
83.195078
20
200.801115
11
85.523411
21
200.883084
0
LINE
8
Calque 1
10
85.523411
20
200.883084
11
87.851745
21
200.965053
0
LINE
8
Calque 1
10
87.851745
20
200.965053
11
87.851745
21
198.435294
0
LINE
8
Calque 1
10
87.851745
20
198.435294
11
87.734623
21
196.154699
0
LINE
8
Calque 1
10
87.734623
20
196.154699
11
87.505407
21
195.560514
0
LINE
8
Calque 1
10
87.505407
20
195.560514
11
87.088811
21
194.998838
0
LINE
8
Calque 1
10
87.088811
20
194.998838
11
86.112439
21
194.075768
0
LINE
8
Calque 1
10
86.112439
20
194.075768
11
84.810339
21
193.530674
0
LINE
8
Calque 1
10
84.810339
20
193.530674
11
82.721542
21
193.251503
0
LINE
8
Calque 1
10
82.721542
20
193.251503
11
79.385078
21
193.126200
0
LINE
8
Calque 1
10
79.385078
20
193.126200
11
75.037180
21
193.133974
0
LINE
8
Calque 1
10
75.037180
20
193.133974
11
73.893391
21
193.282930
0
LINE
8
Calque 1
10
73.893391
20
193.282930
11
72.935764
21
193.562462
0
LINE
8
Calque 1
10
72.935764
20
193.562462
11
72.935764
21
193.562462
0
LINE
8
Calque 1
10
123.736312
20
193.596930
11
122.178976
21
194.093554
0
LINE
8
Calque 1
10
122.178976
20
194.093554
11
120.916448
21
194.653794
0
LINE
8
Calque 1
10
120.916448
20
194.653794
11
119.994040
21
195.253595
0
LINE
8
Calque 1
10
119.994040
20
195.253595
11
119.457064
21
195.868898
0
LINE
8
Calque 1
10
119.457064
20
195.868898
11
119.218110
21
196.492310
0
LINE
8
Calque 1
10
119.218110
20
196.492310
11
119.173312
21
197.099390
0
LINE
8
Calque 1
10
119.173312
20
197.099390
11
119.319153
21
197.685620
0
LINE
8
Calque 1
10
119.319153
20
197.685620
11
119.652115
21
198.246479
0
LINE
8
Calque 1
10
119.652115
20
198.246479
11
120.865338
21
199.274003
0
LINE
8
Calque 1
10
120.865338
20
199.274003
11
122.784845
21
200.145801
0
LINE
8
Calque 1
10
122.784845
20
200.145801
11
123.921635
21
200.489579
0
LINE
8
Calque 1
10
123.921635
20
200.489579
11
125.084961
21
200.688022
0
LINE
8
Calque 1
10
125.084961
20
200.688022
11
128.915078
21
200.801115
0
LINE
8
Calque 1
10
128.915078
20
200.801115
11
132.574422
21
200.696287
0
LINE
8
Calque 1
10
132.574422
20
200.696287
11
134.718366
21
200.314700
0
LINE
8
Calque 1
10
134.718366
20
200.314700
11
136.059349
21
199.809517
0
LINE
8
Calque 1
10
136.059349
20
199.809517
11
137.184653
21
199.199902
0
LINE
8
Calque 1
10
137.184653
20
199.199902
11
138.058345
21
198.509230
0
LINE
8
Calque 1
10
138.058345
20
198.509230
11
138.644489
21
197.760874
0
LINE
8
Calque 1
10
138.644489
20
197.760874
11
138.933966
21
196.991115
0
LINE
8
Calque 1
10
138.933966
20
196.991115
11
138.644489
21
196.221357
0
LINE
8
Calque 1
10
138.644489
20
196.221357
11
138.149330
21
195.522817
0
LINE
8
Calque 1
10
138.149330
20
195.522817
11
137.493973
21
194.921137
0
LINE
8
Calque 1
10
137.493973
20
194.921137
11
136.668115
21
194.412806
0
LINE
8
Calque 1
10
136.668115
20
194.412806
11
135.661451
21
193.994317
0
LINE
8
Calque 1
10
135.661451
20
193.994317
11
133.064484
21
193.412826
0
LINE
8
Calque 1
10
133.064484
20
193.412826
11
129.620634
21
193.148592
0
LINE
8
Calque 1
10
129.620634
20
193.148592
11
126.137864
21
193.163063
0
LINE
8
Calque 1
10
126.137864
20
193.163063
11
123.736312
21
193.596930
0
LINE
8
Calque 1
10
123.736312
20
193.596930
11
123.736312
21
193.596930
0
LINE
8
Calque 1
10
132.373443
20
195.310239
11
133.307151
21
195.865302
0
LINE
8
Calque 1
10
133.307151
20
195.865302
11
133.851496
21
196.530686
0
LINE
8
Calque 1
10
133.851496
20
196.530686
11
133.988055
21
197.268426
0
LINE
8
Calque 1
10
133.988055
20
197.268426
11
133.698403
21
198.040559
0
LINE
8
Calque 1
10
133.698403
20
198.040559
11
132.784525
21
198.878750
0
LINE
8
Calque 1
10
132.784525
20
198.878750
11
131.450304
21
199.424093
0
LINE
8
Calque 1
10
131.450304
20
199.424093
11
129.862856
21
199.689675
0
LINE
8
Calque 1
10
129.862856
20
199.689675
11
128.189294
21
199.688583
0
LINE
8
Calque 1
10
128.189294
20
199.688583
11
126.596732
21
199.433904
0
LINE
8
Calque 1
10
126.596732
20
199.433904
11
125.252284
21
198.938723
0
LINE
8
Calque 1
10
125.252284
20
198.938723
11
124.323065
21
198.216129
0
LINE
8
Calque 1
10
124.323065
20
198.216129
11
124.066390
21
197.773641
0
LINE
8
Calque 1
10
124.066390
20
197.773641
11
123.976189
21
197.279208
0
LINE
8
Calque 1
10
123.976189
20
197.279208
11
124.204479
21
196.504131
0
LINE
8
Calque 1
10
124.204479
20
196.504131
11
124.814960
21
195.777863
0
LINE
8
Calque 1
10
124.814960
20
195.777863
11
125.696049
21
195.198108
0
LINE
8
Calque 1
10
125.696049
20
195.198108
11
126.736165
21
194.862567
0
LINE
8
Calque 1
10
126.736165
20
194.862567
11
128.068411
21
194.582862
0
LINE
8
Calque 1
10
128.068411
20
194.582862
11
128.819291
21
194.536101
0
LINE
8
Calque 1
10
128.819291
20
194.536101
11
129.999483
21
194.677629
0
LINE
8
Calque 1
10
129.999483
20
194.677629
11
132.373443
21
195.310239
0
LINE
8
Calque 1
10
132.373443
20
195.310239
11
132.373443
21
195.310239
0
LINE
8
Calque 1
10
51.329855
20
197.132226
11
54.929278
21
200.942226
0
LINE
8
Calque 1
10
54.929278
20
200.942226
11
57.773288
21
200.917007
0
LINE
8
Calque 1
10
57.773288
20
200.917007
11
60.617300
21
200.891788
0
LINE
8
Calque 1
10
60.617300
20
200.891788
11
64.061574
21
197.177563
0
LINE
8
Calque 1
10
64.061574
20
197.177563
11
67.505848
21
193.463337
0
LINE
8
Calque 1
10
67.505848
20
193.463337
11
65.216419
21
193.380646
0
LINE
8
Calque 1
10
65.216419
20
193.380646
11
63.118841
21
193.426668
0
LINE
8
Calque 1
10
63.118841
20
193.426668
11
62.587336
21
193.673231
0
LINE
8
Calque 1
10
62.587336
20
193.673231
11
62.040931
21
194.156757
0
LINE
8
Calque 1
10
62.040931
20
194.156757
11
61.154874
21
195.015560
0
LINE
8
Calque 1
10
61.154874
20
195.015560
11
57.340554
21
195.015560
0
LINE
8
Calque 1
10
57.340554
20
195.015560
11
53.526236
21
195.015560
0
LINE
8
Calque 1
10
53.526236
20
195.015560
11
52.715078
21
194.168893
0
LINE
8
Calque 1
10
52.715078
20
194.168893
11
52.216713
21
193.702786
0
LINE
8
Calque 1
10
52.216713
20
193.702786
11
51.713172
21
193.448835
0
LINE
8
Calque 1
10
51.713172
20
193.448835
11
49.817178
21
193.322226
0
LINE
8
Calque 1
10
49.817178
20
193.322226
11
47.730435
21
193.322226
0
LINE
8
Calque 1
10
47.730435
20
193.322226
11
51.329855
21
197.132226
0
LINE
8
Calque 1
10
51.329855
20
197.132226
11
51.329855
21
197.132226
0
LINE
8
Calque 1
10
59.099458
20
197.512154
11
58.219145
21
198.570936
0
LINE
8
Calque 1
10
58.219145
20
198.570936
11
57.614479
21
198.956712
0
LINE
8
Calque 1
10
57.614479
20
198.956712
11
57.000816
21
198.699526
0
LINE
8
Calque 1
10
57.000816
20
198.699526
11
56.093510
21
197.829423
0
LINE
8
Calque 1
10
56.093510
20
197.829423
11
54.711851
21
196.426671
0
LINE
8
Calque 1
10
54.711851
20
196.426671
11
57.335513
21
196.426671
0
LINE
8
Calque 1
10
57.335513
20
196.426671
11
59.959175
21
196.426671
0
LINE
8
Calque 1
10
59.959175
20
196.426671
11
59.099458
21
197.512154
0
LINE
8
Calque 1
10
59.099458
20
197.512154
11
59.099458
21
197.512154
0
LINE
8
Calque 1
10
91.520634
20
197.105822
11
91.520634
21
200.942226
0
LINE
8
Calque 1
10
91.520634
20
200.942226
11
97.246894
21
200.942226
0
LINE
8
Calque 1
10
97.246894
20
200.942226
11
101.127938
21
200.878022
0
LINE
8
Calque 1
10
101.127938
20
200.878022
11
103.842779
21
200.648957
0
LINE
8
Calque 1
10
103.842779
20
200.648957
11
105.765627
21
200.200349
0
LINE
8
Calque 1
10
105.765627
20
200.200349
11
107.270691
21
199.477518
0
LINE
8
Calque 1
10
107.270691
20
199.477518
11
108.259828
21
198.571328
0
LINE
8
Calque 1
10
108.259828
20
198.571328
11
108.773746
21
197.458210
0
LINE
8
Calque 1
10
108.773746
20
197.458210
11
108.777130
21
196.293651
0
LINE
8
Calque 1
10
108.777130
20
196.293651
11
108.576336
21
195.740672
0
LINE
8
Calque 1
10
108.576336
20
195.740672
11
108.234666
21
195.233142
0
LINE
8
Calque 1
10
108.234666
20
195.233142
11
107.471271
21
194.704985
0
LINE
8
Calque 1
10
107.471271
20
194.704985
11
106.228357
21
194.120407
0
LINE
8
Calque 1
10
106.228357
20
194.120407
11
105.186193
21
193.780493
0
LINE
8
Calque 1
10
105.186193
20
193.780493
11
103.848147
21
193.577454
0
LINE
8
Calque 1
10
103.848147
20
193.577454
11
98.082300
21
193.382532
0
LINE
8
Calque 1
10
98.082300
20
193.382532
11
91.520634
21
193.269414
0
LINE
8
Calque 1
10
91.520634
20
193.269414
11
91.520634
21
197.105822
0
LINE
8
Calque 1
10
91.520634
20
197.105822
11
91.520634
21
197.105822
0
LINE
8
Calque 1
10
103.279784
20
195.639014
11
103.875836
21
196.448434
0
LINE
8
Calque 1
10
103.875836
20
196.448434
11
103.779340
21
197.443024
0
LINE
8
Calque 1
10
103.779340
20
197.443024
11
103.308639
21
198.444208
0
LINE
8
Calque 1
10
103.308639
20
198.444208
11
102.413592
21
199.086998
0
LINE
8
Calque 1
10
102.413592
20
199.086998
11
100.954648
21
199.429824
0
LINE
8
Calque 1
10
100.954648
20
199.429824
11
98.792259
21
199.531115
0
LINE
8
Calque 1
10
98.792259
20
199.531115
11
96.036189
21
199.531115
0
LINE
8
Calque 1
10
96.036189
20
199.531115
11
96.036189
21
197.107941
0
LINE
8
Calque 1
10
96.036189
20
197.107941
11
96.036189
21
194.684764
0
LINE
8
Calque 1
10
96.036189
20
194.684764
11
99.276078
21
194.779608
0
LINE
8
Calque 1
10
99.276078
20
194.779608
11
102.162656
21
194.970011
0
LINE
8
Calque 1
10
102.162656
20
194.970011
11
102.781286
21
195.210104
0
LINE
8
Calque 1
10
102.781286
20
195.210104
11
103.279784
21
195.639014
0
LINE
8
Calque 1
10
103.279784
20
195.639014
11
103.279784
21
195.639014
0
LINE
8
Calque 1
10
111.840634
20
197.132226
11
111.840634
21
200.942226
0
LINE
8
Calque 1
10
111.840634
20
200.942226
11
114.098411
21
200.942226
0
LINE
8
Calque 1
10
114.098411
20
200.942226
11
116.356189
21
200.942226
0
LINE
8
Calque 1
10
116.356189
20
200.942226
11
116.356189
21
197.132226
0
LINE
8
Calque 1
10
116.356189
20
197.132226
11
116.356189
21
193.322226
0
LINE
8
Calque 1
10
116.356189
20
193.322226
11
114.098411
21
193.322226
0
LINE
8
Calque 1
10
114.098411
20
193.322226
11
111.840634
21
193.322226
0
LINE
8
Calque 1
10
111.840634
20
193.322226
11
111.840634
21
197.132226
0
LINE
8
Calque 1
10
111.840634
20
197.132226
11
111.840634
21
197.132226
0
LINE
8
Calque 1
10
48.426562
20
206.574228
11
47.722762
21
207.226537
0
LINE
8
Calque 1
10
47.722762
20
207.226537
11
47.230803
21
208.141028
0
LINE
8
Calque 1
10
47.230803
20
208.141028
11
46.989992
21
209.211237
0
LINE
8
Calque 1
10
46.989992
20
209.211237
11
47.039637
21
210.330701
0
LINE
8
Calque 1
10
47.039637
20
210.330701
11
47.487014
21
211.446544
0
LINE
8
Calque 1
10
47.487014
20
211.446544
11
48.383129
21
212.253795
0
LINE
8
Calque 1
10
48.383129
20
212.253795
11
49.779413
21
212.782429
0
LINE
8
Calque 1
10
49.779413
20
212.782429
11
51.727300
21
213.062418
0
LINE
8
Calque 1
10
51.727300
20
213.062418
11
53.843967
21
213.218893
0
LINE
8
Calque 1
10
53.843967
20
213.218893
11
53.985078
21
222.432520
0
LINE
8
Calque 1
10
53.985078
20
222.432520
11
54.187747
21
230.394932
0
LINE
8
Calque 1
10
54.187747
20
230.394932
11
54.373827
21
231.707937
0
LINE
8
Calque 1
10
54.373827
20
231.707937
11
54.689968
21
232.268636
0
LINE
8
Calque 1
10
54.689968
20
232.268636
11
55.518554
21
233.009336
0
LINE
8
Calque 1
10
55.518554
20
233.009336
11
56.562130
21
233.436696
0
LINE
8
Calque 1
10
56.562130
20
233.436696
11
58.170033
21
233.632869
0
LINE
8
Calque 1
10
58.170033
20
233.632869
11
60.691595
21
233.680004
0
LINE
8
Calque 1
10
60.691595
20
233.680004
11
64.603921
21
233.680004
0
LINE
8
Calque 1
10
64.603921
20
233.680004
11
65.432833
21
232.816526
0
LINE
8
Calque 1
10
65.432833
20
232.816526
11
66.722926
21
230.823011
0
LINE
8
Calque 1
10
66.722926
20
230.823011
11
68.660634
21
227.242637
0
LINE
8
Calque 1
10
68.660634
20
227.242637
11
70.520093
21
223.812729
0
LINE
8
Calque 1
10
70.520093
20
223.812729
11
71.133321
21
222.865215
0
LINE
8
Calque 1
10
71.133321
20
222.865215
11
71.474087
21
222.532226
0
LINE
8
Calque 1
10
71.474087
20
222.532226
11
71.806397
21
222.856926
0
LINE
8
Calque 1
10
71.806397
20
222.856926
11
72.394570
21
223.786472
0
LINE
8
Calque 1
10
72.394570
20
223.786472
11
74.183119
21
227.192779
0
LINE
8
Calque 1
10
74.183119
20
227.192779
11
76.191169
21
230.997613
0
LINE
8
Calque 1
10
76.191169
20
230.997613
11
76.912610
21
232.091384
0
LINE
8
Calque 1
10
76.912610
20
232.091384
11
77.517820
21
232.766668
0
LINE
8
Calque 1
10
77.517820
20
232.766668
11
78.558051
21
233.680004
0
LINE
8
Calque 1
10
78.558051
20
233.680004
11
82.577658
21
233.680004
0
LINE
8
Calque 1
10
82.577658
20
233.680004
11
84.690703
21
233.670008
0
LINE
8
Calque 1
10
84.690703
20
233.670008
11
86.265596
21
233.546618
0
LINE
8
Calque 1
10
86.265596
20
233.546618
11
87.381370
21
233.169733
0
LINE
8
Calque 1
10
87.381370
20
233.169733
11
88.117054
21
232.399249
0
LINE
8
Calque 1
10
88.117054
20
232.399249
11
88.551681
21
231.095064
0
LINE
8
Calque 1
10
88.551681
20
231.095064
11
88.764280
21
229.117077
0
LINE
8
Calque 1
10
88.764280
20
229.117077
11
88.839523
21
222.579284
0
LINE
8
Calque 1
10
88.839523
20
222.579284
11
88.839523
21
214.159672
0
LINE
8
Calque 1
10
88.839523
20
214.159672
11
89.505787
21
213.618729
0
LINE
8
Calque 1
10
89.505787
20
213.618729
11
90.134634
21
213.317796
0
LINE
8
Calque 1
10
90.134634
20
213.317796
11
91.704058
21
213.155892
0
LINE
8
Calque 1
10
91.704058
20
213.155892
11
101.448232
21
213.077782
0
LINE
8
Calque 1
10
101.448232
20
213.077782
11
109.961395
21
213.153622
0
LINE
8
Calque 1
10
109.961395
20
213.153622
11
113.274520
21
213.372193
0
LINE
8
Calque 1
10
113.274520
20
213.372193
11
114.240677
21
214.755594
0
LINE
8
Calque 1
10
114.240677
20
214.755594
11
115.755720
21
217.538613
0
LINE
8
Calque 1
10
115.755720
20
217.538613
11
117.153357
21
220.424467
0
LINE
8
Calque 1
10
117.153357
20
220.424467
11
117.767300
21
222.116375
0
LINE
8
Calque 1
10
117.767300
20
222.116375
11
117.613376
21
222.835285
0
LINE
8
Calque 1
10
117.613376
20
222.835285
11
117.202998
21
223.779763
0
LINE
8
Calque 1
10
117.202998
20
223.779763
11
115.921257
21
225.740097
0
LINE
8
Calque 1
10
115.921257
20
225.740097
11
115.177124
21
226.624449
0
LINE
8
Calque 1
10
115.177124
20
226.624449
11
109.967087
21
226.624449
0
LINE
8
Calque 1
10
109.967087
20
226.624449
11
106.509274
21
226.675395
0
LINE
8
Calque 1
10
106.509274
20
226.675395
11
104.454642
21
226.900647
0
LINE
8
Calque 1
10
104.454642
20
226.900647
11
103.806509
21
227.112581
0
LINE
8
Calque 1
10
103.806509
20
227.112581
11
103.332758
21
227.408824
0
LINE
8
Calque 1
10
103.332758
20
227.408824
11
102.673190
21
228.308545
0
LINE
8
Calque 1
10
102.673190
20
228.308545
11
102.264312
21
229.666496
0
LINE
8
Calque 1
10
102.264312
20
229.666496
11
102.409413
21
230.981189
0
LINE
8
Calque 1
10
102.409413
20
230.981189
11
103.076514
21
232.154662
0
LINE
8
Calque 1
10
103.076514
20
232.154662
11
104.233639
21
233.088957
0
LINE
8
Calque 1
10
104.233639
20
233.088957
11
104.982934
21
233.415722
0
LINE
8
Calque 1
10
104.982934
20
233.415722
11
106.159740
21
233.592849
0
LINE
8
Calque 1
10
106.159740
20
233.592849
11
112.267153
21
233.680004
0
LINE
8
Calque 1
10
112.267153
20
233.680004
11
119.249043
21
233.680004
0
LINE
8
Calque 1
10
119.249043
20
233.680004
11
120.529147
21
232.268893
0
LINE
8
Calque 1
10
120.529147
20
232.268893
11
121.542189
21
231.272296
0
LINE
8
Calque 1
10
121.542189
20
231.272296
11
122.180209
21
230.857782
0
LINE
8
Calque 1
10
122.180209
20
230.857782
11
123.308574
21
232.578606
0
LINE
8
Calque 1
10
123.308574
20
232.578606
11
125.500534
21
236.715905
0
LINE
8
Calque 1
10
125.500534
20
236.715905
11
127.688751
21
240.946588
0
LINE
8
Calque 1
10
127.688751
20
240.946588
11
128.492125
21
242.238265
0
LINE
8
Calque 1
10
128.492125
20
242.238265
11
129.233756
21
243.101416
0
LINE
8
Calque 1
10
129.233756
20
243.101416
11
130.012706
21
243.626477
0
LINE
8
Calque 1
10
130.012706
20
243.626477
11
130.928035
21
243.903887
0
LINE
8
Calque 1
10
130.928035
20
243.903887
11
133.564071
21
244.077503
0
LINE
8
Calque 1
10
133.564071
20
244.077503
11
135.923152
21
244.080411
0
LINE
8
Calque 1
10
135.923152
20
244.080411
11
137.567052
21
243.887166
0
LINE
8
Calque 1
10
137.567052
20
243.887166
11
138.731256
21
243.444434
0
LINE
8
Calque 1
10
138.731256
20
243.444434
11
139.651243
21
242.698884
0
LINE
8
Calque 1
10
139.651243
20
242.698884
11
140.092297
21
242.183700
0
LINE
8
Calque 1
10
140.092297
20
242.183700
11
140.344799
21
241.687132
0
LINE
8
Calque 1
10
140.344799
20
241.687132
11
140.486189
21
240.127647
0
LINE
8
Calque 1
10
140.486189
20
240.127647
11
140.366234
21
238.640839
0
LINE
8
Calque 1
10
140.366234
20
238.640839
11
140.166295
21
238.232033
0
LINE
8
Calque 1
10
140.166295
20
238.232033
11
139.828606
21
237.895433
0
LINE
8
Calque 1
10
139.828606
20
237.895433
11
139.039273
21
237.413794
0
LINE
8
Calque 1
10
139.039273
20
237.413794
11
138.030888
21
237.067156
0
LINE
8
Calque 1
10
138.030888
20
237.067156
11
136.810602
21
236.857304
0
LINE
8
Calque 1
10
136.810602
20
236.857304
11
135.385564
21
236.786023
0
LINE
8
Calque 1
10
135.385564
20
236.786023
11
133.671604
21
236.784449
0
LINE
8
Calque 1
10
133.671604
20
236.784449
11
129.952787
21
229.641413
0
LINE
8
Calque 1
10
129.952787
20
229.641413
11
127.326826
21
224.435810
0
LINE
8
Calque 1
10
127.326826
20
224.435810
11
126.235519
21
221.950857
0
LINE
8
Calque 1
10
126.235519
20
221.950857
11
126.922474
21
220.362082
0
LINE
8
Calque 1
10
126.922474
20
220.362082
11
128.571907
21
217.311115
0
LINE
8
Calque 1
10
128.571907
20
217.311115
11
130.906740
21
213.218893
0
LINE
8
Calque 1
10
130.906740
20
213.218893
11
134.618451
21
213.077782
0
LINE
8
Calque 1
10
134.618451
20
213.077782
11
137.812776
21
212.856728
0
LINE
8
Calque 1
10
137.812776
20
212.856728
11
138.581852
21
212.657146
0
LINE
8
Calque 1
10
138.581852
20
212.657146
11
139.125954
21
212.345020
0
LINE
8
Calque 1
10
139.125954
20
212.345020
11
139.805204
21
211.716763
0
LINE
8
Calque 1
10
139.805204
20
211.716763
11
140.282799
21
211.010540
0
LINE
8
Calque 1
10
140.282799
20
211.010540
11
140.559543
21
210.253668
0
LINE
8
Calque 1
10
140.559543
20
210.253668
11
140.636242
21
209.473464
0
LINE
8
Calque 1
10
140.636242
20
209.473464
11
140.513700
21
208.697248
0
LINE
8
Calque 1
10
140.513700
20
208.697248
11
140.192722
21
207.952337
0
LINE
8
Calque 1
10
140.192722
20
207.952337
11
139.674112
21
207.266048
0
LINE
8
Calque 1
10
139.674112
20
207.266048
11
138.958676
21
206.665699
0
LINE
8
Calque 1
10
138.958676
20
206.665699
11
138.303757
21
206.305478
0
LINE
8
Calque 1
10
138.303757
20
206.305478
11
137.356036
21
206.113138
0
LINE
8
Calque 1
10
137.356036
20
206.113138
11
132.463915
21
206.022226
0
LINE
8
Calque 1
10
132.463915
20
206.022226
11
127.852358
21
206.106555
0
LINE
8
Calque 1
10
127.852358
20
206.106555
11
126.829849
21
206.242381
0
LINE
8
Calque 1
10
126.829849
20
206.242381
11
126.288027
21
206.467683
0
LINE
8
Calque 1
10
126.288027
20
206.467683
11
125.382056
21
207.693140
0
LINE
8
Calque 1
10
125.382056
20
207.693140
11
124.096949
21
210.013918
0
LINE
8
Calque 1
10
124.096949
20
210.013918
11
122.775364
21
212.420067
0
LINE
8
Calque 1
10
122.775364
20
212.420067
11
122.366451
21
212.910876
0
LINE
8
Calque 1
10
122.366451
20
212.910876
11
122.059576
21
213.024179
0
LINE
8
Calque 1
10
122.059576
20
213.024179
11
121.303963
21
212.195694
0
LINE
8
Calque 1
10
121.303963
20
212.195694
11
120.136048
21
210.254055
0
LINE
8
Calque 1
10
120.136048
20
210.254055
11
118.902393
21
208.131701
0
LINE
8
Calque 1
10
118.902393
20
208.131701
11
117.960259
21
206.791869
0
LINE
8
Calque 1
10
117.960259
20
206.791869
11
117.225724
21
206.009289
0
LINE
8
Calque 1
10
117.225724
20
206.009289
11
100.256405
21
206.086313
0
LINE
8
Calque 1
10
100.256405
20
206.086313
11
83.287085
21
206.163337
0
LINE
8
Calque 1
10
83.287085
20
206.163337
11
82.606083
21
206.955185
0
LINE
8
Calque 1
10
82.606083
20
206.955185
11
81.925078
21
207.747036
0
LINE
8
Calque 1
10
81.925078
20
207.747036
11
81.920757
21
216.127408
0
LINE
8
Calque 1
10
81.920757
20
216.127408
11
81.776848
21
223.859421
0
LINE
8
Calque 1
10
81.776848
20
223.859421
11
81.544693
21
224.989297
0
LINE
8
Calque 1
10
81.544693
20
224.989297
11
81.371939
21
225.060131
0
LINE
8
Calque 1
10
81.371939
20
225.060131
11
81.155066
21
224.873917
0
LINE
8
Calque 1
10
81.155066
20
224.873917
11
76.560042
21
215.900004
0
LINE
8
Calque 1
10
76.560042
20
215.900004
11
71.958124
21
207.100253
0
LINE
8
Calque 1
10
71.958124
20
207.100253
11
71.589746
21
207.047013
0
LINE
8
Calque 1
10
71.589746
20
207.047013
11
71.130603
21
207.188594
0
LINE
8
Calque 1
10
71.130603
20
207.188594
11
69.501401
21
209.950144
0
LINE
8
Calque 1
10
69.501401
20
209.950144
11
66.255234
21
216.341126
0
LINE
8
Calque 1
10
66.255234
20
216.341126
11
63.096622
21
222.607125
0
LINE
8
Calque 1
10
63.096622
20
222.607125
11
61.613251
21
225.213337
0
LINE
8
Calque 1
10
61.613251
20
225.213337
11
61.395828
21
223.082279
0
LINE
8
Calque 1
10
61.395828
20
223.082279
11
61.322856
21
216.732656
0
LINE
8
Calque 1
10
61.322856
20
216.732656
11
61.285845
21
211.227322
0
LINE
8
Calque 1
10
61.285845
20
211.227322
11
61.080254
21
208.228616
0
LINE
8
Calque 1
10
61.080254
20
208.228616
11
60.869917
21
207.402371
0
LINE
8
Calque 1
10
60.869917
20
207.402371
11
60.564246
21
206.882528
0
LINE
8
Calque 1
10
60.564246
20
206.882528
11
60.145511
21
206.562337
0
LINE
8
Calque 1
10
60.145511
20
206.562337
11
59.595983
21
206.335047
0
LINE
8
Calque 1
10
59.595983
20
206.335047
11
57.624526
21
206.111232
0
LINE
8
Calque 1
10
57.624526
20
206.111232
11
54.013521
21
206.023282
0
LINE
8
Calque 1
10
54.013521
20
206.023282
11
49.964592
21
206.116627
0
LINE
8
Calque 1
10
49.964592
20
206.116627
11
49.053185
21
206.282986
0
LINE
8
Calque 1
10
49.053185
20
206.282986
11
48.426562
21
206.574228
0
LINE
8
Calque 1
10
48.426562
20
206.574228
11
48.426562
21
206.574228
0
LINE
8
Calque 1
10
93.574320
20
216.722205
11
92.888913
21
217.314860
0
LINE
8
Calque 1
10
92.888913
20
217.314860
11
92.518399
21
217.937361
0
LINE
8
Calque 1
10
92.518399
20
217.937361
11
92.299161
21
226.496526
0
LINE
8
Calque 1
10
92.299161
20
226.496526
11
92.154075
21
233.251124
0
LINE
8
Calque 1
10
92.154075
20
233.251124
11
91.988789
21
234.541241
0
LINE
8
Calque 1
10
91.988789
20
234.541241
11
91.710349
21
235.198433
0
LINE
8
Calque 1
10
91.710349
20
235.198433
11
91.333903
21
235.723568
0
LINE
8
Calque 1
10
91.333903
20
235.723568
11
90.839341
21
236.117737
0
LINE
8
Calque 1
10
90.839341
20
236.117737
11
90.004400
21
236.399726
0
LINE
8
Calque 1
10
90.004400
20
236.399726
11
88.606815
21
236.588320
0
LINE
8
Calque 1
10
88.606815
20
236.588320
11
83.234660
21
236.760463
0
LINE
8
Calque 1
10
83.234660
20
236.760463
11
72.944767
21
236.784449
0
LINE
8
Calque 1
10
72.944767
20
236.784449
11
56.608551
21
236.784449
0
LINE
8
Calque 1
10
56.608551
20
236.784449
11
55.649591
21
237.429767
0
LINE
8
Calque 1
10
55.649591
20
237.429767
11
54.958698
21
238.027592
0
LINE
8
Calque 1
10
54.958698
20
238.027592
11
54.469579
21
238.731644
0
LINE
8
Calque 1
10
54.469579
20
238.731644
11
54.181676
21
239.506614
0
LINE
8
Calque 1
10
54.181676
20
239.506614
11
54.094431
21
240.317190
0
LINE
8
Calque 1
10
54.094431
20
240.317190
11
54.207287
21
241.128063
0
LINE
8
Calque 1
10
54.207287
20
241.128063
11
54.519685
21
241.903923
0
LINE
8
Calque 1
10
54.519685
20
241.903923
11
55.031070
21
242.609459
0
LINE
8
Calque 1
10
55.031070
20
242.609459
11
55.740881
21
243.209362
0
LINE
8
Calque 1
10
55.740881
20
243.209362
11
56.906973
21
243.981115
0
LINE
8
Calque 1
10
56.906973
20
243.981115
11
88.505747
21
244.057617
0
LINE
8
Calque 1
10
88.505747
20
244.057617
11
120.104524
21
244.134119
0
LINE
8
Calque 1
10
120.104524
20
244.134119
11
121.342500
21
243.534826
0
LINE
8
Calque 1
10
121.342500
20
243.534826
11
122.270877
21
242.947143
0
LINE
8
Calque 1
10
122.270877
20
242.947143
11
122.914952
21
242.208904
0
LINE
8
Calque 1
10
122.914952
20
242.208904
11
123.290111
21
241.295165
0
LINE
8
Calque 1
10
123.290111
20
241.295165
11
123.411745
21
240.180985
0
LINE
8
Calque 1
10
123.411745
20
240.180985
11
123.216948
21
239.052669
0
LINE
8
Calque 1
10
123.216948
20
239.052669
11
122.446088
21
237.979747
0
LINE
8
Calque 1
10
122.446088
20
237.979747
11
121.480430
21
236.925560
0
LINE
8
Calque 1
10
121.480430
20
236.925560
11
111.199989
21
236.784449
0
LINE
8
Calque 1
10
111.199989
20
236.784449
11
102.748383
21
236.590511
0
LINE
8
Calque 1
10
102.748383
20
236.590511
11
101.069132
21
236.440627
0
LINE
8
Calque 1
10
101.069132
20
236.440627
11
100.409708
21
236.220004
0
LINE
8
Calque 1
10
100.409708
20
236.220004
11
99.725378
21
235.391845
0
LINE
8
Calque 1
10
99.725378
20
235.391845
11
99.343138
21
233.883492
0
LINE
8
Calque 1
10
99.343138
20
233.883492
11
99.176914
21
231.006774
0
LINE
8
Calque 1
10
99.176914
20
231.006774
11
99.140634
21
226.073523
0
LINE
8
Calque 1
10
99.140634
20
226.073523
11
99.140634
21
218.166686
0
LINE
8
Calque 1
10
99.140634
20
218.166686
11
98.341378
21
217.272163
0
LINE
8
Calque 1
10
98.341378
20
217.272163
11
97.407606
21
216.521607
0
LINE
8
Calque 1
10
97.407606
20
216.521607
11
96.013044
21
216.264223
0
LINE
8
Calque 1
10
96.013044
20
216.264223
11
94.613561
21
216.294078
0
LINE
8
Calque 1
10
94.613561
20
216.294078
11
93.574320
21
216.722205
0
LINE
8
Calque 1
10
93.574320
20
216.722205
11
93.574320
21
216.722205
 0 
ENDSEC
 0 
EOF
