  0
SECTION
  2
ENTITIES
  0
POLYLINE
  5
3E8
  100
AcDbEntity
  8
Layer 1
  62
0
  100
AcDb2dPolyline
 66
     1
  10
0
  20
0
  30
0
  70
1
  0
VERTEX
  5
3E9
  100
AcDbEntity
  8
Layer 1
  62
0
  100
AcDb2dVertex
  10
11.60636
  20
14.32912
  30
0.00000
  42
0.0085
  70
32
  0
VERTEX
  5
3EA
  100
AcDbEntity
  8
Layer 1
  62
0
  100
AcDb2dVertex
  10
11.23918
  20
14.32815
  30
0.00000
  42
0.1735
  70
32
  0
VERTEX
  5
3EB
  100
AcDbEntity
  8
Layer 1
  62
0
  100
AcDb2dVertex
  10
11.20426
  20
14.31507
  30
0.00000
  42
0.1738
  70
32
  0
VERTEX
  5
3EC
  100
AcDbEntity
  8
Layer 1
  62
0
  100
AcDb2dVertex
  10
11.19118
  20
14.28011
  30
0.00000
  42
0.0050
  70
32
  0
VERTEX
  5
3ED
  100
AcDbEntity
  8
Layer 1
  62
0
  100
AcDb2dVertex
  10
11.19118
  20
13.45552
  30
0.00000
  42
0.1736
  70
32
  0
VERTEX
  5
3EE
  100
AcDbEntity
  8
Layer 1
  62
0
  100
AcDb2dVertex
  10
11.20426
  20
13.42060
  30
0.00000
  42
0.1736
  70
32
  0
VERTEX
  5
3EF
  100
AcDbEntity
  8
Layer 1
  62
0
  100
AcDb2dVertex
  10
11.23918
  20
13.40752
  30
0.00000
  42
0.0067
  70
32
  0
VERTEX
  5
3F0
  100
AcDbEntity
  8
Layer 1
  62
0
  100
AcDb2dVertex
  10
12.13189
  20
13.40946
  30
0.00000
  42
0.4267
  70
32
  0
VERTEX
  5
3F1
  100
AcDbEntity
  8
Layer 1
  62
0
  100
AcDb2dVertex
  10
12.24370
  20
13.51783
  30
0.00000
  42
0.0052
  70
32
  0
VERTEX
  5
3F2
  100
AcDbEntity
  8
Layer 1
  62
0
  100
AcDb2dVertex
  10
12.24599
  20
13.99986
  30
0.00000
  42
0.0081
  70
32
  0
VERTEX
  5
3F3
  100
AcDbEntity
  8
Layer 1
  62
0
  100
AcDb2dVertex
  10
12.24392
  20
14.23607
  30
0.00000
  42
0.1738
  70
32
  0
VERTEX
  5
3F4
  100
AcDbEntity
  8
Layer 1
  62
0
  100
AcDb2dVertex
  10
12.23084
  20
14.27103
  30
0.00000
  42
0.1736
  70
32
  0
VERTEX
  5
3F5
  100
AcDbEntity
  8
Layer 1
  62
0
  100
AcDb2dVertex
  10
12.19592
  20
14.28411
  30
0.00000
  42
-0.0614
  70
32
  0
VERTEX
  5
3F6
  100
AcDbEntity
  8
Layer 1
  62
0
  100
AcDb2dVertex
  10
11.60636
  20
14.32912
  30
0.00000
  70
32
  0
SEQEND
  5
3F7
  100
AcDbEntity
  8
Layer 1
  62
0
  0
POLYLINE
  5
3F8
  100
AcDbEntity
  8
Layer 1
  62
0
  100
AcDb2dPolyline
 66
     1
  10
0
  20
0
  30
0
  70
1
  0
VERTEX
  5
3F9
  100
AcDbEntity
  8
Layer 1
  62
0
  100
AcDb2dVertex
  10
12.14109
  20
14.95189
  30
0.00000
  42
-0.0701
  70
32
  0
VERTEX
  5
3FA
  100
AcDbEntity
  8
Layer 1
  62
0
  100
AcDb2dVertex
  10
12.76853
  20
14.90076
  30
0.00000
  42
-0.1705
  70
32
  0
VERTEX
  5
3FB
  100
AcDbEntity
  8
Layer 1
  62
0
  100
AcDb2dVertex
  10
12.80332
  20
14.88755
  30
0.00000
  42
-0.1738
  70
32
  0
VERTEX
  5
3FC
  100
AcDbEntity
  8
Layer 1
  62
0
  100
AcDb2dVertex
  10
12.81640
  20
14.85258
  30
0.00000
  70
32
  0
VERTEX
  5
3FD
  100
AcDbEntity
  8
Layer 1
  62
0
  100
AcDb2dVertex
  10
12.81640
  20
12.83900
  30
0.00000
  42
-0.1736
  70
32
  0
VERTEX
  5
3FE
  100
AcDbEntity
  8
Layer 1
  62
0
  100
AcDb2dVertex
  10
12.80332
  20
12.80408
  30
0.00000
  42
-0.1736
  70
32
  0
VERTEX
  5
3FF
  100
AcDbEntity
  8
Layer 1
  62
0
  100
AcDb2dVertex
  10
12.76840
  20
12.79100
  30
0.00000
  70
32
  0
VERTEX
  5
400
  100
AcDbEntity
  8
Layer 1
  62
0
  100
AcDb2dVertex
  10
12.22397
  20
12.78894
  30
0.00000
  70
32
  0
VERTEX
  5
401
  100
AcDbEntity
  8
Layer 1
  62
0
  100
AcDb2dVertex
  10
10.62267
  20
12.79100
  30
0.00000
  42
-0.1736
  70
32
  0
VERTEX
  5
402
  100
AcDbEntity
  8
Layer 1
  62
0
  100
AcDb2dVertex
  10
10.58774
  20
12.80408
  30
0.00000
  42
-0.1736
  70
32
  0
VERTEX
  5
403
  100
AcDbEntity
  8
Layer 1
  62
0
  100
AcDb2dVertex
  10
10.57467
  20
12.83900
  30
0.00000
  70
32
  0
VERTEX
  5
404
  100
AcDbEntity
  8
Layer 1
  62
0
  100
AcDb2dVertex
  10
10.57467
  20
14.94066
  30
0.00000
  42
-0.1738
  70
32
  0
VERTEX
  5
405
  100
AcDbEntity
  8
Layer 1
  62
0
  100
AcDb2dVertex
  10
10.58774
  20
14.97562
  30
0.00000
  42
-0.1735
  70
32
  0
VERTEX
  5
406
  100
AcDbEntity
  8
Layer 1
  62
0
  100
AcDb2dVertex
  10
10.62267
  20
14.98870
  30
0.00000
  70
32
  0
VERTEX
  5
407
  100
AcDbEntity
  8
Layer 1
  62
0
  100
AcDb2dVertex
  10
11.95662
  20
14.98764
  30
0.00000
  42
-0.0334
  70
32
  0
VERTEX
  5
408
  100
AcDbEntity
  8
Layer 1
  62
0
  100
AcDb2dVertex
  10
12.14109
  20
14.95189
  30
0.00000
  70
32
  0
SEQEND
  5
409
  100
AcDbEntity
  8
Layer 1
  62
0
  0
POLYLINE
  5
40A
  100
AcDbEntity
  8
Layer 1
  62
0
  100
AcDb2dPolyline
 66
     1
  10
0
  20
0
  30
0
  70
1
  0
VERTEX
  5
40B
  100
AcDbEntity
  8
Layer 1
  62
0
  100
AcDb2dVertex
  10
5.88379
  20
11.82123
  30
0.00000
  42
0.1479
  70
32
  0
VERTEX
  5
40C
  100
AcDbEntity
  8
Layer 1
  62
0
  100
AcDb2dVertex
  10
6.41113
  20
11.07150
  30
0.00000
  42
0.1001
  70
32
  0
VERTEX
  5
40D
  100
AcDbEntity
  8
Layer 1
  62
0
  100
AcDb2dVertex
  10
8.10434
  20
10.15263
  30
0.00000
  42
0.3683
  70
32
  0
VERTEX
  5
40E
  100
AcDbEntity
  8
Layer 1
  62
0
  100
AcDb2dVertex
  10
8.14419
  20
10.17606
  30
0.00000
  42
0.0892
  70
32
  0
VERTEX
  5
40F
  100
AcDbEntity
  8
Layer 1
  62
0
  100
AcDb2dVertex
  10
8.15036
  20
10.26259
  30
0.00000
  70
32
  0
VERTEX
  5
410
  100
AcDbEntity
  8
Layer 1
  62
0
  100
AcDb2dVertex
  10
8.15058
  20
11.71004
  30
0.00000
  70
32
  0
VERTEX
  5
411
  100
AcDbEntity
  8
Layer 1
  62
0
  100
AcDb2dVertex
  10
8.14851
  20
13.79570
  30
0.00000
  42
0.1737
  70
32
  0
VERTEX
  5
412
  100
AcDbEntity
  8
Layer 1
  62
0
  100
AcDb2dVertex
  10
8.13543
  20
13.83067
  30
0.00000
  42
0.1876
  70
32
  0
VERTEX
  5
413
  100
AcDbEntity
  8
Layer 1
  62
0
  100
AcDb2dVertex
  10
8.10139
  20
13.84282
  30
0.00000
  42
0.0756
  70
32
  0
VERTEX
  5
414
  100
AcDbEntity
  8
Layer 1
  62
0
  100
AcDb2dVertex
  10
7.95215
  20
13.80169
  30
0.00000
  42
0.0587
  70
32
  0
VERTEX
  5
415
  100
AcDbEntity
  8
Layer 1
  62
0
  100
AcDb2dVertex
  10
6.81688
  20
13.30795
  30
0.00000
  42
0.1054
  70
32
  0
VERTEX
  5
416
  100
AcDbEntity
  8
Layer 1
  62
0
  100
AcDb2dVertex
  10
6.05910
  20
12.61252
  30
0.00000
  42
0.1852
  70
32
  0
VERTEX
  5
417
  100
AcDbEntity
  8
Layer 1
  62
0
  100
AcDb2dVertex
  10
5.88379
  20
11.82123
  30
0.00000
  70
32
  0
SEQEND
  5
418
  100
AcDbEntity
  8
Layer 1
  62
0
  0
POLYLINE
  5
419
  100
AcDbEntity
  8
Layer 1
  62
0
  100
AcDb2dPolyline
 66
     1
  10
0
  20
0
  30
0
  70
1
  0
VERTEX
  5
41A
  100
AcDbEntity
  8
Layer 1
  62
0
  100
AcDb2dVertex
  10
5.10804
  20
11.57392
  30
0.00000
  42
-0.1419
  70
32
  0
VERTEX
  5
41B
  100
AcDbEntity
  8
Layer 1
  62
0
  100
AcDb2dVertex
  10
5.18013
  20
12.69884
  30
0.00000
  42
-0.1712
  70
32
  0
VERTEX
  5
41C
  100
AcDbEntity
  8
Layer 1
  62
0
  100
AcDb2dVertex
  10
6.33169
  20
13.96929
  30
0.00000
  42
-0.0972
  70
32
  0
VERTEX
  5
41D
  100
AcDbEntity
  8
Layer 1
  62
0
  100
AcDb2dVertex
  10
8.82870
  20
14.81810
  30
0.00000
  42
0.1012
  70
32
  0
VERTEX
  5
41E
  100
AcDbEntity
  8
Layer 1
  62
0
  100
AcDb2dVertex
  10
8.90722
  20
14.84250
  30
0.00000
  42
-0.2810
  70
32
  0
VERTEX
  5
41F
  100
AcDbEntity
  8
Layer 1
  62
0
  100
AcDb2dVertex
  10
8.93016
  20
14.84144
  30
0.00000
  42
-0.1627
  70
32
  0
VERTEX
  5
420
  100
AcDbEntity
  8
Layer 1
  62
0
  100
AcDb2dVertex
  10
8.94126
  20
14.80850
  30
0.00000
  70
32
  0
VERTEX
  5
421
  100
AcDbEntity
  8
Layer 1
  62
0
  100
AcDb2dVertex
  10
8.94324
  20
10.47701
  30
0.00000
  70
32
  0
VERTEX
  5
422
  100
AcDbEntity
  8
Layer 1
  62
0
  100
AcDb2dVertex
  10
8.94117
  20
9.22800
  30
0.00000
  42
-0.1736
  70
32
  0
VERTEX
  5
423
  100
AcDbEntity
  8
Layer 1
  62
0
  100
AcDb2dVertex
  10
8.92809
  20
9.19307
  30
0.00000
  42
-0.1736
  70
32
  0
VERTEX
  5
424
  100
AcDbEntity
  8
Layer 1
  62
0
  100
AcDb2dVertex
  10
8.89317
  20
9.18000
  30
0.00000
  42
-0.0198
  70
32
  0
VERTEX
  5
425
  100
AcDbEntity
  8
Layer 1
  62
0
  100
AcDb2dVertex
  10
8.74498
  20
9.17907
  30
0.00000
  42
-0.1210
  70
32
  0
VERTEX
  5
426
  100
AcDbEntity
  8
Layer 1
  62
0
  100
AcDb2dVertex
  10
6.03602
  20
10.34411
  30
0.00000
  42
-0.1626
  70
32
  0
VERTEX
  5
427
  100
AcDbEntity
  8
Layer 1
  62
0
  100
AcDb2dVertex
  10
5.10804
  20
11.57392
  30
0.00000
  70
32
  0
SEQEND
  5
428
  100
AcDbEntity
  8
Layer 1
  62
0
  0
POLYLINE
  5
429
  100
AcDbEntity
  8
Layer 1
  62
0
  100
AcDb2dPolyline
 66
     1
  10
0
  20
0
  30
0
  70
1
  0
VERTEX
  5
42A
  100
AcDbEntity
  8
Layer 1
  62
0
  100
AcDb2dVertex
  10
11.33148
  20
9.67488
  30
0.00000
  42
-0.0566
  70
32
  0
VERTEX
  5
42B
  100
AcDbEntity
  8
Layer 1
  62
0
  100
AcDb2dVertex
  10
11.95966
  20
9.70637
  30
0.00000
  42
0.0059
  70
32
  0
VERTEX
  5
42C
  100
AcDbEntity
  8
Layer 1
  62
0
  100
AcDb2dVertex
  10
12.13013
  20
9.70654
  30
0.00000
  42
0.0567
  70
32
  0
VERTEX
  5
42D
  100
AcDbEntity
  8
Layer 1
  62
0
  100
AcDb2dVertex
  10
12.21666
  20
9.71275
  30
0.00000
  42
0.2341
  70
32
  0
VERTEX
  5
42E
  100
AcDbEntity
  8
Layer 1
  62
0
  100
AcDb2dVertex
  10
12.24110
  20
9.73354
  30
0.00000
  42
0.0839
  70
32
  0
VERTEX
  5
42F
  100
AcDbEntity
  8
Layer 1
  62
0
  100
AcDb2dVertex
  10
12.24581
  20
9.82223
  30
0.00000
  70
32
  0
VERTEX
  5
430
  100
AcDbEntity
  8
Layer 1
  62
0
  100
AcDb2dVertex
  10
12.24599
  20
10.12472
  30
0.00000
  42
0.0052
  70
32
  0
VERTEX
  5
431
  100
AcDbEntity
  8
Layer 1
  62
0
  100
AcDb2dVertex
  10
12.24370
  20
10.51876
  30
0.00000
  42
0.4084
  70
32
  0
VERTEX
  5
432
  100
AcDbEntity
  8
Layer 1
  62
0
  100
AcDb2dVertex
  10
12.13361
  20
10.62885
  30
0.00000
  42
0.0052
  70
32
  0
VERTEX
  5
433
  100
AcDbEntity
  8
Layer 1
  62
0
  100
AcDb2dVertex
  10
11.25745
  20
10.62885
  30
0.00000
  42
0.4084
  70
32
  0
VERTEX
  5
434
  100
AcDbEntity
  8
Layer 1
  62
0
  100
AcDb2dVertex
  10
11.14736
  20
10.51876
  30
0.00000
  42
0.0062
  70
32
  0
VERTEX
  5
435
  100
AcDbEntity
  8
Layer 1
  62
0
  100
AcDb2dVertex
  10
11.14736
  20
9.77471
  30
0.00000
  42
0.2902
  70
32
  0
VERTEX
  5
436
  100
AcDbEntity
  8
Layer 1
  62
0
  100
AcDb2dVertex
  10
11.22060
  20
9.67180
  30
0.00000
  42
0.1609
  70
32
  0
VERTEX
  5
437
  100
AcDbEntity
  8
Layer 1
  62
0
  100
AcDb2dVertex
  10
11.33148
  20
9.67488
  30
0.00000
  70
32
  0
SEQEND
  5
438
  100
AcDbEntity
  8
Layer 1
  62
0
  0
POLYLINE
  5
439
  100
AcDbEntity
  8
Layer 1
  62
0
  100
AcDb2dPolyline
 66
     1
  10
0
  20
0
  30
0
  70
1
  0
VERTEX
  5
43A
  100
AcDbEntity
  8
Layer 1
  62
0
  100
AcDb2dVertex
  10
12.50035
  20
9.03362
  30
0.00000
  42
-0.0847
  70
32
  0
VERTEX
  5
43B
  100
AcDbEntity
  8
Layer 1
  62
0
  100
AcDb2dVertex
  10
12.22388
  20
9.00182
  30
0.00000
  70
32
  0
VERTEX
  5
43C
  100
AcDbEntity
  8
Layer 1
  62
0
  100
AcDb2dVertex
  10
10.62267
  20
9.00385
  30
0.00000
  42
-0.1736
  70
32
  0
VERTEX
  5
43D
  100
AcDbEntity
  8
Layer 1
  62
0
  100
AcDb2dVertex
  10
10.58774
  20
9.01693
  30
0.00000
  42
-0.1736
  70
32
  0
VERTEX
  5
43E
  100
AcDbEntity
  8
Layer 1
  62
0
  100
AcDb2dVertex
  10
10.57467
  20
9.05185
  30
0.00000
  70
32
  0
VERTEX
  5
43F
  100
AcDbEntity
  8
Layer 1
  62
0
  100
AcDb2dVertex
  10
10.57467
  20
11.24157
  30
0.00000
  42
-0.1738
  70
32
  0
VERTEX
  5
440
  100
AcDbEntity
  8
Layer 1
  62
0
  100
AcDb2dVertex
  10
10.58774
  20
11.27654
  30
0.00000
  42
-0.1735
  70
32
  0
VERTEX
  5
441
  100
AcDbEntity
  8
Layer 1
  62
0
  100
AcDb2dVertex
  10
10.62267
  20
11.28962
  30
0.00000
  70
32
  0
VERTEX
  5
442
  100
AcDbEntity
  8
Layer 1
  62
0
  100
AcDb2dVertex
  10
12.76840
  20
11.28962
  30
0.00000
  42
-0.1734
  70
32
  0
VERTEX
  5
443
  100
AcDbEntity
  8
Layer 1
  62
0
  100
AcDb2dVertex
  10
12.80332
  20
11.27654
  30
0.00000
  42
-0.1738
  70
32
  0
VERTEX
  5
444
  100
AcDbEntity
  8
Layer 1
  62
0
  100
AcDb2dVertex
  10
12.81640
  20
11.24157
  30
0.00000
  70
32
  0
VERTEX
  5
445
  100
AcDbEntity
  8
Layer 1
  62
0
  100
AcDb2dVertex
  10
12.81640
  20
9.09589
  30
0.00000
  42
-0.1736
  70
32
  0
VERTEX
  5
446
  100
AcDbEntity
  8
Layer 1
  62
0
  100
AcDb2dVertex
  10
12.80332
  20
9.06096
  30
0.00000
  42
-0.1736
  70
32
  0
VERTEX
  5
447
  100
AcDbEntity
  8
Layer 1
  62
0
  100
AcDb2dVertex
  10
12.76840
  20
9.04789
  30
0.00000
  42
0.0356
  70
32
  0
VERTEX
  5
448
  100
AcDbEntity
  8
Layer 1
  62
0
  100
AcDb2dVertex
  10
12.50035
  20
9.03362
  30
0.00000
  70
32
  0
SEQEND
  5
449
  100
AcDbEntity
  8
Layer 1
  62
0
  0
POLYLINE
  5
44A
  100
AcDbEntity
  8
Layer 1
  62
0
  100
AcDb2dPolyline
 66
     1
  10
0
  20
0
  30
0
  70
1
  0
VERTEX
  5
44B
  100
AcDbEntity
  8
Layer 1
  62
0
  100
AcDb2dVertex
  10
23.10570
  20
5.96294
  30
0.00000
  42
0.2392
  70
32
  0
VERTEX
  5
44C
  100
AcDbEntity
  8
Layer 1
  62
0
  100
AcDb2dVertex
  10
23.23011
  20
5.92383
  30
0.00000
  42
0.0293
  70
32
  0
VERTEX
  5
44D
  100
AcDbEntity
  8
Layer 1
  62
0
  100
AcDb2dVertex
  10
23.30647
  20
5.92718
  30
0.00000
  42
0.3040
  70
32
  0
VERTEX
  5
44E
  100
AcDbEntity
  8
Layer 1
  62
0
  100
AcDb2dVertex
  10
23.38169
  20
6.01888
  30
0.00000
  42
0.3040
  70
32
  0
VERTEX
  5
44F
  100
AcDbEntity
  8
Layer 1
  62
0
  100
AcDb2dVertex
  10
23.32549
  20
6.12332
  30
0.00000
  70
32
  0
VERTEX
  5
450
  100
AcDbEntity
  8
Layer 1
  62
0
  100
AcDb2dVertex
  10
23.29370
  20
6.13385
  30
0.00000
  42
0.0182
  70
32
  0
VERTEX
  5
451
  100
AcDbEntity
  8
Layer 1
  62
0
  100
AcDb2dVertex
  10
23.17687
  20
6.13468
  30
0.00000
  42
0.5769
  70
32
  0
VERTEX
  5
452
  100
AcDbEntity
  8
Layer 1
  62
0
  100
AcDb2dVertex
  10
23.10570
  20
5.96294
  30
0.00000
  70
32
  0
SEQEND
  5
453
  100
AcDbEntity
  8
Layer 1
  62
0
  0
POLYLINE
  5
454
  100
AcDbEntity
  8
Layer 1
  62
0
  100
AcDb2dPolyline
 66
     1
  10
0
  20
0
  30
0
  70
1
  0
VERTEX
  5
455
  100
AcDbEntity
  8
Layer 1
  62
0
  100
AcDb2dVertex
  10
23.42730
  20
6.24548
  30
0.00000
  42
-0.1214
  70
32
  0
VERTEX
  5
456
  100
AcDbEntity
  8
Layer 1
  62
0
  100
AcDb2dVertex
  10
23.55395
  20
6.06449
  30
0.00000
  42
-0.1396
  70
32
  0
VERTEX
  5
457
  100
AcDbEntity
  8
Layer 1
  62
0
  100
AcDb2dVertex
  10
23.55395
  20
5.99412
  30
0.00000
  42
-0.1084
  70
32
  0
VERTEX
  5
458
  100
AcDbEntity
  8
Layer 1
  62
0
  100
AcDb2dVertex
  10
23.43545
  20
5.81273
  30
0.00000
  42
0.0223
  70
32
  0
VERTEX
  5
459
  100
AcDbEntity
  8
Layer 1
  62
0
  100
AcDb2dVertex
  10
23.40432
  20
5.77798
  30
0.00000
  42
0.2427
  70
32
  0
VERTEX
  5
45A
  100
AcDbEntity
  8
Layer 1
  62
0
  100
AcDb2dVertex
  10
23.40357
  20
5.75134
  30
0.00000
  42
-0.0242
  70
32
  0
VERTEX
  5
45B
  100
AcDbEntity
  8
Layer 1
  62
0
  100
AcDb2dVertex
  10
23.50666
  20
5.53812
  30
0.00000
  42
-0.1334
  70
32
  0
VERTEX
  5
45C
  100
AcDbEntity
  8
Layer 1
  62
0
  100
AcDb2dVertex
  10
23.51450
  20
5.46198
  30
0.00000
  42
-0.2438
  70
32
  0
VERTEX
  5
45D
  100
AcDbEntity
  8
Layer 1
  62
0
  100
AcDb2dVertex
  10
23.49221
  20
5.43969
  30
0.00000
  42
-0.3221
  70
32
  0
VERTEX
  5
45E
  100
AcDbEntity
  8
Layer 1
  62
0
  100
AcDb2dVertex
  10
23.36913
  20
5.48285
  30
0.00000
  42
-0.0118
  70
32
  0
VERTEX
  5
45F
  100
AcDbEntity
  8
Layer 1
  62
0
  100
AcDb2dVertex
  10
23.32153
  20
5.56723
  30
0.00000
  42
0.0453
  70
32
  0
VERTEX
  5
460
  100
AcDbEntity
  8
Layer 1
  62
0
  100
AcDb2dVertex
  10
23.21593
  20
5.75592
  30
0.00000
  42
0.3148
  70
32
  0
VERTEX
  5
461
  100
AcDbEntity
  8
Layer 1
  62
0
  100
AcDb2dVertex
  10
23.15040
  20
5.77834
  30
0.00000
  42
0.2807
  70
32
  0
VERTEX
  5
462
  100
AcDbEntity
  8
Layer 1
  62
0
  100
AcDb2dVertex
  10
23.08294
  20
5.67296
  30
0.00000
  70
32
  0
VERTEX
  5
463
  100
AcDbEntity
  8
Layer 1
  62
0
  100
AcDb2dVertex
  10
23.07695
  20
5.48488
  30
0.00000
  42
-0.1705
  70
32
  0
VERTEX
  5
464
  100
AcDbEntity
  8
Layer 1
  62
0
  100
AcDb2dVertex
  10
23.06400
  20
5.44996
  30
0.00000
  70
32
  0
VERTEX
  5
465
  100
AcDbEntity
  8
Layer 1
  62
0
  100
AcDb2dVertex
  10
23.04925
  20
5.44269
  30
0.00000
  42
-0.1128
  70
32
  0
VERTEX
  5
466
  100
AcDbEntity
  8
Layer 1
  62
0
  100
AcDb2dVertex
  10
22.97668
  20
5.44269
  30
0.00000
  70
32
  0
VERTEX
  5
467
  100
AcDbEntity
  8
Layer 1
  62
0
  100
AcDb2dVertex
  10
22.96192
  20
5.44996
  30
0.00000
  42
-0.1705
  70
32
  0
VERTEX
  5
468
  100
AcDbEntity
  8
Layer 1
  62
0
  100
AcDb2dVertex
  10
22.94898
  20
5.48488
  30
0.00000
  42
-0.0056
  70
32
  0
VERTEX
  5
469
  100
AcDbEntity
  8
Layer 1
  62
0
  100
AcDb2dVertex
  10
22.94898
  20
6.22139
  30
0.00000
  42
-0.1738
  70
32
  0
VERTEX
  5
46A
  100
AcDbEntity
  8
Layer 1
  62
0
  100
AcDb2dVertex
  10
22.96206
  20
6.25636
  30
0.00000
  42
-0.1737
  70
32
  0
VERTEX
  5
46B
  100
AcDbEntity
  8
Layer 1
  62
0
  100
AcDb2dVertex
  10
22.99702
  20
6.26943
  30
0.00000
  42
-0.0165
  70
32
  0
VERTEX
  5
46C
  100
AcDbEntity
  8
Layer 1
  62
0
  100
AcDb2dVertex
  10
23.36125
  20
6.26750
  30
0.00000
  42
-0.1141
  70
32
  0
VERTEX
  5
46D
  100
AcDbEntity
  8
Layer 1
  62
0
  100
AcDb2dVertex
  10
23.42730
  20
6.24548
  30
0.00000
  70
32
  0
SEQEND
  5
46E
  100
AcDbEntity
  8
Layer 1
  62
0
  0
POLYLINE
  5
46F
  100
AcDbEntity
  8
Layer 1
  62
0
  100
AcDb2dPolyline
 66
     1
  10
0
  20
0
  30
0
  70
1
  0
VERTEX
  5
470
  100
AcDbEntity
  8
Layer 1
  62
0
  100
AcDb2dVertex
  10
13.15178
  20
5.56383
  30
0.00000
  42
-0.0751
  70
32
  0
VERTEX
  5
471
  100
AcDbEntity
  8
Layer 1
  62
0
  100
AcDb2dVertex
  10
12.70868
  20
5.52257
  30
0.00000
  42
-0.0501
  70
32
  0
VERTEX
  5
472
  100
AcDbEntity
  8
Layer 1
  62
0
  100
AcDb2dVertex
  10
11.91884
  20
5.47572
  30
0.00000
  42
0.0334
  70
32
  0
VERTEX
  5
473
  100
AcDbEntity
  8
Layer 1
  62
0
  100
AcDb2dVertex
  10
11.73437
  20
5.43996
  30
0.00000
  42
-0.0066
  70
32
  0
VERTEX
  5
474
  100
AcDbEntity
  8
Layer 1
  62
0
  100
AcDb2dVertex
  10
10.99094
  20
5.43481
  30
0.00000
  42
-0.0263
  70
32
  0
VERTEX
  5
475
  100
AcDbEntity
  8
Layer 1
  62
0
  100
AcDb2dVertex
  10
10.08819
  20
5.45683
  30
0.00000
  42
0.0178
  70
32
  0
VERTEX
  5
476
  100
AcDbEntity
  8
Layer 1
  62
0
  100
AcDb2dVertex
  10
9.50585
  20
5.49100
  30
0.00000
  42
0.1050
  70
32
  0
VERTEX
  5
477
  100
AcDbEntity
  8
Layer 1
  62
0
  100
AcDb2dVertex
  10
9.27325
  20
5.52262
  30
0.00000
  42
-0.0232
  70
32
  0
VERTEX
  5
478
  100
AcDbEntity
  8
Layer 1
  62
0
  100
AcDb2dVertex
  10
8.45892
  20
5.63302
  30
0.00000
  42
-0.0900
  70
32
  0
VERTEX
  5
479
  100
AcDbEntity
  8
Layer 1
  62
0
  100
AcDb2dVertex
  10
4.79947
  20
6.90568
  30
0.00000
  42
-0.0591
  70
32
  0
VERTEX
  5
47A
  100
AcDbEntity
  8
Layer 1
  62
0
  100
AcDb2dVertex
  10
3.35058
  20
7.96692
  30
0.00000
  42
-0.1791
  70
32
  0
VERTEX
  5
47B
  100
AcDbEntity
  8
Layer 1
  62
0
  100
AcDb2dVertex
  10
1.50183
  20
11.40257
  30
0.00000
  42
-0.0510
  70
32
  0
VERTEX
  5
47C
  100
AcDbEntity
  8
Layer 1
  62
0
  100
AcDb2dVertex
  10
1.45731
  20
12.32624
  30
0.00000
  42
-0.0130
  70
32
  0
VERTEX
  5
47D
  100
AcDbEntity
  8
Layer 1
  62
0
  100
AcDb2dVertex
  10
1.54027
  20
12.90383
  30
0.00000
  42
-0.1558
  70
32
  0
VERTEX
  5
47E
  100
AcDbEntity
  8
Layer 1
  62
0
  100
AcDb2dVertex
  10
3.13039
  20
15.67334
  30
0.00000
  42
-0.0465
  70
32
  0
VERTEX
  5
47F
  100
AcDbEntity
  8
Layer 1
  62
0
  100
AcDb2dVertex
  10
4.25536
  20
16.61810
  30
0.00000
  42
-0.1201
  70
32
  0
VERTEX
  5
480
  100
AcDbEntity
  8
Layer 1
  62
0
  100
AcDb2dVertex
  10
9.48154
  20
18.48182
  30
0.00000
  42
-0.0834
  70
32
  0
VERTEX
  5
481
  100
AcDbEntity
  8
Layer 1
  62
0
  100
AcDb2dVertex
  10
9.75765
  20
18.51393
  30
0.00000
  42
-0.0451
  70
32
  0
VERTEX
  5
482
  100
AcDbEntity
  8
Layer 1
  62
0
  100
AcDb2dVertex
  10
10.72672
  20
18.55774
  30
0.00000
  42
-0.0078
  70
32
  0
VERTEX
  5
483
  100
AcDbEntity
  8
Layer 1
  62
0
  100
AcDb2dVertex
  10
12.34393
  20
18.54554
  30
0.00000
  42
0.1053
  70
32
  0
VERTEX
  5
484
  100
AcDbEntity
  8
Layer 1
  62
0
  100
AcDb2dVertex
  10
12.57657
  20
18.51401
  30
0.00000
  42
-0.0052
  70
32
  0
VERTEX
  5
485
  100
AcDbEntity
  8
Layer 1
  62
0
  100
AcDb2dVertex
  10
13.27975
  20
18.46857
  30
0.00000
  42
0.0400
  70
32
  0
VERTEX
  5
486
  100
AcDbEntity
  8
Layer 1
  62
0
  100
AcDb2dVertex
  10
13.70907
  20
18.41343
  30
0.00000
  42
0.0419
  70
32
  0
VERTEX
  5
487
  100
AcDbEntity
  8
Layer 1
  62
0
  100
AcDb2dVertex
  10
14.06136
  20
18.36940
  30
0.00000
  42
-0.0582
  70
32
  0
VERTEX
  5
488
  100
AcDbEntity
  8
Layer 1
  62
0
  100
AcDb2dVertex
  10
17.89083
  20
17.34083
  30
0.00000
  42
0.2339
  70
32
  0
VERTEX
  5
489
  100
AcDbEntity
  8
Layer 1
  62
0
  100
AcDb2dVertex
  10
17.91761
  20
17.34176
  30
0.00000
  42
0.0536
  70
32
  0
VERTEX
  5
48A
  100
AcDbEntity
  8
Layer 1
  62
0
  100
AcDb2dVertex
  10
17.97019
  20
17.39509
  30
0.00000
  42
-0.0545
  70
32
  0
VERTEX
  5
48B
  100
AcDbEntity
  8
Layer 1
  62
0
  100
AcDb2dVertex
  10
18.30346
  20
17.76235
  30
0.00000
  70
32
  0
VERTEX
  5
48C
  100
AcDbEntity
  8
Layer 1
  62
0
  100
AcDb2dVertex
  10
18.32534
  20
17.78477
  30
0.00000
  42
-0.2226
  70
32
  0
VERTEX
  5
48D
  100
AcDbEntity
  8
Layer 1
  62
0
  100
AcDb2dVertex
  10
18.42429
  20
17.79965
  30
0.00000
  70
32
  0
VERTEX
  5
48E
  100
AcDbEntity
  8
Layer 1
  62
0
  100
AcDb2dVertex
  10
20.65009
  20
17.14720
  30
0.00000
  70
32
  0
VERTEX
  5
48F
  100
AcDbEntity
  8
Layer 1
  62
0
  100
AcDb2dVertex
  10
20.67184
  20
17.14227
  30
0.00000
  42
-0.2333
  70
32
  0
VERTEX
  5
490
  100
AcDbEntity
  8
Layer 1
  62
0
  100
AcDb2dVertex
  10
20.69465
  20
17.11924
  30
0.00000
  70
32
  0
VERTEX
  5
491
  100
AcDbEntity
  8
Layer 1
  62
0
  100
AcDb2dVertex
  10
21.21693
  20
14.64869
  30
0.00000
  42
-0.2299
  70
32
  0
VERTEX
  5
492
  100
AcDbEntity
  8
Layer 1
  62
0
  100
AcDb2dVertex
  10
21.20517
  20
14.50866
  30
0.00000
  70
32
  0
VERTEX
  5
493
  100
AcDbEntity
  8
Layer 1
  62
0
  100
AcDb2dVertex
  10
20.12856
  20
13.42742
  30
0.00000
  42
-0.0504
  70
32
  0
VERTEX
  5
494
  100
AcDbEntity
  8
Layer 1
  62
0
  100
AcDb2dVertex
  10
19.67736
  20
12.93782
  30
0.00000
  42
-0.3256
  70
32
  0
VERTEX
  5
495
  100
AcDbEntity
  8
Layer 1
  62
0
  100
AcDb2dVertex
  10
19.61095
  20
12.93782
  30
0.00000
  42
-0.0318
  70
32
  0
VERTEX
  5
496
  100
AcDbEntity
  8
Layer 1
  62
0
  100
AcDb2dVertex
  10
19.53349
  20
13.00974
  30
0.00000
  42
0.0845
  70
32
  0
VERTEX
  5
497
  100
AcDbEntity
  8
Layer 1
  62
0
  100
AcDb2dVertex
  10
17.63313
  20
14.27883
  30
0.00000
  42
0.0812
  70
32
  0
VERTEX
  5
498
  100
AcDbEntity
  8
Layer 1
  62
0
  100
AcDb2dVertex
  10
13.36972
  20
15.47597
  30
0.00000
  42
0.0222
  70
32
  0
VERTEX
  5
499
  100
AcDbEntity
  8
Layer 1
  62
0
  100
AcDb2dVertex
  10
12.86250
  20
15.54123
  30
0.00000
  70
32
  0
VERTEX
  5
49A
  100
AcDbEntity
  8
Layer 1
  62
0
  100
AcDb2dVertex
  10
12.29003
  20
15.58527
  30
0.00000
  42
0.0294
  70
32
  0
VERTEX
  5
49B
  100
AcDbEntity
  8
Layer 1
  62
0
  100
AcDb2dVertex
  10
11.56342
  20
15.60728
  30
0.00000
  42
0.0078
  70
32
  0
VERTEX
  5
49C
  100
AcDbEntity
  8
Layer 1
  62
0
  100
AcDb2dVertex
  10
9.94622
  20
15.59509
  30
0.00000
  42
-0.0844
  70
32
  0
VERTEX
  5
49D
  100
AcDbEntity
  8
Layer 1
  62
0
  100
AcDb2dVertex
  10
9.66984
  20
15.56325
  30
0.00000
  42
0.0076
  70
32
  0
VERTEX
  5
49E
  100
AcDbEntity
  8
Layer 1
  62
0
  100
AcDb2dVertex
  10
8.96446
  20
15.47597
  30
0.00000
  42
0.0424
  70
32
  0
VERTEX
  5
49F
  100
AcDbEntity
  8
Layer 1
  62
0
  100
AcDb2dVertex
  10
7.55608
  20
15.16692
  30
0.00000
  42
0.1289
  70
32
  0
VERTEX
  5
4A0
  100
AcDbEntity
  8
Layer 1
  62
0
  100
AcDb2dVertex
  10
5.15837
  20
13.82151
  30
0.00000
  42
0.1215
  70
32
  0
VERTEX
  5
4A1
  100
AcDbEntity
  8
Layer 1
  62
0
  100
AcDb2dVertex
  10
4.46365
  20
12.53454
  30
0.00000
  42
-0.0073
  70
32
  0
VERTEX
  5
4A2
  100
AcDbEntity
  8
Layer 1
  62
0
  100
AcDb2dVertex
  10
4.43934
  20
12.25063
  30
0.00000
  42
0.1277
  70
32
  0
VERTEX
  5
4A3
  100
AcDbEntity
  8
Layer 1
  62
0
  100
AcDb2dVertex
  10
4.41961
  20
11.98641
  30
0.00000
  42
-0.1007
  70
32
  0
VERTEX
  5
4A4
  100
AcDbEntity
  8
Layer 1
  62
0
  100
AcDb2dVertex
  10
4.45229
  20
11.75487
  30
0.00000
  42
0.1385
  70
32
  0
VERTEX
  5
4A5
  100
AcDbEntity
  8
Layer 1
  62
0
  100
AcDb2dVertex
  10
5.04110
  20
10.45010
  30
0.00000
  42
0.0925
  70
32
  0
VERTEX
  5
4A6
  100
AcDbEntity
  8
Layer 1
  62
0
  100
AcDb2dVertex
  10
6.32305
  20
9.39811
  30
0.00000
  42
0.0631
  70
32
  0
VERTEX
  5
4A7
  100
AcDbEntity
  8
Layer 1
  62
0
  100
AcDb2dVertex
  10
8.31682
  20
8.66160
  30
0.00000
  42
0.0296
  70
32
  0
VERTEX
  5
4A8
  100
AcDbEntity
  8
Layer 1
  62
0
  100
AcDb2dVertex
  10
9.18240
  20
8.51429
  30
0.00000
  42
0.0440
  70
32
  0
VERTEX
  5
4A9
  100
AcDbEntity
  8
Layer 1
  62
0
  100
AcDb2dVertex
  10
10.01901
  20
8.42618
  30
0.00000
  42
-0.0334
  70
32
  0
VERTEX
  5
4AA
  100
AcDbEntity
  8
Layer 1
  62
0
  100
AcDb2dVertex
  10
10.20348
  20
8.39042
  30
0.00000
  70
32
  0
VERTEX
  5
4AB
  100
AcDbEntity
  8
Layer 1
  62
0
  100
AcDb2dVertex
  10
12.35498
  20
8.38637
  30
0.00000
  42
-0.0676
  70
32
  0
VERTEX
  5
4AC
  100
AcDbEntity
  8
Layer 1
  62
0
  100
AcDb2dVertex
  10
12.88443
  20
8.42935
  30
0.00000
  42
0.0530
  70
32
  0
VERTEX
  5
4AD
  100
AcDbEntity
  8
Layer 1
  62
0
  100
AcDb2dVertex
  10
15.95525
  20
9.01363
  30
0.00000
  42
0.0577
  70
32
  0
VERTEX
  5
4AE
  100
AcDbEntity
  8
Layer 1
  62
0
  100
AcDb2dVertex
  10
20.00719
  20
10.87862
  30
0.00000
  42
-0.2417
  70
32
  0
VERTEX
  5
4AF
  100
AcDbEntity
  8
Layer 1
  62
0
  100
AcDb2dVertex
  10
20.05726
  20
10.88668
  30
0.00000
  42
-0.1107
  70
32
  0
VERTEX
  5
4B0
  100
AcDbEntity
  8
Layer 1
  62
0
  100
AcDb2dVertex
  10
20.10914
  20
10.84683
  30
0.00000
  42
-0.0059
  70
32
  0
VERTEX
  5
4B1
  100
AcDbEntity
  8
Layer 1
  62
0
  100
AcDb2dVertex
  10
21.61427
  20
8.58466
  30
0.00000
  42
-0.1688
  70
32
  0
VERTEX
  5
4B2
  100
AcDbEntity
  8
Layer 1
  62
0
  100
AcDb2dVertex
  10
21.61850
  20
8.54490
  30
0.00000
  42
-0.1265
  70
32
  0
VERTEX
  5
4B3
  100
AcDbEntity
  8
Layer 1
  62
0
  100
AcDb2dVertex
  10
21.57486
  20
8.49668
  30
0.00000
  42
-0.0200
  70
32
  0
VERTEX
  5
4B4
  100
AcDbEntity
  8
Layer 1
  62
0
  100
AcDb2dVertex
  10
21.40562
  20
8.40728
  30
0.00000
  42
-0.0059
  70
32
  0
VERTEX
  5
4B5
  100
AcDbEntity
  8
Layer 1
  62
0
  100
AcDb2dVertex
  10
19.76160
  20
7.54121
  30
0.00000
  42
-0.0918
  70
32
  0
VERTEX
  5
4B6
  100
AcDbEntity
  8
Layer 1
  62
0
  100
AcDb2dVertex
  10
13.15178
  20
5.56383
  30
0.00000
  70
32
  0
SEQEND
  5
4B7
  100
AcDbEntity
  8
Layer 1
  62
0
  0
POLYLINE
  5
4B8
  100
AcDbEntity
  8
Layer 1
  62
0
  100
AcDb2dPolyline
 66
     1
  10
0
  20
0
  30
0
  70
1
  0
VERTEX
  5
4B9
  100
AcDbEntity
  8
Layer 1
  62
0
  100
AcDb2dVertex
  10
22.66208
  20
5.96245
  30
0.00000
  42
0.0156
  70
32
  0
VERTEX
  5
4BA
  100
AcDbEntity
  8
Layer 1
  62
0
  100
AcDb2dVertex
  10
22.64125
  20
5.89521
  30
0.00000
  42
0.1428
  70
32
  0
VERTEX
  5
4BB
  100
AcDbEntity
  8
Layer 1
  62
0
  100
AcDb2dVertex
  10
22.65120
  20
5.82088
  30
0.00000
  42
0.1811
  70
32
  0
VERTEX
  5
4BC
  100
AcDbEntity
  8
Layer 1
  62
0
  100
AcDb2dVertex
  10
22.83712
  20
5.43512
  30
0.00000
  42
0.3715
  70
32
  0
VERTEX
  5
4BD
  100
AcDbEntity
  8
Layer 1
  62
0
  100
AcDb2dVertex
  10
23.60260
  20
5.38875
  30
0.00000
  42
0.3715
  70
32
  0
VERTEX
  5
4BE
  100
AcDbEntity
  8
Layer 1
  62
0
  100
AcDb2dVertex
  10
23.76128
  20
6.13904
  30
0.00000
  42
0.3198
  70
32
  0
VERTEX
  5
4BF
  100
AcDbEntity
  8
Layer 1
  62
0
  100
AcDb2dVertex
  10
23.14880
  20
6.44224
  30
0.00000
  42
0.3198
  70
32
  0
VERTEX
  5
4C0
  100
AcDbEntity
  8
Layer 1
  62
0
  100
AcDb2dVertex
  10
22.66208
  20
5.96245
  30
0.00000
  70
32
  0
SEQEND
  5
4C1
  100
AcDbEntity
  8
Layer 1
  62
0
  0
POLYLINE
  5
4C2
  100
AcDbEntity
  8
Layer 1
  62
0
  100
AcDb2dPolyline
 66
     1
  10
0
  20
0
  30
0
  70
1
  0
VERTEX
  5
4C3
  100
AcDbEntity
  8
Layer 1
  62
0
  100
AcDb2dVertex
  10
23.99855
  20
5.81423
  30
0.00000
  42
0.0151
  70
32
  0
VERTEX
  5
4C4
  100
AcDbEntity
  8
Layer 1
  62
0
  100
AcDb2dVertex
  10
23.95535
  20
5.63738
  30
0.00000
  42
-0.4344
  70
32
  0
VERTEX
  5
4C5
  100
AcDbEntity
  8
Layer 1
  62
0
  100
AcDb2dVertex
  10
22.97405
  20
5.17007
  30
0.00000
  42
-0.4344
  70
32
  0
VERTEX
  5
4C6
  100
AcDbEntity
  8
Layer 1
  62
0
  100
AcDb2dVertex
  10
22.57493
  20
6.18105
  30
0.00000
  42
-0.3561
  70
32
  0
VERTEX
  5
4C7
  100
AcDbEntity
  8
Layer 1
  62
0
  100
AcDb2dVertex
  10
23.43632
  20
6.57813
  30
0.00000
  42
-0.3561
  70
32
  0
VERTEX
  5
4C8
  100
AcDbEntity
  8
Layer 1
  62
0
  100
AcDb2dVertex
  10
23.99855
  20
5.81423
  30
0.00000
  70
32
  0
SEQEND
  5
4C9
  100
AcDbEntity
  8
Layer 1
  62
0
  0
POLYLINE
  5
4CA
  100
AcDbEntity
  8
Layer 1
  62
0
  100
AcDb2dPolyline
 66
     1
  10
0
  20
0
  30
0
  70
1
  0
VERTEX
  5
4CB
  100
AcDbEntity
  8
Layer 1
  62
0
  100
AcDb2dVertex
  10
14.64322
  20
14.63566
  30
0.00000
  42
-0.1255
  70
32
  0
VERTEX
  5
4CC
  100
AcDbEntity
  8
Layer 1
  62
0
  100
AcDb2dVertex
  10
18.94450
  20
12.72781
  30
0.00000
  42
-0.0507
  70
32
  0
VERTEX
  5
4CD
  100
AcDbEntity
  8
Layer 1
  62
0
  100
AcDb2dVertex
  10
19.63803
  20
12.11416
  30
0.00000
  42
0.1730
  70
32
  0
VERTEX
  5
4CE
  100
AcDbEntity
  8
Layer 1
  62
0
  100
AcDb2dVertex
  10
19.68819
  20
12.09029
  30
0.00000
  42
0.2045
  70
32
  0
VERTEX
  5
4CF
  100
AcDbEntity
  8
Layer 1
  62
0
  100
AcDb2dVertex
  10
19.73835
  20
12.11416
  30
0.00000
  42
0.0168
  70
32
  0
VERTEX
  5
4D0
  100
AcDbEntity
  8
Layer 1
  62
0
  100
AcDb2dVertex
  10
21.07535
  20
13.49352
  30
0.00000
  70
32
  0
VERTEX
  5
4D1
  100
AcDbEntity
  8
Layer 1
  62
0
  100
AcDb2dVertex
  10
21.90976
  20
14.33247
  30
0.00000
  42
0.2358
  70
32
  0
VERTEX
  5
4D2
  100
AcDbEntity
  8
Layer 1
  62
0
  100
AcDb2dVertex
  10
21.92460
  20
14.43146
  30
0.00000
  70
32
  0
VERTEX
  5
4D3
  100
AcDbEntity
  8
Layer 1
  62
0
  100
AcDb2dVertex
  10
21.91081
  20
14.46343
  30
0.00000
  42
0.0147
  70
32
  0
VERTEX
  5
4D4
  100
AcDbEntity
  8
Layer 1
  62
0
  100
AcDb2dVertex
  10
21.85810
  20
14.71664
  30
0.00000
  70
32
  0
VERTEX
  5
4D5
  100
AcDbEntity
  8
Layer 1
  62
0
  100
AcDb2dVertex
  10
21.33979
  20
17.06072
  30
0.00000
  42
0.0247
  70
32
  0
VERTEX
  5
4D6
  100
AcDbEntity
  8
Layer 1
  62
0
  100
AcDb2dVertex
  10
21.22032
  20
17.55776
  30
0.00000
  42
0.1402
  70
32
  0
VERTEX
  5
4D7
  100
AcDbEntity
  8
Layer 1
  62
0
  100
AcDb2dVertex
  10
21.18315
  20
17.60866
  30
0.00000
  42
0.0540
  70
32
  0
VERTEX
  5
4D8
  100
AcDbEntity
  8
Layer 1
  62
0
  100
AcDb2dVertex
  10
20.82183
  20
17.73175
  30
0.00000
  42
-0.0052
  70
32
  0
VERTEX
  5
4D9
  100
AcDbEntity
  8
Layer 1
  62
0
  100
AcDb2dVertex
  10
18.21543
  20
18.50058
  30
0.00000
  70
32
  0
VERTEX
  5
4DA
  100
AcDbEntity
  8
Layer 1
  62
0
  100
AcDb2dVertex
  10
18.17443
  20
18.50640
  30
0.00000
  70
32
  0
VERTEX
  5
4DB
  100
AcDbEntity
  8
Layer 1
  62
0
  100
AcDb2dVertex
  10
18.15792
  20
18.49675
  30
0.00000
  42
0.0557
  70
32
  0
VERTEX
  5
4DC
  100
AcDbEntity
  8
Layer 1
  62
0
  100
AcDb2dVertex
  10
17.83808
  20
18.14371
  30
0.00000
  42
-0.0537
  70
32
  0
VERTEX
  5
4DD
  100
AcDbEntity
  8
Layer 1
  62
0
  100
AcDb2dVertex
  10
17.78550
  20
18.09038
  30
0.00000
  42
-0.2339
  70
32
  0
VERTEX
  5
4DE
  100
AcDbEntity
  8
Layer 1
  62
0
  100
AcDb2dVertex
  10
17.75872
  20
18.08946
  30
0.00000
  42
0.0433
  70
32
  0
VERTEX
  5
4DF
  100
AcDbEntity
  8
Layer 1
  62
0
  100
AcDb2dVertex
  10
14.97622
  20
18.84389
  30
0.00000
  42
0.0208
  70
32
  0
VERTEX
  5
4E0
  100
AcDbEntity
  8
Layer 1
  62
0
  100
AcDb2dVertex
  10
13.55027
  20
19.04730
  30
0.00000
  42
0.0334
  70
32
  0
VERTEX
  5
4E1
  100
AcDbEntity
  8
Layer 1
  62
0
  100
AcDb2dVertex
  10
13.36580
  20
19.08306
  30
0.00000
  42
-0.0776
  70
32
  0
VERTEX
  5
4E2
  100
AcDbEntity
  8
Layer 1
  62
0
  100
AcDb2dVertex
  10
13.01144
  20
19.12502
  30
0.00000
  42
-0.0580
  70
32
  0
VERTEX
  5
4E3
  100
AcDbEntity
  8
Layer 1
  62
0
  100
AcDb2dVertex
  10
12.35498
  20
19.17316
  30
0.00000
  42
-0.0439
  70
32
  0
VERTEX
  5
4E4
  100
AcDbEntity
  8
Layer 1
  62
0
  100
AcDb2dVertex
  10
11.34293
  20
19.21798
  30
0.00000
  42
0.0600
  70
32
  0
VERTEX
  5
4E5
  100
AcDbEntity
  8
Layer 1
  62
0
  100
AcDb2dVertex
  10
10.63755
  20
19.17536
  30
0.00000
  42
0.0481
  70
32
  0
VERTEX
  5
4E6
  100
AcDbEntity
  8
Layer 1
  62
0
  100
AcDb2dVertex
  10
9.75761
  20
19.13053
  30
0.00000
  42
0.0320
  70
32
  0
VERTEX
  5
4E7
  100
AcDbEntity
  8
Layer 1
  62
0
  100
AcDb2dVertex
  10
9.16342
  20
19.06416
  30
0.00000
  42
0.1121
  70
32
  0
VERTEX
  5
4E8
  100
AcDbEntity
  8
Layer 1
  62
0
  100
AcDb2dVertex
  10
4.07718
  20
17.23664
  30
0.00000
  42
0.1256
  70
32
  0
VERTEX
  5
4E9
  100
AcDbEntity
  8
Layer 1
  62
0
  100
AcDb2dVertex
  10
1.46435
  20
14.47699
  30
0.00000
  42
0.0926
  70
32
  0
VERTEX
  5
4EA
  100
AcDbEntity
  8
Layer 1
  62
0
  100
AcDb2dVertex
  10
0.88373
  20
12.67964
  30
0.00000
  42
-0.0982
  70
32
  0
VERTEX
  5
4EB
  100
AcDbEntity
  8
Layer 1
  62
0
  100
AcDb2dVertex
  10
0.85264
  20
12.49050
  30
0.00000
  42
0.0318
  70
32
  0
VERTEX
  5
4EC
  100
AcDbEntity
  8
Layer 1
  62
0
  100
AcDb2dVertex
  10
0.86250
  20
11.42380
  30
0.00000
  42
0.1411
  70
32
  0
VERTEX
  5
4ED
  100
AcDbEntity
  8
Layer 1
  62
0
  100
AcDb2dVertex
  10
2.14450
  20
8.34616
  30
0.00000
  42
0.1263
  70
32
  0
VERTEX
  5
4EE
  100
AcDbEntity
  8
Layer 1
  62
0
  100
AcDb2dVertex
  10
5.57443
  20
5.83114
  30
0.00000
  42
0.0679
  70
32
  0
VERTEX
  5
4EF
  100
AcDbEntity
  8
Layer 1
  62
0
  100
AcDb2dVertex
  10
9.02145
  20
4.91852
  30
0.00000
  42
0.0131
  70
32
  0
VERTEX
  5
4F0
  100
AcDbEntity
  8
Layer 1
  62
0
  100
AcDb2dVertex
  10
10.28636
  20
4.81829
  30
0.00000
  70
32
  0
VERTEX
  5
4F1
  100
AcDbEntity
  8
Layer 1
  62
0
  100
AcDb2dVertex
  10
11.56342
  20
4.81829
  30
0.00000
  42
0.0450
  70
32
  0
VERTEX
  5
4F2
  100
AcDbEntity
  8
Layer 1
  62
0
  100
AcDb2dVertex
  10
12.53254
  20
4.86202
  30
0.00000
  42
0.0673
  70
32
  0
VERTEX
  5
4F3
  100
AcDbEntity
  8
Layer 1
  62
0
  100
AcDb2dVertex
  10
13.06168
  20
4.90531
  30
0.00000
  42
0.0804
  70
32
  0
VERTEX
  5
4F4
  100
AcDbEntity
  8
Layer 1
  62
0
  100
AcDb2dVertex
  10
13.33704
  20
4.93820
  30
0.00000
  42
0.0075
  70
32
  0
VERTEX
  5
4F5
  100
AcDbEntity
  8
Layer 1
  62
0
  100
AcDb2dVertex
  10
14.07554
  20
5.03645
  30
0.00000
  42
0.0817
  70
32
  0
VERTEX
  5
4F6
  100
AcDbEntity
  8
Layer 1
  62
0
  100
AcDb2dVertex
  10
20.52489
  20
7.21829
  30
0.00000
  42
0.0098
  70
32
  0
VERTEX
  5
4F7
  100
AcDbEntity
  8
Layer 1
  62
0
  100
AcDb2dVertex
  10
22.48844
  20
8.31137
  30
0.00000
  42
0.2131
  70
32
  0
VERTEX
  5
4F8
  100
AcDbEntity
  8
Layer 1
  62
0
  100
AcDb2dVertex
  10
22.50341
  20
8.34634
  30
0.00000
  42
0.1743
  70
32
  0
VERTEX
  5
4F9
  100
AcDbEntity
  8
Layer 1
  62
0
  100
AcDb2dVertex
  10
22.47924
  20
8.42578
  30
0.00000
  70
32
  0
VERTEX
  5
4FA
  100
AcDbEntity
  8
Layer 1
  62
0
  100
AcDb2dVertex
  10
20.28529
  20
11.68353
  30
0.00000
  42
0.1107
  70
32
  0
VERTEX
  5
4FB
  100
AcDbEntity
  8
Layer 1
  62
0
  100
AcDb2dVertex
  10
20.23341
  20
11.72338
  30
0.00000
  42
0.2417
  70
32
  0
VERTEX
  5
4FC
  100
AcDbEntity
  8
Layer 1
  62
0
  100
AcDb2dVertex
  10
20.18334
  20
11.71532
  30
0.00000
  42
-0.0465
  70
32
  0
VERTEX
  5
4FD
  100
AcDbEntity
  8
Layer 1
  62
0
  100
AcDb2dVertex
  10
17.11856
  20
10.09614
  30
0.00000
  42
-0.0458
  70
32
  0
VERTEX
  5
4FE
  100
AcDbEntity
  8
Layer 1
  62
0
  100
AcDb2dVertex
  10
14.43893
  20
9.26851
  30
0.00000
  42
-0.1071
  70
32
  0
VERTEX
  5
4FF
  100
AcDbEntity
  8
Layer 1
  62
0
  100
AcDb2dVertex
  10
14.38908
  20
9.27243
  30
0.00000
  42
-0.2394
  70
32
  0
VERTEX
  5
500
  100
AcDbEntity
  8
Layer 1
  62
0
  100
AcDb2dVertex
  10
14.36618
  20
9.29533
  30
0.00000
  42
-0.0894
  70
32
  0
VERTEX
  5
501
  100
AcDbEntity
  8
Layer 1
  62
0
  100
AcDb2dVertex
  10
14.35997
  20
9.38186
  30
0.00000
  70
32
  0
VERTEX
  5
502
  100
AcDbEntity
  8
Layer 1
  62
0
  100
AcDb2dVertex
  10
14.36182
  20
14.63240
  30
0.00000
  42
-0.1727
  70
32
  0
VERTEX
  5
503
  100
AcDbEntity
  8
Layer 1
  62
0
  100
AcDb2dVertex
  10
14.37477
  20
14.66723
  30
0.00000
  42
-0.2314
  70
32
  0
VERTEX
  5
504
  100
AcDbEntity
  8
Layer 1
  62
0
  100
AcDb2dVertex
  10
14.40599
  20
14.67657
  30
0.00000
  70
32
  0
VERTEX
  5
505
  100
AcDbEntity
  8
Layer 1
  62
0
  100
AcDb2dVertex
  10
14.42840
  20
14.66943
  30
0.00000
  42
0.1064
  70
32
  0
VERTEX
  5
506
  100
AcDbEntity
  8
Layer 1
  62
0
  100
AcDb2dVertex
  10
14.64322
  20
14.63566
  30
0.00000
  70
32
  0
SEQEND
  5
507
  100
AcDbEntity
  8
Layer 1
  62
0
  0
POLYLINE
  5
508
  100
AcDbEntity
  8
Layer 1
  62
0
  100
AcDb2dPolyline
 66
     1
  10
0
  20
0
  30
0
  70
1
  0
VERTEX
  5
509
  100
AcDbEntity
  8
Layer 1
  62
0
  100
AcDb2dVertex
  10
15.19662
  20
13.59785
  30
0.00000
  70
32
  0
VERTEX
  5
50A
  100
AcDbEntity
  8
Layer 1
  62
0
  100
AcDb2dVertex
  10
15.19843
  20
10.32900
  30
0.00000
  42
0.1629
  70
32
  0
VERTEX
  5
50B
  100
AcDbEntity
  8
Layer 1
  62
0
  100
AcDb2dVertex
  10
15.20953
  20
10.29602
  30
0.00000
  42
0.2782
  70
32
  0
VERTEX
  5
50C
  100
AcDbEntity
  8
Layer 1
  62
0
  100
AcDb2dVertex
  10
15.23247
  20
10.29496
  30
0.00000
  42
0.0176
  70
32
  0
VERTEX
  5
50D
  100
AcDbEntity
  8
Layer 1
  62
0
  100
AcDb2dVertex
  10
16.43150
  20
10.69517
  30
0.00000
  42
0.0370
  70
32
  0
VERTEX
  5
50E
  100
AcDbEntity
  8
Layer 1
  62
0
  100
AcDb2dVertex
  10
18.72700
  20
11.77860
  30
0.00000
  70
32
  0
VERTEX
  5
50F
  100
AcDbEntity
  8
Layer 1
  62
0
  100
AcDb2dVertex
  10
18.75576
  20
11.80392
  30
0.00000
  42
0.2052
  70
32
  0
VERTEX
  5
510
  100
AcDbEntity
  8
Layer 1
  62
0
  100
AcDb2dVertex
  10
18.74664
  20
11.85333
  30
0.00000
  42
0.0487
  70
32
  0
VERTEX
  5
511
  100
AcDbEntity
  8
Layer 1
  62
0
  100
AcDb2dVertex
  10
18.45437
  20
12.10557
  30
0.00000
  42
0.1003
  70
32
  0
VERTEX
  5
512
  100
AcDbEntity
  8
Layer 1
  62
0
  100
AcDb2dVertex
  10
15.24269
  20
13.70776
  30
0.00000
  42
0.3688
  70
32
  0
VERTEX
  5
513
  100
AcDbEntity
  8
Layer 1
  62
0
  100
AcDb2dVertex
  10
15.20283
  20
13.68433
  30
0.00000
  42
0.0891
  70
32
  0
VERTEX
  5
514
  100
AcDbEntity
  8
Layer 1
  62
0
  100
AcDb2dVertex
  10
15.19662
  20
13.59785
  30
0.00000
  70
32
  0
SEQEND
  5
515
  100
AcDbEntity
  8
Layer 1
  62
0
  0
POLYLINE
  5
516
  100
AcDbEntity
  8
Layer 1
  62
0
  100
AcDb2dPolyline
 66
     1
  10
0
  20
0
  30
0
  70
1
  0
VERTEX
  5
517
  100
AcDbEntity
  8
Layer 1
  62
0
  100
AcDb2dVertex
  10
14.07069
  20
19.78795
  30
0.00000
  42
-0.0376
  70
32
  0
VERTEX
  5
518
  100
AcDbEntity
  8
Layer 1
  62
0
  100
AcDb2dVertex
  10
17.44223
  20
19.06641
  30
0.00000
  70
32
  0
VERTEX
  5
519
  100
AcDbEntity
  8
Layer 1
  62
0
  100
AcDb2dVertex
  10
17.47319
  20
19.05157
  30
0.00000
  42
0.2356
  70
32
  0
VERTEX
  5
51A
  100
AcDbEntity
  8
Layer 1
  62
0
  100
AcDb2dVertex
  10
17.57214
  20
19.06645
  30
0.00000
  70
32
  0
VERTEX
  5
51B
  100
AcDbEntity
  8
Layer 1
  62
0
  100
AcDb2dVertex
  10
17.88498
  20
19.37013
  30
0.00000
  42
-0.1410
  70
32
  0
VERTEX
  5
51C
  100
AcDbEntity
  8
Layer 1
  62
0
  100
AcDb2dVertex
  10
17.95103
  20
19.39211
  30
0.00000
  42
-0.1114
  70
32
  0
VERTEX
  5
51D
  100
AcDbEntity
  8
Layer 1
  62
0
  100
AcDb2dVertex
  10
18.13550
  20
19.36097
  30
0.00000
  42
-0.0171
  70
32
  0
VERTEX
  5
51E
  100
AcDbEntity
  8
Layer 1
  62
0
  100
AcDb2dVertex
  10
18.43729
  20
19.26647
  30
0.00000
  70
32
  0
VERTEX
  5
51F
  100
AcDbEntity
  8
Layer 1
  62
0
  100
AcDb2dVertex
  10
21.65967
  20
18.30537
  30
0.00000
  42
-0.1019
  70
32
  0
VERTEX
  5
520
  100
AcDbEntity
  8
Layer 1
  62
0
  100
AcDb2dVertex
  10
21.85885
  20
18.24033
  30
0.00000
  70
32
  0
VERTEX
  5
521
  100
AcDbEntity
  8
Layer 1
  62
0
  100
AcDb2dVertex
  10
21.88087
  20
18.21831
  30
0.00000
  42
-0.1765
  70
32
  0
VERTEX
  5
522
  100
AcDbEntity
  8
Layer 1
  62
0
  100
AcDb2dVertex
  10
21.93398
  20
18.05123
  30
0.00000
  42
-0.0178
  70
32
  0
VERTEX
  5
523
  100
AcDbEntity
  8
Layer 1
  62
0
  100
AcDb2dVertex
  10
22.02694
  20
17.61575
  30
0.00000
  70
32
  0
VERTEX
  5
524
  100
AcDbEntity
  8
Layer 1
  62
0
  100
AcDb2dVertex
  10
22.76578
  20
14.17627
  30
0.00000
  70
32
  0
VERTEX
  5
525
  100
AcDbEntity
  8
Layer 1
  62
0
  100
AcDb2dVertex
  10
22.76847
  20
14.13430
  30
0.00000
  42
-0.1409
  70
32
  0
VERTEX
  5
526
  100
AcDbEntity
  8
Layer 1
  62
0
  100
AcDb2dVertex
  10
22.74645
  20
14.06829
  30
0.00000
  42
0.0117
  70
32
  0
VERTEX
  5
527
  100
AcDbEntity
  8
Layer 1
  62
0
  100
AcDb2dVertex
  10
22.16305
  20
13.46270
  30
0.00000
  42
-0.0187
  70
32
  0
VERTEX
  5
528
  100
AcDbEntity
  8
Layer 1
  62
0
  100
AcDb2dVertex
  10
21.47168
  20
12.74490
  30
0.00000
  42
-0.0358
  70
32
  0
VERTEX
  5
529
  100
AcDbEntity
  8
Layer 1
  62
0
  100
AcDb2dVertex
  10
20.98956
  20
12.21417
  30
0.00000
  42
0.3427
  70
32
  0
VERTEX
  5
52A
  100
AcDbEntity
  8
Layer 1
  62
0
  100
AcDb2dVertex
  10
20.99291
  20
12.08919
  30
0.00000
  70
32
  0
VERTEX
  5
52B
  100
AcDbEntity
  8
Layer 1
  62
0
  100
AcDb2dVertex
  10
23.59116
  20
8.15676
  30
0.00000
  42
-0.2427
  70
32
  0
VERTEX
  5
52C
  100
AcDbEntity
  8
Layer 1
  62
0
  100
AcDb2dVertex
  10
23.59042
  20
8.13012
  30
0.00000
  42
-0.0383
  70
32
  0
VERTEX
  5
52D
  100
AcDbEntity
  8
Layer 1
  62
0
  100
AcDb2dVertex
  10
23.55858
  20
8.09608
  30
0.00000
  42
-0.0407
  70
32
  0
VERTEX
  5
52E
  100
AcDbEntity
  8
Layer 1
  62
0
  100
AcDb2dVertex
  10
20.37076
  20
6.27150
  30
0.00000
  42
-0.0695
  70
32
  0
VERTEX
  5
52F
  100
AcDbEntity
  8
Layer 1
  62
0
  100
AcDb2dVertex
  10
14.09553
  20
4.22380
  30
0.00000
  42
0.0115
  70
32
  0
VERTEX
  5
530
  100
AcDbEntity
  8
Layer 1
  62
0
  100
AcDb2dVertex
  10
13.52305
  20
4.13572
  30
0.00000
  42
-0.0183
  70
32
  0
VERTEX
  5
531
  100
AcDbEntity
  8
Layer 1
  62
0
  100
AcDb2dVertex
  10
13.16090
  20
4.10151
  30
0.00000
  42
-0.0834
  70
32
  0
VERTEX
  5
532
  100
AcDbEntity
  8
Layer 1
  62
0
  100
AcDb2dVertex
  10
12.88479
  20
4.06940
  30
0.00000
  42
0.0143
  70
32
  0
VERTEX
  5
533
  100
AcDbEntity
  8
Layer 1
  62
0
  100
AcDb2dVertex
  10
12.79958
  20
4.06654
  30
0.00000
  42
0.0334
  70
32
  0
VERTEX
  5
534
  100
AcDbEntity
  8
Layer 1
  62
0
  100
AcDb2dVertex
  10
12.61511
  20
4.03078
  30
0.00000
  42
0.0075
  70
32
  0
VERTEX
  5
535
  100
AcDbEntity
  8
Layer 1
  62
0
  100
AcDb2dVertex
  10
11.66365
  20
4.01343
  30
0.00000
  42
-0.1175
  70
32
  0
VERTEX
  5
536
  100
AcDbEntity
  8
Layer 1
  62
0
  100
AcDb2dVertex
  10
11.43413
  20
3.98503
  30
0.00000
  42
0.0751
  70
32
  0
VERTEX
  5
537
  100
AcDbEntity
  8
Layer 1
  62
0
  100
AcDb2dVertex
  10
10.99094
  20
4.02563
  30
0.00000
  42
-0.0263
  70
32
  0
VERTEX
  5
538
  100
AcDbEntity
  8
Layer 1
  62
0
  100
AcDb2dVertex
  10
10.08819
  20
4.04765
  30
0.00000
  42
0.0210
  70
32
  0
VERTEX
  5
539
  100
AcDbEntity
  8
Layer 1
  62
0
  100
AcDb2dVertex
  10
9.59392
  20
4.08182
  30
0.00000
  42
0.0128
  70
32
  0
VERTEX
  5
53A
  100
AcDbEntity
  8
Layer 1
  62
0
  100
AcDb2dVertex
  10
9.16342
  20
4.13572
  30
0.00000
  42
-0.0599
  70
32
  0
VERTEX
  5
53B
  100
AcDbEntity
  8
Layer 1
  62
0
  100
AcDb2dVertex
  10
5.69976
  20
4.94362
  30
0.00000
  42
-0.1027
  70
32
  0
VERTEX
  5
53C
  100
AcDbEntity
  8
Layer 1
  62
0
  100
AcDb2dVertex
  10
2.20562
  20
7.04215
  30
0.00000
  42
-0.1456
  70
32
  0
VERTEX
  5
53D
  100
AcDbEntity
  8
Layer 1
  62
0
  100
AcDb2dVertex
  10
0.21217
  20
10.37713
  30
0.00000
  42
-0.0599
  70
32
  0
VERTEX
  5
53E
  100
AcDbEntity
  8
Layer 1
  62
0
  100
AcDb2dVertex
  10
0.04672
  20
11.48875
  30
0.00000
  42
-0.0603
  70
32
  0
VERTEX
  5
53F
  100
AcDbEntity
  8
Layer 1
  62
0
  100
AcDb2dVertex
  10
0.00898
  20
12.27732
  30
0.00000
  42
0.0860
  70
32
  0
VERTEX
  5
540
  100
AcDbEntity
  8
Layer 1
  62
0
  100
AcDb2dVertex
  10
0.04813
  20
12.63450
  30
0.00000
  42
-0.0168
  70
32
  0
VERTEX
  5
541
  100
AcDbEntity
  8
Layer 1
  62
0
  100
AcDb2dVertex
  10
0.14070
  20
13.24652
  30
0.00000
  42
-0.1311
  70
32
  0
VERTEX
  5
542
  100
AcDbEntity
  8
Layer 1
  62
0
  100
AcDb2dVertex
  10
1.77406
  20
16.32508
  30
0.00000
  42
-0.0857
  70
32
  0
VERTEX
  5
543
  100
AcDbEntity
  8
Layer 1
  62
0
  100
AcDb2dVertex
  10
4.44718
  20
18.36389
  30
0.00000
  42
-0.0856
  70
32
  0
VERTEX
  5
544
  100
AcDbEntity
  8
Layer 1
  62
0
  100
AcDb2dVertex
  10
8.78911
  20
19.79077
  30
0.00000
  42
-0.0212
  70
32
  0
VERTEX
  5
545
  100
AcDbEntity
  8
Layer 1
  62
0
  100
AcDb2dVertex
  10
9.53254
  20
19.88400
  30
0.00000
  42
-0.0837
  70
32
  0
VERTEX
  5
546
  100
AcDbEntity
  8
Layer 1
  62
0
  100
AcDb2dVertex
  10
9.88893
  20
19.92394
  30
0.00000
  42
-0.0523
  70
32
  0
VERTEX
  5
547
  100
AcDbEntity
  8
Layer 1
  62
0
  100
AcDb2dVertex
  10
10.68159
  20
19.96802
  30
0.00000
  42
-0.0677
  70
32
  0
VERTEX
  5
548
  100
AcDbEntity
  8
Layer 1
  62
0
  100
AcDb2dVertex
  10
11.21113
  20
20.01095
  30
0.00000
  42
-0.0510
  70
32
  0
VERTEX
  5
549
  100
AcDbEntity
  8
Layer 1
  62
0
  100
AcDb2dVertex
  10
12.09499
  20
19.97004
  30
0.00000
  42
-0.0527
  70
32
  0
VERTEX
  5
54A
  100
AcDbEntity
  8
Layer 1
  62
0
  100
AcDb2dVertex
  10
12.72053
  20
19.93503
  30
0.00000
  42
-0.0051
  70
32
  0
VERTEX
  5
54B
  100
AcDbEntity
  8
Layer 1
  62
0
  100
AcDb2dVertex
  10
13.48888
  20
19.86665
  30
0.00000
  42
0.0419
  70
32
  0
VERTEX
  5
54C
  100
AcDbEntity
  8
Layer 1
  62
0
  100
AcDb2dVertex
  10
13.84118
  20
19.82261
  30
0.00000
  42
0.0922
  70
32
  0
VERTEX
  5
54D
  100
AcDbEntity
  8
Layer 1
  62
0
  100
AcDb2dVertex
  10
14.07069
  20
19.78795
  30
0.00000
  70
32
  0
SEQEND
  5
54E
  100
AcDbEntity
  8
Layer 1
  62
0
 0
ENDSEC
 0
EOF
